  0
SECTION
  2
HEADER
  9
$ACADVER
  1
AC1009
  9
$INSBASE
 10
0
 20
0
 30
0
  9
$EXTMIN
 10
0
 20
0
  9
$EXTMAX
 10
1189
 20
841
  9
$LIMMIN
 10
0
 20
0
  9
$LIMMAX
 10
1189
 20
841
  9
$LTSCALE
 40
1
  0
ENDSEC
  0
SECTION
  2
TABLES
  0
TABLE
  2
LTYPE
 70
     9
  0
LTYPE
  2
CONTINUOUS
 70
    64
  3
実線
 72
    65
 73
     0
 40
0.0
  0
LTYPE
  2
DASHED1
 70
    64
  3
--  --  --  --  --  --  --  --  
 72
    65
 73
     2
 40
2.5
 49
1.25
 49
-1.25
  0
LTYPE
  2
DASHED2
 70
    64
  3
----    ----    ----    ----    
 72
    65
 73
     2
 40
5.0
 49
2.5
 49
-2.5
  0
LTYPE
  2
DASHED3
 70
    64
  3
------  ------  ------  ------  
 72
    65
 73
     2
 40
5.0
 49
3.75
 49
-1.25
  0
LTYPE
  2
CENTER1
 70
    64
  3
----- - ----- - ----- - ----- - 
 72
    65
 73
     4
 40
10.0
 49
6.25
 49
-1.25
 49
1.25
 49
-1.25
  0
LTYPE
  2
CENTER2
 70
    64
  3
----------  --  ----------  --  
 72
    65
 73
     4
 40
20.0
 49
12.5
 49
-2.5
 49
2.5
 49
-2.5
  0
LTYPE
  2
PHANTOM1
 70
    64
  3
--- - - --- - - --- - - --- - - 
 72
    65
 73
     6
 40
10.0
 49
3.25
 49
-1.25
 49
1.25
 49
-1.25
 49
1.25
 49
-1.25
  0
LTYPE
  2
PHANTOM2
 70
    64
  3
--------  -  -  --------  -  -  
 72
    65
 73
     6
 40
20.0
 49
10.0
 49
-2.5
 49
1.25
 49
-2.5
 49
1.25
 49
-2.5
  0
LTYPE
  2
DOT
 70
    64
  3
-   -   -   -   -   -   -   -   
 72
    65
 73
     2
 40
2.5
 49
0.625
 49
-1.875
  0
LTYPE
  2
DUMMY
 70
    64
  3
ダミー
 72
    65
 73
     0
 40
0.0
  0
LTYPE
  2
RAND1
 70
    64
  3
ランダム線1
 72
    65
 73
     4
 40
10.0
 49
1.0
 49
-2.0
 49
3.0
 49
-4.0
  0
LTYPE
  2
RAND2
 70
    64
  3
ランダム線2
 72
    65
 73
     4
 40
14.0
 49
2.0
 49
-3.0
 49
4.0
 49
-5.0
  0
LTYPE
  2
RAND3
 70
    64
  3
ランダム線3
 72
    65
 73
     4
 40
18.0
 49
3.0
 49
-4.0
 49
5.0
 49
-6.0
  0
LTYPE
  2
RAND4
 70
    64
  3
ランダム線4
 72
    65
 73
     4
 40
22.0
 49
4.0
 49
-5.0
 49
6.0
 49
-7.0
  0
LTYPE
  2
RAND5
 70
    64
  3
ランダム線5
 72
    65
 73
     4
 40
26.0
 49
5.0
 49
-6.0
 49
7.0
 49
-8.0
  0
LTYPE
  2
LONG1
 70
    64
  3
----------  --  ----------  --  
 72
    65
 73
     4
 40
40.0
 49
32.5
 49
-2.5
 49
2.5
 49
-2.5
  0
LTYPE
  2
LONG2
 70
    64
  3
--------  -  -  --------  -  -  
 72
    65
 73
     6
 40
40.0
 49
30.0
 49
-2.5
 49
1.25
 49
-2.5
 49
1.25
 49
-2.5
  0
LTYPE
  2
LONG3
 70
    64
  3
+++++++++++++++..+++++++++++++++
 72
    65
 73
     2
 40
40.0
 49
37.5
 49
-2.5
  0
LTYPE
  2
LONG4
 70
    64
  3
+++++++++++++++..+++++++++++++++
 72
    65
 73
     2
 40
80.0
 49
75.0
 49
-5.0
  0
LTYPE
  2
LONG5
 70
    64
  3
----------  --  ----------  --  
 72
    65
 73
     4
 40
60.0
 49
37.5
 49
-7.5
 49
7.5
 49
-7.5
  0
LTYPE
  2
dashed
 70
   64
  3
-------   -------------   ------
 72
   65
 73
    2
 40
7.5
 49
6
 49
-1.5
  0
LTYPE
  2
dashed_spaced
 70
   64
  3
----        --------        ----
 72
   65
 73
    2
 40
12
 49
6
 49
-6
  0
LTYPE
  2
long_dashed_dotted
 70
   64
  3
------------- --- --------------
 72
   65
 73
    4
 40
15.25
 49
12
 49
-1.5
 49
0.25
 49
-1.5
  0
LTYPE
  2
long_dashed_double-dotted
 70
   64
  3
----------- --- --- ------------
 72
   65
 73
    6
 40
17
 49
12
 49
-1.5
 49
0.25
 49
-1.5
 49
0.25
 49
-1.5
  0
LTYPE
  2
long_dashed_triplicate-dotted
 70
   64
  3
--------- --- --- --- ----------
 72
   65
 73
    8
 40
18.75
 49
12
 49
-1.5
 49
0.25
 49
-1.5
 49
0.25
 49
-1.5
 49
0.25
 49
-1.5
  0
LTYPE
  2
dotted
 70
   64
  3
   -       -       -       -    
 72
   65
 73
    2
 40
1.75
 49
0.25
 49
-1.5
  0
LTYPE
  2
chain
 70
   64
  3
-------------- -- --------------
 72
   65
 73
    4
 40
18.5
 49
12
 49
-1.5
 49
3.5
 49
-1.5
  0
LTYPE
  2
chain_double_dash
 70
   64
  3
------------ -- -- -------------
 72
   65
 73
    6
 40
23.5
 49
12
 49
-1.5
 49
3.5
 49
-1.5
 49
3.5
 49
-1.5
  0
LTYPE
  2
dashed_dotted
 70
   64
  3
-----------     -     ----------
 72
   65
 73
    4
 40
9.25
 49
6
 49
-1.5
 49
0.25
 49
-1.5
  0
LTYPE
  2
double-dashed_dotted
 70
   64
  3
------   -----------   -   -----
 72
   65
 73
    6
 40
16.75
 49
6
 49
-1.5
 49
6
 49
-1.5
 49
0.25
 49
-1.5
  0
LTYPE
  2
dashed_double-dotted
 70
   64
  3
---------    -    -    ---------
 72
   65
 73
    6
 40
11
 49
6
 49
-1.5
 49
0.25
 49
-1.5
 49
0.25
 49
-1.5
  0
LTYPE
  2
double-dashed_double-dotted
 70
   64
  3
-----   ---------   -   -   ----
 72
   65
 73
    8
 40
18.5
 49
6
 49
-1.5
 49
6
 49
-1.5
 49
0.25
 49
-1.5
 49
0.25
 49
-1.5
  0
LTYPE
  2
dashed_triplicate-dotted
 70
   64
  3
-------    -    -    -    ------
 72
   65
 73
    8
 40
12.75
 49
6
 49
-1.5
 49
0.25
 49
-1.5
 49
0.25
 49
-1.5
 49
0.25
 49
-1.5
  0
LTYPE
  2
double-dashed_triplicate-dotted
 70
   64
  3
-----  ---------  -  -  -  -----
 72
   65
 73
   10
 40
20.25
 49
6
 49
-1.5
 49
6
 49
-1.5
 49
0.25
 49
-1.5
 49
0.25
 49
-1.5
 49
0.25
 49
-1.5
  0
LTYPE
  2
undefined
 70
   64
  3
--------------------------------
 72
   65
 73
    0
 40
0
  0
ENDTAB
  0
TABLE
  2
STYLE
  5
3
100
AcDbSymbolTable
 70
     1
  0
STYLE
  5
10
100
AcDbSymbolTableRecord
100
AcDbTextStyleTableRecord
  2
STANDARD
 70
     0
 40
0.0
 41
1.0
 50
0.0
 71
     0
 42
0.2
  3
txt
  4
bigfont.shx
  0
STYLE
  5
26
100
AcDbSymbolTableRecord
100
AcDbTextStyleTableRecord
  2
TATEGAKI
 70
    68
 40
0.0
 41
1.0
 50
0.0
 71
     0
 42
1.0
  3
txt
  4
bigfont.shx
  0
ENDTAB
  0
TABLE
  2
LAYER
 70
    4
  0
LAYER
  2
_0-0_
 70
   64
 62
    7
  6
CONTINUOUS
  0
LAYER
  2
_0-1_
 70
   64
 62
    7
  6
CONTINUOUS
  0
LAYER
  2
_0-e_
 70
   64
 62
    7
  6
CONTINUOUS
  0
LAYER
  2
ADD_LINE
 70
   64
 62
    7
  6
CONTINUOUS
  0
ENDTAB
  0
ENDSEC
  0
SECTION
  2
BLOCKS
  0
ENDSEC
  0
SECTION
  2
ENTITIES
  0
CIRCLE
  8
_0-0_
  6
CONTINUOUS
 62
    7
 10
75.354719016921763
 20
11.066112999902941
 40
2.5
  0
LINE
  8
_0-0_
  6
CONTINUOUS
 62
    7
 10
80.354719016922218
 20
15.866112999902668
 11
80.354719016922218
 21
6.2661129999026457
  0
LINE
  8
_0-0_
  6
CONTINUOUS
 62
    7
 10
80.354719016922218
 20
6.2661129999026457
 11
70.354719016922218
 21
6.2661129999026457
  0
LINE
  8
_0-0_
  6
CONTINUOUS
 62
    7
 10
70.354719016922218
 20
6.2661129999026457
 11
70.354719016922218
 21
15.866112999902668
  0
LINE
  8
_0-0_
  6
CONTINUOUS
 62
    7
 10
70.354719016922218
 20
15.866112999902668
 11
80.354719016922218
 21
15.866112999902668
  0
LINE
  8
_0-0_
  6
CONTINUOUS
 62
    7
 10
80.354719016922218
 20
14.612778999903128
 11
70.354719016922218
 21
14.612778999903128
  0
LINE
  8
_0-0_
  6
CONTINUOUS
 62
    7
 10
70.354719016922218
 20
14.292493999902888
 11
80.354719016922218
 21
14.292493999902888
  0
LINE
  8
_0-0_
  6
CONTINUOUS
 62
    7
 10
80.354719016922218
 20
7.8397309999029972
 11
70.354719016922218
 21
7.8397309999029972
  0
LINE
  8
_0-0_
  6
CONTINUOUS
 62
    7
 10
70.354719016922218
 20
7.5194459999027572
 11
80.354719016922218
 21
7.5194459999027572
  0
CIRCLE
  8
_0-0_
  6
CONTINUOUS
 62
    7
 10
75.354719016921763
 20
11.066112999902941
 40
2.1500000953674316
  0
CIRCLE
  8
_0-0_
  6
CONTINUOUS
 62
    7
 10
43.959537287724288
 20
11.066112999902941
 40
2
  0
LINE
  8
_0-0_
  6
CONTINUOUS
 62
    7
 10
48.959537287724288
 20
15.866112999902668
 11
48.959537287724288
 21
6.2661129999027594
  0
LINE
  8
_0-0_
  6
CONTINUOUS
 62
    7
 10
48.959537287724288
 20
6.2661129999027594
 11
38.959537287724288
 21
6.2661129999027594
  0
LINE
  8
_0-0_
  6
CONTINUOUS
 62
    7
 10
38.959537287724288
 20
6.2661129999027594
 11
38.959537287724288
 21
15.866112999902668
  0
LINE
  8
_0-0_
  6
CONTINUOUS
 62
    7
 10
38.959537287724288
 20
15.866112999902668
 11
48.959537287724288
 21
15.866112999902668
  0
LINE
  8
_0-0_
  6
CONTINUOUS
 62
    7
 10
48.959537287724288
 20
14.612778999903128
 11
38.959537287724288
 21
14.612778999903128
  0
LINE
  8
_0-0_
  6
CONTINUOUS
 62
    7
 10
38.959537287724288
 20
14.292493999902888
 11
48.959537287724288
 21
14.292493999902888
  0
LINE
  8
_0-0_
  6
CONTINUOUS
 62
    7
 10
48.959537287724288
 20
7.8397309999031108
 11
38.959537287724288
 21
7.8397309999031108
  0
LINE
  8
_0-0_
  6
CONTINUOUS
 62
    7
 10
38.959537287724288
 20
7.5194459999028709
 11
48.959537287724288
 21
7.5194459999028709
  0
CIRCLE
  8
_0-0_
  6
CONTINUOUS
 62
    7
 10
43.959537287724288
 20
11.066112999902941
 40
1.7000000476837158
  0
CIRCLE
  8
_0-0_
  6
CONTINUOUS
 62
    7
 10
14.391124706333358
 20
11.066112999902941
 40
1.5
  0
LINE
  8
_0-0_
  6
CONTINUOUS
 62
    7
 10
19.391124706333358
 20
14.292493999902888
 11
9.3911247063333576
 21
14.292493999902888
  0
LINE
  8
_0-0_
  6
CONTINUOUS
 62
    7
 10
9.3911247063333576
 20
14.612778999903128
 11
19.391124706333358
 21
14.612778999903128
  0
LINE
  8
_0-0_
  6
CONTINUOUS
 62
    7
 10
19.391124706333358
 20
15.866112999902668
 11
19.391124706333358
 21
6.2661129999027594
  0
LINE
  8
_0-0_
  6
CONTINUOUS
 62
    7
 10
19.391124706333358
 20
6.2661129999027594
 11
9.3911247063333576
 21
6.2661129999027594
  0
LINE
  8
_0-0_
  6
CONTINUOUS
 62
    7
 10
9.3911247063333576
 20
6.2661129999027594
 11
9.3911247063333576
 21
15.866112999902668
  0
LINE
  8
_0-0_
  6
CONTINUOUS
 62
    7
 10
9.3911247063333576
 20
15.866112999902668
 11
19.391124706333358
 21
15.866112999902668
  0
LINE
  8
_0-0_
  6
CONTINUOUS
 62
    7
 10
19.391124706333358
 20
7.8397309999031108
 11
9.3911247063333576
 21
7.8397309999031108
  0
LINE
  8
_0-0_
  6
CONTINUOUS
 62
    7
 10
9.3911247063333576
 20
7.5194459999028709
 11
19.391124706333358
 21
7.5194459999028709
  0
CIRCLE
  8
_0-0_
  6
CONTINUOUS
 62
    7
 10
14.391124706333358
 20
11.066112999902941
 40
1.2999999523162842
  0
LINE
  8
_0-0_
  6
CONTINUOUS
 62
    7
 10
100.09836038937971
 20
15.566113000140774
 11
100.09836038937971
 21
14.739873430842351
  0
LINE
  8
_0-0_
  6
CONTINUOUS
 62
    7
 10
99.948360389379047
 20
14.480065809706673
 11
98.948360389383367
 21
13.90271554052282
  0
LINE
  8
_0-0_
  6
CONTINUOUS
 62
    7
 10
98.798360389376569
 20
13.642907919387824
 11
98.798360389376569
 21
8.4893180809015689
  0
LINE
  8
_0-0_
  6
CONTINUOUS
 62
    7
 10
98.948360389369839
 20
8.2295104597658906
 11
99.948360389374102
 21
7.6521601905704415
  0
LINE
  8
_0-0_
  6
CONTINUOUS
 62
    7
 10
100.09836038936737
 20
7.3923525694470413
 11
100.09836038936737
 21
6.5661130001483912
  0
LINE
  8
_0-0_
  6
CONTINUOUS
 62
    7
 10
100.39836038936818
 20
6.2661130001488914
 11
100.60133530591287
 21
6.2661130001488914
  0
LINE
  8
_0-0_
  6
CONTINUOUS
 62
    7
 10
102.95056685787375
 20
7.911062641840374
 11
103.37774563094086
 21
9.0847266749213418
  0
LINE
  8
_0-0_
  6
CONTINUOUS
 62
    7
 10
103.49836038937661
 20
9.7687669615505115
 11
103.49836038937661
 21
12.363459038716371
  0
LINE
  8
_0-0_
  6
CONTINUOUS
 62
    7
 10
103.37774563095314
 20
13.047499325368051
 11
102.95056685788603
 21
14.221163358448791
  0
LINE
  8
_0-0_
  6
CONTINUOUS
 62
    7
 10
100.60133530592515
 20
15.866113000140501
 11
100.39836038938051
 21
15.866113000140501
  0
ARC
  8
_0-0_
  6
CONTINUOUS
 62
    7
 10
100.39836038936738
 20
6.5661130001483912
 40
0.2999999999999999
 50
179.99999999999994
 51
270.00000000015234
  0
ARC
  8
_0-0_
  6
CONTINUOUS
 62
    7
 10
99.798360389367417
 20
7.3923525694470413
 40
0.2999999999999999
 50
0
 51
60.000000000136708
  0
ARC
  8
_0-0_
  6
CONTINUOUS
 62
    7
 10
101.49836038937968
 20
12.363459038721146
 40
2
 50
359.99999999999903
 51
19.999999999999829
  0
ARC
  8
_0-0_
  6
CONTINUOUS
 62
    7
 10
100.60133530591924
 20
13.366113000140274
 40
2.5
 50
19.999999999999979
 51
90.000000000000014
  0
ARC
  8
_0-0_
  6
CONTINUOUS
 62
    7
 10
99.098360389382719
 20
13.642907919387142
 40
0.2999999999999999
 50
119.99999999986328
 51
179.99999999986321
  0
ARC
  8
_0-0_
  6
CONTINUOUS
 62
    7
 10
99.798360389379695
 20
14.739873430842351
 40
0.2999999999999999
 50
299.99999999986329
 51
0
  0
ARC
  8
_0-0_
  6
CONTINUOUS
 62
    7
 10
100.39836038937966
 20
15.566113000140774
 40
0.2999999999999999
 50
89.999999999847645
 51
180.00000000000006
  0
ARC
  8
_0-0_
  6
CONTINUOUS
 62
    7
 10
101.49836038936741
 20
9.7687669615682466
 40
2
 50
340.00000000000011
 51
0.0000000000009191
  0
ARC
  8
_0-0_
  6
CONTINUOUS
 62
    7
 10
100.60133530590696
 20
8.7661130001491188
 40
2.5
 50
270
 51
340
  0
ARC
  8
_0-0_
  6
CONTINUOUS
 62
    7
 10
99.098360389370441
 20
8.4893180809020237
 40
0.2999999999999999
 50
180.00000000013682
 51
240.00000000013671
  0
TEXT
  8
_0-e_
 62
    7
 10
7.8987619763083785
 20
21.971233259095868
 40
5
 41
1
 50
0
  1
NF25-M3
  0
TEXT
  8
_0-e_
 62
    7
 10
37.467174557699309
 20
21.971233259095868
 40
5
 41
1
 50
0
  1
NF25-M4
  0
TEXT
  8
_0-e_
 62
    7
 10
68.862356286897239
 20
21.971233259095868
 40
5
 41
1
 50
0
  1
NF25-M5
  0
LINE
  8
_0-1_
  6
CENTER1
 62
  152
 10
81.72900289443885
 20
11.066112999902941
 11
70.354719016922218
 21
11.066112999902941
  0
LINE
  8
_0-1_
  6
CENTER1
 62
  152
 10
75.354719016922218
 20
15.866112999902668
 11
75.354719016922218
 21
6.2661129999026457
  0
LINE
  8
_0-1_
  6
CENTER1
 62
  152
 10
43.959537287724288
 20
15.866112999902668
 11
43.959537287724288
 21
6.2661129999027594
  0
LINE
  8
_0-1_
  6
CENTER1
 62
  152
 10
38.959537287724288
 20
11.066112999902941
 11
50.333821165241034
 21
11.066112999902941
  0
LINE
  8
_0-1_
  6
CENTER1
 62
  152
 10
14.391124706333358
 20
6.2661129999027594
 11
14.391124706333358
 21
15.866112999902668
  0
LINE
  8
_0-1_
  6
CENTER1
 62
  152
 10
9.3911247063333576
 20
11.066112999902941
 11
20.76540858384999
 21
11.066112999902941
  0
LINE
  8
_0-1_
  6
CENTER1
 62
  152
 10
103.49836038937968
 20
11.066112999902941
 11
96.888526649125765
 21
11.066112999902941
  0
ENDSEC
  0
EOF
