  0
SECTION
  2
HEADER
  9
$ACADVER
  1
AC1009
  9
$INSBASE
 10
0
 20
0
 30
0
  9
$EXTMIN
 10
0
 20
0
  9
$EXTMAX
 10
1189
 20
841
  9
$LIMMIN
 10
0
 20
0
  9
$LIMMAX
 10
1189
 20
841
  9
$LTSCALE
 40
1
  0
ENDSEC
  0
SECTION
  2
TABLES
  0
TABLE
  2
LTYPE
 70
     9
  0
LTYPE
  2
CONTINUOUS
 70
    64
  3
実線
 72
    65
 73
     0
 40
0.0
  0
LTYPE
  2
DASHED1
 70
    64
  3
--  --  --  --  --  --  --  --  
 72
    65
 73
     2
 40
2.5
 49
1.25
 49
-1.25
  0
LTYPE
  2
DASHED2
 70
    64
  3
----    ----    ----    ----    
 72
    65
 73
     2
 40
5.0
 49
2.5
 49
-2.5
  0
LTYPE
  2
DASHED3
 70
    64
  3
------  ------  ------  ------  
 72
    65
 73
     2
 40
5.0
 49
3.75
 49
-1.25
  0
LTYPE
  2
CENTER1
 70
    64
  3
----- - ----- - ----- - ----- - 
 72
    65
 73
     4
 40
10.0
 49
6.25
 49
-1.25
 49
1.25
 49
-1.25
  0
LTYPE
  2
CENTER2
 70
    64
  3
----------  --  ----------  --  
 72
    65
 73
     4
 40
20.0
 49
12.5
 49
-2.5
 49
2.5
 49
-2.5
  0
LTYPE
  2
PHANTOM1
 70
    64
  3
--- - - --- - - --- - - --- - - 
 72
    65
 73
     6
 40
10.0
 49
3.25
 49
-1.25
 49
1.25
 49
-1.25
 49
1.25
 49
-1.25
  0
LTYPE
  2
PHANTOM2
 70
    64
  3
--------  -  -  --------  -  -  
 72
    65
 73
     6
 40
20.0
 49
10.0
 49
-2.5
 49
1.25
 49
-2.5
 49
1.25
 49
-2.5
  0
LTYPE
  2
DOT
 70
    64
  3
-   -   -   -   -   -   -   -   
 72
    65
 73
     2
 40
2.5
 49
0.625
 49
-1.875
  0
LTYPE
  2
DUMMY
 70
    64
  3
ダミー
 72
    65
 73
     0
 40
0.0
  0
LTYPE
  2
RAND1
 70
    64
  3
ランダム線1
 72
    65
 73
     4
 40
10.0
 49
1.0
 49
-2.0
 49
3.0
 49
-4.0
  0
LTYPE
  2
RAND2
 70
    64
  3
ランダム線2
 72
    65
 73
     4
 40
14.0
 49
2.0
 49
-3.0
 49
4.0
 49
-5.0
  0
LTYPE
  2
RAND3
 70
    64
  3
ランダム線3
 72
    65
 73
     4
 40
18.0
 49
3.0
 49
-4.0
 49
5.0
 49
-6.0
  0
LTYPE
  2
RAND4
 70
    64
  3
ランダム線4
 72
    65
 73
     4
 40
22.0
 49
4.0
 49
-5.0
 49
6.0
 49
-7.0
  0
LTYPE
  2
RAND5
 70
    64
  3
ランダム線5
 72
    65
 73
     4
 40
26.0
 49
5.0
 49
-6.0
 49
7.0
 49
-8.0
  0
LTYPE
  2
LONG1
 70
    64
  3
----------  --  ----------  --  
 72
    65
 73
     4
 40
40.0
 49
32.5
 49
-2.5
 49
2.5
 49
-2.5
  0
LTYPE
  2
LONG2
 70
    64
  3
--------  -  -  --------  -  -  
 72
    65
 73
     6
 40
40.0
 49
30.0
 49
-2.5
 49
1.25
 49
-2.5
 49
1.25
 49
-2.5
  0
LTYPE
  2
LONG3
 70
    64
  3
+++++++++++++++..+++++++++++++++
 72
    65
 73
     2
 40
40.0
 49
37.5
 49
-2.5
  0
LTYPE
  2
LONG4
 70
    64
  3
+++++++++++++++..+++++++++++++++
 72
    65
 73
     2
 40
80.0
 49
75.0
 49
-5.0
  0
LTYPE
  2
LONG5
 70
    64
  3
----------  --  ----------  --  
 72
    65
 73
     4
 40
60.0
 49
37.5
 49
-7.5
 49
7.5
 49
-7.5
  0
LTYPE
  2
dashed
 70
   64
  3
-------   -------------   ------
 72
   65
 73
    2
 40
7.5
 49
6
 49
-1.5
  0
LTYPE
  2
dashed_spaced
 70
   64
  3
----        --------        ----
 72
   65
 73
    2
 40
12
 49
6
 49
-6
  0
LTYPE
  2
long_dashed_dotted
 70
   64
  3
------------- --- --------------
 72
   65
 73
    4
 40
15.25
 49
12
 49
-1.5
 49
0.25
 49
-1.5
  0
LTYPE
  2
long_dashed_double-dotted
 70
   64
  3
----------- --- --- ------------
 72
   65
 73
    6
 40
17
 49
12
 49
-1.5
 49
0.25
 49
-1.5
 49
0.25
 49
-1.5
  0
LTYPE
  2
long_dashed_triplicate-dotted
 70
   64
  3
--------- --- --- --- ----------
 72
   65
 73
    8
 40
18.75
 49
12
 49
-1.5
 49
0.25
 49
-1.5
 49
0.25
 49
-1.5
 49
0.25
 49
-1.5
  0
LTYPE
  2
dotted
 70
   64
  3
   -       -       -       -    
 72
   65
 73
    2
 40
1.75
 49
0.25
 49
-1.5
  0
LTYPE
  2
chain
 70
   64
  3
-------------- -- --------------
 72
   65
 73
    4
 40
18.5
 49
12
 49
-1.5
 49
3.5
 49
-1.5
  0
LTYPE
  2
chain_double_dash
 70
   64
  3
------------ -- -- -------------
 72
   65
 73
    6
 40
23.5
 49
12
 49
-1.5
 49
3.5
 49
-1.5
 49
3.5
 49
-1.5
  0
LTYPE
  2
dashed_dotted
 70
   64
  3
-----------     -     ----------
 72
   65
 73
    4
 40
9.25
 49
6
 49
-1.5
 49
0.25
 49
-1.5
  0
LTYPE
  2
double-dashed_dotted
 70
   64
  3
------   -----------   -   -----
 72
   65
 73
    6
 40
16.75
 49
6
 49
-1.5
 49
6
 49
-1.5
 49
0.25
 49
-1.5
  0
LTYPE
  2
dashed_double-dotted
 70
   64
  3
---------    -    -    ---------
 72
   65
 73
    6
 40
11
 49
6
 49
-1.5
 49
0.25
 49
-1.5
 49
0.25
 49
-1.5
  0
LTYPE
  2
double-dashed_double-dotted
 70
   64
  3
-----   ---------   -   -   ----
 72
   65
 73
    8
 40
18.5
 49
6
 49
-1.5
 49
6
 49
-1.5
 49
0.25
 49
-1.5
 49
0.25
 49
-1.5
  0
LTYPE
  2
dashed_triplicate-dotted
 70
   64
  3
-------    -    -    -    ------
 72
   65
 73
    8
 40
12.75
 49
6
 49
-1.5
 49
0.25
 49
-1.5
 49
0.25
 49
-1.5
 49
0.25
 49
-1.5
  0
LTYPE
  2
double-dashed_triplicate-dotted
 70
   64
  3
-----  ---------  -  -  -  -----
 72
   65
 73
   10
 40
20.25
 49
6
 49
-1.5
 49
6
 49
-1.5
 49
0.25
 49
-1.5
 49
0.25
 49
-1.5
 49
0.25
 49
-1.5
  0
LTYPE
  2
undefined
 70
   64
  3
--------------------------------
 72
   65
 73
    0
 40
0
  0
ENDTAB
  0
TABLE
  2
STYLE
  5
3
100
AcDbSymbolTable
 70
     1
  0
STYLE
  5
10
100
AcDbSymbolTableRecord
100
AcDbTextStyleTableRecord
  2
STANDARD
 70
     0
 40
0.0
 41
1.0
 50
0.0
 71
     0
 42
0.2
  3
txt
  4
bigfont.shx
  0
STYLE
  5
26
100
AcDbSymbolTableRecord
100
AcDbTextStyleTableRecord
  2
TATEGAKI
 70
    68
 40
0.0
 41
1.0
 50
0.0
 71
     0
 42
1.0
  3
txt
  4
bigfont.shx
  0
ENDTAB
  0
TABLE
  2
LAYER
 70
    3
  0
LAYER
  2
_0-0_
 70
   64
 62
    7
  6
CONTINUOUS
  0
LAYER
  2
_0-8_
 70
   64
 62
    7
  6
CONTINUOUS
  0
LAYER
  2
ADD_LINE
 70
   64
 62
    7
  6
CONTINUOUS
  0
ENDTAB
  0
ENDSEC
  0
SECTION
  2
BLOCKS
  0
ENDSEC
  0
SECTION
  2
ENTITIES
  0
ARC
  8
_0-0_
  6
CONTINUOUS
 62
    7
 10
25.185786273009171
 20
29.546936391773897
 40
2
 50
90
 51
180
  0
LINE
  8
_0-0_
  6
CONTINUOUS
 62
    7
 10
29.876385196250794
 20
31.546936391773897
 11
25.185786273009171
 21
31.546936391773897
  0
ARC
  8
_0-0_
  6
CONTINUOUS
 62
    7
 10
29.876385196250794
 20
29.546936391773897
 40
2
 50
0
 51
90
  0
LINE
  8
_0-0_
  6
CONTINUOUS
 62
    7
 10
31.876385196250794
 20
24.096891045877555
 11
31.876385196250794
 21
29.546936391773897
  0
ARC
  8
_0-0_
  6
CONTINUOUS
 62
    7
 10
29.876385196250794
 20
24.096891045877555
 40
2
 50
270
 51
0
  0
LINE
  8
_0-0_
  6
CONTINUOUS
 62
    7
 10
25.185786273009171
 20
22.096891045877555
 11
29.876385196250794
 21
22.096891045877555
  0
LINE
  8
_0-0_
  6
CONTINUOUS
 62
    7
 10
23.185786273009171
 20
24.096891045877555
 11
23.185786273009171
 21
29.546936391773897
  0
ARC
  8
_0-0_
  6
CONTINUOUS
 62
    7
 10
25.185786273009171
 20
24.096891045877555
 40
2
 50
180
 51
270
  0
ARC
  8
_0-0_
  6
CONTINUOUS
 62
    7
 10
24.031085734629983
 20
29.721913718825704
 40
2
 50
90
 51
180
  0
ARC
  8
_0-0_
  6
CONTINUOUS
 62
    7
 10
31.031085734629983
 20
29.721913718825704
 40
2
 50
0
 51
90
  0
LINE
  8
_0-0_
  6
CONTINUOUS
 62
    7
 10
33.031085734629983
 20
23.921913718825749
 11
33.031085734629983
 21
29.721913718825704
  0
ARC
  8
_0-0_
  6
CONTINUOUS
 62
    7
 10
31.031085734629983
 20
23.921913718825749
 40
2
 50
270
 51
0
  0
LINE
  8
_0-0_
  6
CONTINUOUS
 62
    7
 10
22.031085734629983
 20
23.921913718825749
 11
22.031085734629983
 21
29.721913718825704
  0
ARC
  8
_0-0_
  6
CONTINUOUS
 62
    7
 10
24.031085734629983
 20
23.921913718825749
 40
2
 50
180
 51
270
  0
ARC
  8
_0-0_
  6
CONTINUOUS
 62
    7
 10
21.935066902760695
 20
31.221913718825704
 40
0.5
 50
90
 51
155.00000000000023
  0
LINE
  8
_0-0_
  6
CONTINUOUS
 62
    7
 10
20.077931841111649
 20
28.422375518374622
 11
21.481913009242362
 21
31.433222849696051
  0
ARC
  8
_0-0_
  6
CONTINUOUS
 62
    7
 10
20.531085734629983
 20
28.211066387504275
 40
0.5
 50
155.0000000000004
 51
180
  0
ARC
  8
_0-0_
  6
CONTINUOUS
 62
    7
 10
34.531085734629983
 20
25.432761050147178
 40
0.5
 50
335.00000000000023
 51
0.0000000000000031
  0
LINE
  8
_0-0_
  6
CONTINUOUS
 62
    7
 10
33.580258460017603
 20
22.210604587955402
 11
34.984239628148316
 21
25.221451919276831
  0
ARC
  8
_0-0_
  6
CONTINUOUS
 62
    7
 10
33.12710456649927
 20
22.421913718825749
 40
0.5
 50
270
 51
335
  0
LINE
  8
_0-0_
  6
CONTINUOUS
 62
    7
 10
20.031085734629983
 20
22.921913718825749
 11
20.031085734629983
 21
28.211066387504275
  0
LINE
  8
_0-0_
  6
CONTINUOUS
 62
    7
 10
21.031085734629983
 20
21.921913718825749
 11
33.12710456649927
 21
21.921913718825749
  0
ARC
  8
_0-0_
  6
CONTINUOUS
 62
    7
 10
21.031085734629983
 20
22.921913718825749
 40
1
 50
180
 51
270
  0
LINE
  8
_0-0_
  6
CONTINUOUS
 62
    7
 10
34.031085734629983
 20
31.721913718825704
 11
21.935066902760695
 21
31.721913718825704
  0
LINE
  8
_0-0_
  6
CONTINUOUS
 62
    7
 10
35.031085734629983
 20
30.721913718825704
 11
35.031085734629983
 21
25.432761050147178
  0
ARC
  8
_0-0_
  6
CONTINUOUS
 62
    7
 10
34.031085734629983
 20
30.721913718825704
 40
1
 50
0
 51
90
  0
LINE
  8
_0-0_
  6
CONTINUOUS
 62
    7
 10
21.884639125223202
 20
2.3744193857741607
 11
20.177532344036763
 21
4.0815261669607139
  0
LINE
  8
_0-0_
  6
CONTINUOUS
 62
    7
 10
20.031085734629983
 20
4.4350795575539905
 11
20.031085734629983
 21
5.7279727763674373
  0
LINE
  8
_0-0_
  6
CONTINUOUS
 62
    7
 10
32.020722763548065
 20
7.9779727763674373
 11
33.031085734629983
 21
6.2279727763674373
  0
ARC
  8
_0-0_
  6
CONTINUOUS
 62
    7
 10
31.587710061655912
 20
7.7279727763674373
 40
0.5
 50
29.999999999999865
 51
90
  0
LINE
  8
_0-0_
  6
CONTINUOUS
 62
    7
 10
23.474461407604053
 20
8.2279727763674373
 11
31.587710061655912
 21
8.2279727763674373
  0
LINE
  8
_0-0_
  6
CONTINUOUS
 62
    7
 10
23.0414487057119
 20
7.9779727763674373
 11
22.031085734629983
 21
6.2279727763674373
  0
ARC
  8
_0-0_
  6
CONTINUOUS
 62
    7
 10
23.474461407604053
 20
7.7279727763674373
 40
0.5
 50
90
 51
150.00000000000014
  0
LINE
  8
_0-0_
  6
CONTINUOUS
 62
    7
 10
33.445639696903072
 20
5.7279727763674373
 11
33.445639696903072
 21
4.2279727763674373
  0
ARC
  8
_0-0_
  6
CONTINUOUS
 62
    7
 10
32.945639696903072
 20
5.7279727763674373
 40
0.5
 50
0
 51
90
  0
ARC
  8
_0-0_
  6
CONTINUOUS
 62
    7
 10
34.531085734629983
 20
5.7279727763674373
 40
0.5
 50
0
 51
90
  0
LINE
  8
_0-0_
  6
CONTINUOUS
 62
    7
 10
20.531085734629983
 20
6.2279727763674373
 11
34.531085734629983
 21
6.2279727763674373
  0
ARC
  8
_0-0_
  6
CONTINUOUS
 62
    7
 10
20.531085734629983
 20
5.7279727763674373
 40
0.5
 50
90
 51
180
  0
ARC
  8
_0-0_
  6
CONTINUOUS
 62
    7
 10
20.531085734629983
 20
4.4350795575539905
 40
0.5
 50
180
 51
225
  0
ARC
  8
_0-0_
  6
CONTINUOUS
 62
    7
 10
22.238192515816536
 20
2.7279727763674373
 40
0.5
 50
225
 51
270
  0
LINE
  8
_0-0_
  6
CONTINUOUS
 62
    7
 10
32.318885504881109
 20
2.459322972194002
 11
33.445639696903072
 21
4.2279727763674373
  0
ARC
  8
_0-0_
  6
CONTINUOUS
 62
    7
 10
31.897189781974703
 20
2.7279727763674373
 40
0.5
 50
270
 51
327.50000000000011
  0
LINE
  8
_0-0_
  6
CONTINUOUS
 62
    7
 10
32.823978953443429
 20
2.2279727763674373
 11
22.238192515816536
 21
2.2279727763674373
  0
ARC
  8
_0-0_
  6
CONTINUOUS
 62
    7
 10
32.823978953443429
 20
2.7279727763674373
 40
0.5
 50
270
 51
315
  0
LINE
  8
_0-0_
  6
CONTINUOUS
 62
    7
 10
34.884639125223202
 20
4.0815261669607139
 11
33.177532344036763
 21
2.3744193857741607
  0
LINE
  8
_0-0_
  6
CONTINUOUS
 62
    7
 10
35.031085734629983
 20
4.4350795575539905
 11
35.031085734629983
 21
5.7279727763674373
  0
ARC
  8
_0-0_
  6
CONTINUOUS
 62
    7
 10
34.531085734629983
 20
4.4350795575539905
 40
0.5
 50
314.99999999999994
 51
359.99999999999994
  0
LINE
  8
_0-0_
  6
CONTINUOUS
 62
    7
 10
20.075995874067758
 20
4.2279727763674373
 11
34.986175595192208
 21
4.2279727763674373
  0
LINE
  8
_0-0_
  6
CONTINUOUS
 62
    7
 10
54.525681678836918
 20
21.921913718825692
 11
54.525681678836918
 21
31.72191371882576
  0
LINE
  8
_0-0_
  6
CONTINUOUS
 62
    7
 10
50.982103807463091
 20
22.056959283840399
 11
52.525681678836918
 21
21.921913718825692
  0
ARC
  8
_0-0_
  6
CONTINUOUS
 62
    7
 10
51.025681678836918
 20
22.555056632886306
 40
0.5
 50
180
 51
264.9999999999996
  0
LINE
  8
_0-0_
  6
CONTINUOUS
 62
    7
 10
50.525681678836918
 20
31.088770804765147
 11
50.525681678836918
 21
22.555056632886306
  0
ARC
  8
_0-0_
  6
CONTINUOUS
 62
    7
 10
51.025681678836918
 20
31.088770804765147
 40
0.5
 50
95.000000000000398
 51
180
  0
LINE
  8
_0-0_
  6
CONTINUOUS
 62
    7
 10
54.318574897650478
 20
21.921913718825692
 11
52.525681678836918
 21
21.921913718825692
  0
ARC
  8
_0-0_
  6
CONTINUOUS
 62
    7
 10
54.318574897650478
 20
22.421913718825692
 40
0.5
 50
270
 51
315
  0
LINE
  8
_0-0_
  6
CONTINUOUS
 62
    7
 10
56.379235069430251
 20
23.775467109418969
 11
54.672128288243584
 21
22.068360328232473
  0
LINE
  8
_0-0_
  6
CONTINUOUS
 62
    7
 10
56.133901485806064
 20
25.678447466387411
 11
54.525681678836918
 21
25.321913718825726
  0
ARC
  8
_0-0_
  6
CONTINUOUS
 62
    7
 10
56.025681678836918
 20
26.166595469947367
 40
0.5
 50
282.49999999999955
 51
0.0000000000000381
  0
LINE
  8
_0-0_
  6
CONTINUOUS
 62
    7
 10
53.025681678836918
 20
25.321913718825726
 11
54.525681678836918
 21
25.321913718825726
  0
ARC
  8
_0-0_
  6
CONTINUOUS
 62
    7
 10
53.025681678836918
 20
25.821913718825726
 40
0.5
 50
180
 51
270
  0
ARC
  8
_0-0_
  6
CONTINUOUS
 62
    7
 10
53.025681678836918
 20
31.22191371882576
 40
0.5
 50
90
 51
180
  0
LINE
  8
_0-0_
  6
CONTINUOUS
 62
    7
 10
56.379235069430251
 20
29.868360328232427
 11
54.525681678836918
 21
31.72191371882576
  0
ARC
  8
_0-0_
  6
CONTINUOUS
 62
    7
 10
56.025681678836918
 20
29.51480693763915
 40
0.5
 50
0
 51
45
  0
LINE
  8
_0-0_
  6
CONTINUOUS
 62
    7
 10
56.525681678836918
 20
29.51480693763915
 11
56.525681678836918
 21
24.129020500012246
  0
ARC
  8
_0-0_
  6
CONTINUOUS
 62
    7
 10
56.025681678836918
 20
24.129020500012246
 40
0.5
 50
315
 51
0
  0
LINE
  8
_0-0_
  6
CONTINUOUS
 62
    7
 10
52.525681678836918
 20
31.72191371882576
 11
54.525681678836918
 21
31.72191371882576
  0
LINE
  8
_0-0_
  6
CONTINUOUS
 62
    7
 10
50.982103807463091
 20
31.586868153811054
 11
52.525681678836918
 21
31.72191371882576
  0
LINE
  8
_0-0_
  6
CONTINUOUS
 62
    7
 10
52.525681678836918
 20
31.22191371882576
 11
52.525681678836918
 21
21.921913718825692
  0
ARC
  8
_0-0_
  6
CONTINUOUS
 62
    7
 10
34.031085734629983
 20
57.399061494777754
 40
1
 50
0
 51
90
  0
LINE
  8
_0-0_
  6
CONTINUOUS
 62
    7
 10
35.031085734629983
 20
57.399061494777754
 11
35.031085734629983
 21
52.109908826099229
  0
LINE
  8
_0-0_
  6
CONTINUOUS
 62
    7
 10
34.031085734629983
 20
58.399061494777754
 11
21.935066902760695
 21
58.399061494777754
  0
ARC
  8
_0-0_
  6
CONTINUOUS
 62
    7
 10
21.031085734629983
 20
49.5990614947778
 40
1
 50
180
 51
270
  0
LINE
  8
_0-0_
  6
CONTINUOUS
 62
    7
 10
21.031085734629983
 20
48.5990614947778
 11
33.12710456649927
 21
48.5990614947778
  0
LINE
  8
_0-0_
  6
CONTINUOUS
 62
    7
 10
20.031085734629983
 20
49.5990614947778
 11
20.031085734629983
 21
54.888214163456325
  0
ARC
  8
_0-0_
  6
CONTINUOUS
 62
    7
 10
33.12710456649927
 20
49.0990614947778
 40
0.5
 50
270
 51
335
  0
LINE
  8
_0-0_
  6
CONTINUOUS
 62
    7
 10
33.580258460017603
 20
48.887752363907452
 11
34.984239628148316
 21
51.898599695228882
  0
ARC
  8
_0-0_
  6
CONTINUOUS
 62
    7
 10
34.531085734629983
 20
52.109908826099229
 40
0.5
 50
335.00000000000023
 51
0.0000000000000031
  0
ARC
  8
_0-0_
  6
CONTINUOUS
 62
    7
 10
20.531085734629983
 20
54.888214163456325
 40
0.5
 50
155.0000000000004
 51
180
  0
LINE
  8
_0-0_
  6
CONTINUOUS
 62
    7
 10
20.077931841111649
 20
55.099523294326673
 11
21.481913009242362
 21
58.110370625648102
  0
ARC
  8
_0-0_
  6
CONTINUOUS
 62
    7
 10
21.935066902760695
 20
57.899061494777754
 40
0.5
 50
90
 51
155.00000000000023
  0
ARC
  8
_0-0_
  6
CONTINUOUS
 62
    7
 10
24.031085734629983
 20
50.5990614947778
 40
2
 50
180
 51
270
  0
LINE
  8
_0-0_
  6
CONTINUOUS
 62
    7
 10
22.031085734629983
 20
50.5990614947778
 11
22.031085734629983
 21
56.399061494777754
  0
ARC
  8
_0-0_
  6
CONTINUOUS
 62
    7
 10
31.031085734629983
 20
50.5990614947778
 40
2
 50
270
 51
0
  0
LINE
  8
_0-0_
  6
CONTINUOUS
 62
    7
 10
33.031085734629983
 20
50.5990614947778
 11
33.031085734629983
 21
56.399061494777754
  0
ARC
  8
_0-0_
  6
CONTINUOUS
 62
    7
 10
31.031085734629983
 20
56.399061494777754
 40
2
 50
0
 51
90
  0
ARC
  8
_0-0_
  6
CONTINUOUS
 62
    7
 10
24.031085734629983
 20
56.399061494777754
 40
2
 50
90
 51
180
  0
ARC
  8
_0-0_
  6
CONTINUOUS
 62
    7
 10
25.185786273009171
 20
50.774038821829606
 40
2
 50
180
 51
270
  0
LINE
  8
_0-0_
  6
CONTINUOUS
 62
    7
 10
23.185786273009171
 20
50.774038821829606
 11
23.185786273009171
 21
56.224084167725948
  0
LINE
  8
_0-0_
  6
CONTINUOUS
 62
    7
 10
25.185786273009171
 20
48.774038821829606
 11
29.876385196250794
 21
48.774038821829606
  0
ARC
  8
_0-0_
  6
CONTINUOUS
 62
    7
 10
29.876385196250794
 20
50.774038821829606
 40
2
 50
270
 51
0
  0
LINE
  8
_0-0_
  6
CONTINUOUS
 62
    7
 10
31.876385196250794
 20
50.774038821829606
 11
31.876385196250794
 21
56.224084167725948
  0
ARC
  8
_0-0_
  6
CONTINUOUS
 62
    7
 10
29.876385196250794
 20
56.224084167725948
 40
2
 50
0
 51
90
  0
LINE
  8
_0-0_
  6
CONTINUOUS
 62
    7
 10
29.876385196250794
 20
58.224084167725948
 11
25.185786273009171
 21
58.224084167725948
  0
ARC
  8
_0-0_
  6
CONTINUOUS
 62
    7
 10
25.185786273009171
 20
56.224084167725948
 40
2
 50
90
 51
180
  0
ARC
  8
_0-0_
  6
CONTINUOUS
 62
    7
 10
34.031085734629983
 20
83.023163963784327
 40
1
 50
0
 51
90
  0
LINE
  8
_0-0_
  6
CONTINUOUS
 62
    7
 10
35.031085734629983
 20
83.023163963784327
 11
35.031085734629983
 21
77.734011295105802
  0
LINE
  8
_0-0_
  6
CONTINUOUS
 62
    7
 10
34.031085734629983
 20
84.023163963784327
 11
21.935066902760695
 21
84.023163963784327
  0
ARC
  8
_0-0_
  6
CONTINUOUS
 62
    7
 10
21.031085734629983
 20
75.223163963784373
 40
1
 50
180
 51
270
  0
LINE
  8
_0-0_
  6
CONTINUOUS
 62
    7
 10
21.031085734629983
 20
74.223163963784373
 11
33.12710456649927
 21
74.223163963784373
  0
LINE
  8
_0-0_
  6
CONTINUOUS
 62
    7
 10
20.031085734629983
 20
75.223163963784373
 11
20.031085734629983
 21
80.512316632462898
  0
ARC
  8
_0-0_
  6
CONTINUOUS
 62
    7
 10
33.12710456649927
 20
74.723163963784373
 40
0.5
 50
270
 51
335
  0
LINE
  8
_0-0_
  6
CONTINUOUS
 62
    7
 10
33.580258460017603
 20
74.511854832914082
 11
34.984239628148316
 21
77.522702164235511
  0
ARC
  8
_0-0_
  6
CONTINUOUS
 62
    7
 10
34.531085734629983
 20
77.734011295105802
 40
0.5
 50
335.00000000000023
 51
0.0000000000000031
  0
ARC
  8
_0-0_
  6
CONTINUOUS
 62
    7
 10
20.531085734629983
 20
80.512316632462898
 40
0.5
 50
155.0000000000004
 51
180
  0
LINE
  8
_0-0_
  6
CONTINUOUS
 62
    7
 10
20.077931841111649
 20
80.723625763333303
 11
21.481913009242362
 21
83.734473094654732
  0
ARC
  8
_0-0_
  6
CONTINUOUS
 62
    7
 10
21.935066902760695
 20
83.523163963784327
 40
0.5
 50
90
 51
155.00000000000023
  0
ARC
  8
_0-0_
  6
CONTINUOUS
 62
    7
 10
24.031085734629983
 20
76.223163963784373
 40
2
 50
180
 51
270
  0
LINE
  8
_0-0_
  6
CONTINUOUS
 62
    7
 10
22.031085734629983
 20
76.223163963784373
 11
22.031085734629983
 21
82.023163963784327
  0
ARC
  8
_0-0_
  6
CONTINUOUS
 62
    7
 10
31.031085734629983
 20
76.223163963784373
 40
2
 50
270
 51
0
  0
LINE
  8
_0-0_
  6
CONTINUOUS
 62
    7
 10
33.031085734629983
 20
76.223163963784373
 11
33.031085734629983
 21
82.023163963784327
  0
ARC
  8
_0-0_
  6
CONTINUOUS
 62
    7
 10
31.031085734629983
 20
82.023163963784327
 40
2
 50
0
 51
90
  0
ARC
  8
_0-0_
  6
CONTINUOUS
 62
    7
 10
24.031085734629983
 20
82.023163963784327
 40
2
 50
90
 51
180
  0
ARC
  8
_0-0_
  6
CONTINUOUS
 62
    7
 10
25.185786273009171
 20
76.398141290836179
 40
2
 50
180
 51
270
  0
LINE
  8
_0-0_
  6
CONTINUOUS
 62
    7
 10
23.185786273009171
 20
76.398141290836179
 11
23.185786273009171
 21
81.848186636732521
  0
LINE
  8
_0-0_
  6
CONTINUOUS
 62
    7
 10
25.185786273009171
 20
74.398141290836179
 11
29.876385196250794
 21
74.398141290836179
  0
ARC
  8
_0-0_
  6
CONTINUOUS
 62
    7
 10
29.876385196250794
 20
76.398141290836179
 40
2
 50
270
 51
0
  0
LINE
  8
_0-0_
  6
CONTINUOUS
 62
    7
 10
31.876385196250794
 20
76.398141290836179
 11
31.876385196250794
 21
81.848186636732521
  0
ARC
  8
_0-0_
  6
CONTINUOUS
 62
    7
 10
29.876385196250794
 20
81.848186636732521
 40
2
 50
0
 51
90
  0
LINE
  8
_0-0_
  6
CONTINUOUS
 62
    7
 10
29.876385196250794
 20
83.848186636732521
 11
25.185786273009171
 21
83.848186636732521
  0
ARC
  8
_0-0_
  6
CONTINUOUS
 62
    7
 10
25.185786273009171
 20
81.848186636732521
 40
2
 50
90
 51
180
  0
ARC
  8
_0-0_
  6
CONTINUOUS
 62
    7
 10
34.031085734629983
 20
108.99828153510612
 40
1
 50
0
 51
90
  0
LINE
  8
_0-0_
  6
CONTINUOUS
 62
    7
 10
35.031085734629983
 20
108.99828153510612
 11
35.031085734629983
 21
103.70912886642759
  0
LINE
  8
_0-0_
  6
CONTINUOUS
 62
    7
 10
34.031085734629983
 20
109.99828153510612
 11
21.935066902760695
 21
109.99828153510612
  0
ARC
  8
_0-0_
  6
CONTINUOUS
 62
    7
 10
21.031085734629983
 20
101.19828153510616
 40
1
 50
180
 51
270
  0
LINE
  8
_0-0_
  6
CONTINUOUS
 62
    7
 10
21.031085734629983
 20
100.19828153510616
 11
33.12710456649927
 21
100.19828153510616
  0
LINE
  8
_0-0_
  6
CONTINUOUS
 62
    7
 10
20.031085734629983
 20
101.19828153510616
 11
20.031085734629983
 21
106.48743420378469
  0
ARC
  8
_0-0_
  6
CONTINUOUS
 62
    7
 10
33.12710456649927
 20
100.69828153510616
 40
0.5
 50
270
 51
335
  0
LINE
  8
_0-0_
  6
CONTINUOUS
 62
    7
 10
33.580258460017603
 20
100.48697240423576
 11
34.984239628148316
 21
103.49781973555719
  0
ARC
  8
_0-0_
  6
CONTINUOUS
 62
    7
 10
34.531085734629983
 20
103.70912886642759
 40
0.5
 50
335.00000000000023
 51
0.0000000000000031
  0
ARC
  8
_0-0_
  6
CONTINUOUS
 62
    7
 10
20.531085734629983
 20
106.48743420378469
 40
0.5
 50
155.0000000000004
 51
180
  0
LINE
  8
_0-0_
  6
CONTINUOUS
 62
    7
 10
20.077931841111649
 20
106.69874333465498
 11
21.481913009242362
 21
109.70959066597641
  0
ARC
  8
_0-0_
  6
CONTINUOUS
 62
    7
 10
21.935066902760695
 20
109.49828153510612
 40
0.5
 50
90
 51
155.00000000000023
  0
ARC
  8
_0-0_
  6
CONTINUOUS
 62
    7
 10
24.031085734629983
 20
102.19828153510616
 40
2
 50
180
 51
270
  0
LINE
  8
_0-0_
  6
CONTINUOUS
 62
    7
 10
22.031085734629983
 20
102.19828153510616
 11
22.031085734629983
 21
107.99828153510612
  0
ARC
  8
_0-0_
  6
CONTINUOUS
 62
    7
 10
31.031085734629983
 20
102.19828153510616
 40
2
 50
270
 51
0
  0
LINE
  8
_0-0_
  6
CONTINUOUS
 62
    7
 10
33.031085734629983
 20
102.19828153510616
 11
33.031085734629983
 21
107.99828153510612
  0
ARC
  8
_0-0_
  6
CONTINUOUS
 62
    7
 10
31.031085734629983
 20
107.99828153510612
 40
2
 50
0
 51
90
  0
ARC
  8
_0-0_
  6
CONTINUOUS
 62
    7
 10
24.031085734629983
 20
107.99828153510612
 40
2
 50
90
 51
180
  0
ARC
  8
_0-0_
  6
CONTINUOUS
 62
    7
 10
25.185786273009171
 20
102.37325886215797
 40
2
 50
180
 51
270
  0
LINE
  8
_0-0_
  6
CONTINUOUS
 62
    7
 10
23.185786273009171
 20
102.37325886215797
 11
23.185786273009171
 21
107.82330420805431
  0
LINE
  8
_0-0_
  6
CONTINUOUS
 62
    7
 10
25.185786273009171
 20
100.37325886215797
 11
29.876385196250794
 21
100.37325886215797
  0
ARC
  8
_0-0_
  6
CONTINUOUS
 62
    7
 10
29.876385196250794
 20
102.37325886215797
 40
2
 50
270
 51
0
  0
LINE
  8
_0-0_
  6
CONTINUOUS
 62
    7
 10
31.876385196250794
 20
102.37325886215797
 11
31.876385196250794
 21
107.82330420805431
  0
ARC
  8
_0-0_
  6
CONTINUOUS
 62
    7
 10
29.876385196250794
 20
107.82330420805431
 40
2
 50
0
 51
90
  0
LINE
  8
_0-0_
  6
CONTINUOUS
 62
    7
 10
29.876385196250794
 20
109.82330420805431
 11
25.185786273009171
 21
109.82330420805431
  0
ARC
  8
_0-0_
  6
CONTINUOUS
 62
    7
 10
25.185786273009171
 20
107.82330420805431
 40
2
 50
90
 51
180
  0
CIRCLE
  8
_0-0_
  6
CONTINUOUS
 62
    7
 10
27.531085735009242
 20
26.821913718773885
 40
1.2999999523162842
  0
CIRCLE
  8
_0-0_
  6
CONTINUOUS
 62
    7
 10
27.531085735009242
 20
53.499061494725936
 40
1.7000000476837158
  0
CIRCLE
  8
_0-0_
  6
CONTINUOUS
 62
    7
 10
27.531085735009242
 20
79.123163963732964
 40
2.1500000953674316
  0
CIRCLE
  8
_0-0_
  6
CONTINUOUS
 62
    7
 10
27.531085734629983
 20
105.09828153510659
 40
2.5499999523162842
  0
LINE
  8
_0-8_
  6
CENTER1
 62
  152
 10
27.531085735009242
 20
33.87808039045575
 11
27.531085735009242
 21
19.529135406462672
  0
LINE
  8
_0-8_
  6
CENTER1
 62
  152
 10
17.14223559834727
 20
26.821913718773885
 11
39.854062628225961
 21
26.821913718773885
  0
LINE
  8
_0-8_
  6
CENTER1
 62
  152
 10
49.107029195954283
 20
26.996891045825748
 11
57.362318607331417
 21
26.996891045825748
  0
LINE
  8
_0-8_
  6
CENTER1
 62
  152
 10
27.531085734629983
 20
9.2075783550932897
 11
27.531085734629983
 21
1.1674742127331683
  0
LINE
  8
_0-8_
  6
CENTER1
 62
  152
 10
17.14223559834727
 20
53.499061494725936
 11
39.854062628225961
 21
53.499061494725936
  0
LINE
  8
_0-8_
  6
CENTER1
 62
  152
 10
27.531085735009242
 20
60.555228166407801
 11
27.531085735009242
 21
46.206283182414722
  0
LINE
  8
_0-8_
  6
CENTER1
 62
  152
 10
17.14223559834727
 20
79.123163963732509
 11
39.854062628225961
 21
79.123163963732509
  0
LINE
  8
_0-8_
  6
CENTER1
 62
  152
 10
27.531085735009242
 20
86.179330635414431
 11
27.531085735009242
 21
71.830385651421352
  0
LINE
  8
_0-8_
  6
CENTER1
 62
  152
 10
17.14223559834727
 20
105.0982815350543
 11
39.854062628225961
 21
105.0982815350543
  0
LINE
  8
_0-8_
  6
CENTER1
 62
  152
 10
27.531085735009242
 20
112.15444820673611
 11
27.531085735009242
 21
97.805503222743027
  0
CIRCLE
  8
_0-8_
  6
CONTINUOUS
 62
  152
 10
27.531085735009242
 20
26.821913718773885
 40
1.5
  0
CIRCLE
  8
_0-8_
  6
CONTINUOUS
 62
  152
 10
27.531085735009242
 20
53.499061494725936
 40
2
  0
CIRCLE
  8
_0-8_
  6
CONTINUOUS
 62
  152
 10
27.531085735009242
 20
79.123163963732964
 40
2.5
  0
CIRCLE
  8
_0-8_
  6
CONTINUOUS
 62
  152
 10
27.531085734629983
 20
105.09828153510659
 40
3
  0
TEXT
  8
_0-8_
 62
    7
 10
6.3507530588467489
 20
93.688200025745459
 40
4.2999999999999998
 41
0.744186046511628
 50
0
  1
ND40-M6
  0
TEXT
  8
_0-8_
 62
    7
 10
6.3507530588467489
 20
67.713082454423784
 40
4.2999999999999998
 41
0.744186046511628
 50
0
  1
ND40-M5
  0
TEXT
  8
_0-8_
 62
    7
 10
6.3507530588467489
 20
42.088979985365313
 40
4.2999999999999998
 41
0.744186046511628
 50
0
  1
ND40-M4
  0
TEXT
  8
_0-8_
 62
    7
 10
6.3507530588467489
 20
15.411832209413262
 40
4.2999999999999998
 41
0.744186046511628
 50
0
  1
ND40-M3
  0
ENDSEC
  0
EOF
