  0
SECTION
  2
HEADER
  9
$ACADVER
  1
AC1009
  9
$INSBASE
 10
0
 20
0
 30
0
  9
$EXTMIN
 10
0
 20
0
  9
$EXTMAX
 10
1189
 20
841
  9
$LIMMIN
 10
0
 20
0
  9
$LIMMAX
 10
1189
 20
841
  9
$LTSCALE
 40
1
  0
ENDSEC
  0
SECTION
  2
TABLES
  0
TABLE
  2
LTYPE
 70
     9
  0
LTYPE
  2
CONTINUOUS
 70
    64
  3
実線
 72
    65
 73
     0
 40
0.0
  0
LTYPE
  2
DASHED1
 70
    64
  3
--  --  --  --  --  --  --  --  
 72
    65
 73
     2
 40
2.5
 49
1.25
 49
-1.25
  0
LTYPE
  2
DASHED2
 70
    64
  3
----    ----    ----    ----    
 72
    65
 73
     2
 40
5.0
 49
2.5
 49
-2.5
  0
LTYPE
  2
DASHED3
 70
    64
  3
------  ------  ------  ------  
 72
    65
 73
     2
 40
5.0
 49
3.75
 49
-1.25
  0
LTYPE
  2
CENTER1
 70
    64
  3
----- - ----- - ----- - ----- - 
 72
    65
 73
     4
 40
10.0
 49
6.25
 49
-1.25
 49
1.25
 49
-1.25
  0
LTYPE
  2
CENTER2
 70
    64
  3
----------  --  ----------  --  
 72
    65
 73
     4
 40
20.0
 49
12.5
 49
-2.5
 49
2.5
 49
-2.5
  0
LTYPE
  2
PHANTOM1
 70
    64
  3
--- - - --- - - --- - - --- - - 
 72
    65
 73
     6
 40
10.0
 49
3.25
 49
-1.25
 49
1.25
 49
-1.25
 49
1.25
 49
-1.25
  0
LTYPE
  2
PHANTOM2
 70
    64
  3
--------  -  -  --------  -  -  
 72
    65
 73
     6
 40
20.0
 49
10.0
 49
-2.5
 49
1.25
 49
-2.5
 49
1.25
 49
-2.5
  0
LTYPE
  2
DOT
 70
    64
  3
-   -   -   -   -   -   -   -   
 72
    65
 73
     2
 40
2.5
 49
0.625
 49
-1.875
  0
LTYPE
  2
DUMMY
 70
    64
  3
ダミー
 72
    65
 73
     0
 40
0.0
  0
LTYPE
  2
RAND1
 70
    64
  3
ランダム線1
 72
    65
 73
     4
 40
10.0
 49
1.0
 49
-2.0
 49
3.0
 49
-4.0
  0
LTYPE
  2
RAND2
 70
    64
  3
ランダム線2
 72
    65
 73
     4
 40
14.0
 49
2.0
 49
-3.0
 49
4.0
 49
-5.0
  0
LTYPE
  2
RAND3
 70
    64
  3
ランダム線3
 72
    65
 73
     4
 40
18.0
 49
3.0
 49
-4.0
 49
5.0
 49
-6.0
  0
LTYPE
  2
RAND4
 70
    64
  3
ランダム線4
 72
    65
 73
     4
 40
22.0
 49
4.0
 49
-5.0
 49
6.0
 49
-7.0
  0
LTYPE
  2
RAND5
 70
    64
  3
ランダム線5
 72
    65
 73
     4
 40
26.0
 49
5.0
 49
-6.0
 49
7.0
 49
-8.0
  0
LTYPE
  2
LONG1
 70
    64
  3
----------  --  ----------  --  
 72
    65
 73
     4
 40
40.0
 49
32.5
 49
-2.5
 49
2.5
 49
-2.5
  0
LTYPE
  2
LONG2
 70
    64
  3
--------  -  -  --------  -  -  
 72
    65
 73
     6
 40
40.0
 49
30.0
 49
-2.5
 49
1.25
 49
-2.5
 49
1.25
 49
-2.5
  0
LTYPE
  2
LONG3
 70
    64
  3
+++++++++++++++..+++++++++++++++
 72
    65
 73
     2
 40
40.0
 49
37.5
 49
-2.5
  0
LTYPE
  2
LONG4
 70
    64
  3
+++++++++++++++..+++++++++++++++
 72
    65
 73
     2
 40
80.0
 49
75.0
 49
-5.0
  0
LTYPE
  2
LONG5
 70
    64
  3
----------  --  ----------  --  
 72
    65
 73
     4
 40
60.0
 49
37.5
 49
-7.5
 49
7.5
 49
-7.5
  0
LTYPE
  2
dashed
 70
   64
  3
-------   -------------   ------
 72
   65
 73
    2
 40
7.5
 49
6
 49
-1.5
  0
LTYPE
  2
dashed_spaced
 70
   64
  3
----        --------        ----
 72
   65
 73
    2
 40
12
 49
6
 49
-6
  0
LTYPE
  2
long_dashed_dotted
 70
   64
  3
------------- --- --------------
 72
   65
 73
    4
 40
15.25
 49
12
 49
-1.5
 49
0.25
 49
-1.5
  0
LTYPE
  2
long_dashed_double-dotted
 70
   64
  3
----------- --- --- ------------
 72
   65
 73
    6
 40
17
 49
12
 49
-1.5
 49
0.25
 49
-1.5
 49
0.25
 49
-1.5
  0
LTYPE
  2
long_dashed_triplicate-dotted
 70
   64
  3
--------- --- --- --- ----------
 72
   65
 73
    8
 40
18.75
 49
12
 49
-1.5
 49
0.25
 49
-1.5
 49
0.25
 49
-1.5
 49
0.25
 49
-1.5
  0
LTYPE
  2
dotted
 70
   64
  3
   -       -       -       -    
 72
   65
 73
    2
 40
1.75
 49
0.25
 49
-1.5
  0
LTYPE
  2
chain
 70
   64
  3
-------------- -- --------------
 72
   65
 73
    4
 40
18.5
 49
12
 49
-1.5
 49
3.5
 49
-1.5
  0
LTYPE
  2
chain_double_dash
 70
   64
  3
------------ -- -- -------------
 72
   65
 73
    6
 40
23.5
 49
12
 49
-1.5
 49
3.5
 49
-1.5
 49
3.5
 49
-1.5
  0
LTYPE
  2
dashed_dotted
 70
   64
  3
-----------     -     ----------
 72
   65
 73
    4
 40
9.25
 49
6
 49
-1.5
 49
0.25
 49
-1.5
  0
LTYPE
  2
double-dashed_dotted
 70
   64
  3
------   -----------   -   -----
 72
   65
 73
    6
 40
16.75
 49
6
 49
-1.5
 49
6
 49
-1.5
 49
0.25
 49
-1.5
  0
LTYPE
  2
dashed_double-dotted
 70
   64
  3
---------    -    -    ---------
 72
   65
 73
    6
 40
11
 49
6
 49
-1.5
 49
0.25
 49
-1.5
 49
0.25
 49
-1.5
  0
LTYPE
  2
double-dashed_double-dotted
 70
   64
  3
-----   ---------   -   -   ----
 72
   65
 73
    8
 40
18.5
 49
6
 49
-1.5
 49
6
 49
-1.5
 49
0.25
 49
-1.5
 49
0.25
 49
-1.5
  0
LTYPE
  2
dashed_triplicate-dotted
 70
   64
  3
-------    -    -    -    ------
 72
   65
 73
    8
 40
12.75
 49
6
 49
-1.5
 49
0.25
 49
-1.5
 49
0.25
 49
-1.5
 49
0.25
 49
-1.5
  0
LTYPE
  2
double-dashed_triplicate-dotted
 70
   64
  3
-----  ---------  -  -  -  -----
 72
   65
 73
   10
 40
20.25
 49
6
 49
-1.5
 49
6
 49
-1.5
 49
0.25
 49
-1.5
 49
0.25
 49
-1.5
 49
0.25
 49
-1.5
  0
LTYPE
  2
undefined
 70
   64
  3
--------------------------------
 72
   65
 73
    0
 40
0
  0
LTYPE
  2
HIDDEN
 70
   64
  3
------     -----------     -----
 72
   65
 73
    2
 40
1.905
 49
1.27
 49
-0.635
  0
LTYPE
  2
PHANTOM
 70
   64
  3
---------   ---   ---   --------
 72
   65
 73
    6
 40
12.699999999999998
 49
6.3499999999999996
 49
-1.27
 49
1.27
 49
-1.27
 49
1.27
 49
-1.27
  0
LTYPE
  2
DOT2
 70
   64
  3
-               -               
 72
   65
 73
    2
 40
0.645
 49
0.01
 49
-0.635
  0
LTYPE
  2
_
 70
   64
  3
                                
 72
   65
 73
    0
 40
0
  0
LTYPE
  2
__21
 70
   64
  3
                                
 72
   65
 73
    0
 40
0
  0
LTYPE
  2
__22
 70
   64
  3
                                
 72
   65
 73
    0
 40
0
  0
LTYPE
  2
__23
 70
   64
  3
                                
 72
   65
 73
    0
 40
0
  0
LTYPE
  2
__24
 70
   64
  3
                                
 72
   65
 73
    0
 40
0
  0
LTYPE
  2
__25
 70
   64
  3
                                
 72
   65
 73
    0
 40
0
  0
LTYPE
  2
__26
 70
   64
  3
                                
 72
   65
 73
    0
 40
0
  0
LTYPE
  2
__27
 70
   64
  3
                                
 72
   65
 73
    0
 40
0
  0
LTYPE
  2
__28
 70
   64
  3
                                
 72
   65
 73
    0
 40
0
  0
LTYPE
  2
__29
 70
   64
  3
                                
 72
   65
 73
    0
 40
0
  0
LTYPE
  2
__30
 70
   64
  3
                                
 72
   65
 73
    0
 40
0
  0
LTYPE
  2
__31
 70
   64
  3
                                
 72
   65
 73
    0
 40
0
  0
LTYPE
  2
__32
 70
   64
  3
                                
 72
   65
 73
    0
 40
0
  0
ENDTAB
  0
TABLE
  2
STYLE
  5
3
100
AcDbSymbolTable
 70
     1
  0
STYLE
  5
10
100
AcDbSymbolTableRecord
100
AcDbTextStyleTableRecord
  2
STANDARD
 70
     0
 40
0.0
 41
1.0
 50
0.0
 71
     0
 42
0.2
  3
txt
  4
bigfont.shx
  0
STYLE
  5
26
100
AcDbSymbolTableRecord
100
AcDbTextStyleTableRecord
  2
TATEGAKI
 70
    68
 40
0.0
 41
1.0
 50
0.0
 71
     0
 42
1.0
  3
txt
  4
bigfont.shx
  0
ENDTAB
  0
TABLE
  2
LAYER
 70
    6
  0
LAYER
  2
_1-0_
 70
   64
 62
    7
  6
CONTINUOUS
  0
LAYER
  2
_1-1_
 70
   64
 62
    7
  6
CONTINUOUS
  0
LAYER
  2
_1-2_
 70
   64
 62
    7
  6
CONTINUOUS
  0
LAYER
  2
_1-3_
 70
   64
 62
    7
  6
CONTINUOUS
  0
LAYER
  2
_1-4_
 70
   64
 62
    7
  6
CONTINUOUS
  0
LAYER
  2
ADD_LINE
 70
   64
 62
    7
  6
CONTINUOUS
  0
ENDTAB
  0
ENDSEC
  0
SECTION
  2
BLOCKS
  0
ENDSEC
  0
SECTION
  2
ENTITIES
  0
LINE
  8
_1-2_
  6
CONTINUOUS
 62
    7
 10
65.978870989205802
 20
42.492818646004366
 11
65.978870989205802
 21
28.692818646004355
  0
LINE
  8
_1-2_
  6
CONTINUOUS
 62
    7
 10
65.978870989205802
 20
42.492818646004366
 11
33.578870989205825
 21
42.492818646004366
  0
LINE
  8
_1-2_
  6
CONTINUOUS
 62
    7
 10
33.578870989205825
 20
42.492818646004366
 11
33.578870989205825
 21
28.692818646004355
  0
LINE
  8
_1-2_
  6
CONTINUOUS
 62
    7
 10
65.978870989205802
 20
28.692818646004355
 11
33.578870989205825
 21
28.692818646004355
  0
LINE
  8
_1-2_
  6
CONTINUOUS
 62
    7
 10
65.978870989205802
 20
132.32089618211171
 11
33.578870989205825
 21
132.32089618211171
  0
LINE
  8
_1-2_
  6
CONTINUOUS
 62
    7
 10
65.978870989205802
 20
107.32089618211171
 11
65.978870989205802
 21
132.32089618211171
  0
LINE
  8
_1-2_
  6
CONTINUOUS
 62
    7
 10
33.578870989205825
 20
107.32089618211171
 11
33.578870989205825
 21
132.32089618211171
  0
LINE
  8
_1-2_
  6
CONTINUOUS
 62
    7
 10
65.978870989205802
 20
107.32089618211171
 11
33.578870989205825
 21
107.32089618211171
  0
LINE
  8
_1-2_
  6
CONTINUOUS
 62
    7
 10
105.298141787232
 20
41.492818646004082
 11
105.298141787232
 21
34.617082714715991
  0
LINE
  8
_1-2_
  6
CONTINUOUS
 62
    7
 10
105.21027382158786
 20
34.404950680360173
 11
103.88600975287591
 21
33.080686611647991
  0
LINE
  8
_1-2_
  6
CONTINUOUS
 62
    7
 10
103.798141787232
 20
32.868554577292173
 11
103.798141787232
 21
32.163639039253951
  0
LINE
  8
_1-2_
  6
CONTINUOUS
 62
    7
 10
103.73633903344489
 20
32.216428546827331
 11
106.13633903344453
 21
27.416428546827603
  0
LINE
  8
_1-2_
  6
CONTINUOUS
 62
    7
 10
105.68912603344506
 20
26.692818546827596
 11
99.698143133445228
 21
26.692818546827596
  0
LINE
  8
_1-2_
  6
CONTINUOUS
 62
    7
 10
100.09814453344461
 20
26.692818546827596
 11
100.4981431334445
 21
26.292818546827505
  0
LINE
  8
_1-2_
  6
CONTINUOUS
 62
    7
 10
100.4981431334445
 20
26.292818546827505
 11
102.49814303344465
 21
26.292818546827505
  0
LINE
  8
_1-2_
  6
CONTINUOUS
 62
    7
 10
102.49814303344465
 20
26.292818546827505
 11
102.89814103344452
 21
26.692818546827596
  0
LINE
  8
_1-2_
  6
CONTINUOUS
 62
    7
 10
99.198143133444319
 20
27.192818546827596
 11
99.198143133444319
 21
31.992818546827323
  0
LINE
  8
_1-2_
  6
CONTINUOUS
 62
    7
 10
99.698143133445228
 20
32.492818546827323
 11
100.36422703344488
 21
32.492818546827323
  0
LINE
  8
_1-2_
  6
CONTINUOUS
 62
    7
 10
100.61423223344536
 20
32.425828546827518
 11
101.24815403344473
 21
32.059828546827532
  0
LINE
  8
_1-2_
  6
CONTINUOUS
 62
    7
 10
101.74813903344511
 20
32.059808546827583
 11
102.38219603344442
 21
32.425848546827467
  0
LINE
  8
_1-2_
  6
CONTINUOUS
 62
    7
 10
102.63217703344526
 20
32.492818546827323
 11
103.28912603344452
 21
32.492818546827323
  0
LINE
  8
_1-2_
  6
CONTINUOUS
 62
    7
 10
103.829813629932
 20
32.029474960603977
 11
105.41522382655694
 21
28.858654567354108
  0
LINE
  8
_1-2_
  6
CONTINUOUS
 62
    7
 10
105.68355198385689
 20
28.692818646004355
 11
108.69814178723186
 21
28.692818646004355
  0
LINE
  8
_1-2_
  6
CONTINUOUS
 62
    7
 10
108.99814178723204
 20
28.992818646004082
 11
108.99814178723204
 21
30.392818646004173
  0
LINE
  8
_1-2_
  6
CONTINUOUS
 62
    7
 10
108.69814178723186
 20
30.692818646004355
 11
106.69814178723186
 21
30.692818646004355
  0
LINE
  8
_1-2_
  6
CONTINUOUS
 62
    7
 10
106.39814178723191
 20
30.992818646004082
 11
106.39814178723191
 21
32.368554577292173
  0
LINE
  8
_1-2_
  6
CONTINUOUS
 62
    7
 10
106.48600975287604
 20
32.580686611647991
 11
107.810273821588
 21
33.904950680360173
  0
LINE
  8
_1-2_
  6
CONTINUOUS
 62
    7
 10
108.02240585594382
 20
33.992818646004082
 11
111.49814178723204
 21
33.992818646004082
  0
LINE
  8
_1-2_
  6
CONTINUOUS
 62
    7
 10
111.798141787232
 20
33.692818646004355
 11
111.798141787232
 21
32.792818646004264
  0
LINE
  8
_1-2_
  6
CONTINUOUS
 62
    7
 10
112.09814178723195
 20
32.492818646004082
 11
114.12493670647495
 21
32.492818646004082
  0
LINE
  8
_1-2_
  6
CONTINUOUS
 62
    7
 10
114.38474432761041
 20
32.642818646004173
 11
115.65491491982766
 21
34.842818646003991
  0
LINE
  8
_1-2_
  6
CONTINUOUS
 62
    7
 10
115.91472254096288
 20
34.992818646004082
 11
129.298141787232
 21
34.992818646004082
  0
LINE
  8
_1-2_
  6
CONTINUOUS
 62
    7
 10
130.298141787232
 20
35.992818646004082
 11
130.298141787232
 21
41.492818646004082
  0
LINE
  8
_1-2_
  6
CONTINUOUS
 62
    7
 10
129.298141787232
 20
42.492818646004082
 11
127.19814178723186
 21
42.492818646004082
  0
LINE
  8
_1-2_
  6
CONTINUOUS
 62
    7
 10
126.89814178723191
 20
42.192818646004355
 11
126.89814178723191
 21
41.292818646004264
  0
LINE
  8
_1-2_
  6
CONTINUOUS
 62
    7
 10
127.19814178723186
 20
40.992818646004082
 11
127.798141787232
 21
40.992818646004082
  0
LINE
  8
_1-2_
  6
CONTINUOUS
 62
    7
 10
128.09814178723195
 20
40.692818646004355
 11
128.09814178723195
 21
38.492818646004082
  0
LINE
  8
_1-2_
  6
CONTINUOUS
 62
    7
 10
127.798141787232
 20
38.192818646004355
 11
127.19814178723186
 21
38.192818646004355
  0
LINE
  8
_1-2_
  6
CONTINUOUS
 62
    7
 10
126.89814178723191
 20
37.892818646004173
 11
126.89814178723191
 21
37.092818646003991
  0
LINE
  8
_1-2_
  6
CONTINUOUS
 62
    7
 10
126.59814178723195
 20
36.792818646004264
 11
123.99814178723204
 21
36.792818646004264
  0
LINE
  8
_1-2_
  6
CONTINUOUS
 62
    7
 10
123.69814178723186
 20
37.092818646003991
 11
123.69814178723186
 21
37.892818646004173
  0
LINE
  8
_1-2_
  6
CONTINUOUS
 62
    7
 10
123.39814178723191
 20
38.192818646004355
 11
122.798141787232
 21
38.192818646004355
  0
LINE
  8
_1-2_
  6
CONTINUOUS
 62
    7
 10
122.49814178723204
 20
38.492818646004082
 11
122.49814178723204
 21
40.692818646004355
  0
LINE
  8
_1-2_
  6
CONTINUOUS
 62
    7
 10
122.798141787232
 20
40.992818646004082
 11
123.39814178723191
 21
40.992818646004082
  0
LINE
  8
_1-2_
  6
CONTINUOUS
 62
    7
 10
123.69814178723186
 20
41.292818646004264
 11
123.69814178723186
 21
42.192818646004355
  0
LINE
  8
_1-2_
  6
CONTINUOUS
 62
    7
 10
123.39814178723191
 20
42.492818646004082
 11
119.69814178723186
 21
42.492818646004082
  0
LINE
  8
_1-2_
  6
CONTINUOUS
 62
    7
 10
119.39814178723191
 20
42.192818646004355
 11
119.39814178723191
 21
41.292818646004264
  0
LINE
  8
_1-2_
  6
CONTINUOUS
 62
    7
 10
119.69814178723186
 20
40.992818646004082
 11
120.298141787232
 21
40.992818646004082
  0
LINE
  8
_1-2_
  6
CONTINUOUS
 62
    7
 10
120.59814178723195
 20
40.692818646004355
 11
120.59814178723195
 21
38.492818646004082
  0
LINE
  8
_1-2_
  6
CONTINUOUS
 62
    7
 10
120.298141787232
 20
38.192818646004355
 11
119.69814178723186
 21
38.192818646004355
  0
LINE
  8
_1-2_
  6
CONTINUOUS
 62
    7
 10
119.39814178723191
 20
37.892818646004173
 11
119.39814178723191
 21
37.092818646003991
  0
LINE
  8
_1-2_
  6
CONTINUOUS
 62
    7
 10
119.09814178723195
 20
36.792818646004264
 11
116.49814178723204
 21
36.792818646004264
  0
LINE
  8
_1-2_
  6
CONTINUOUS
 62
    7
 10
116.19814178723186
 20
37.092818646003991
 11
116.19814178723186
 21
37.892818646004173
  0
LINE
  8
_1-2_
  6
CONTINUOUS
 62
    7
 10
115.89814178723191
 20
38.192818646004355
 11
115.298141787232
 21
38.192818646004355
  0
LINE
  8
_1-2_
  6
CONTINUOUS
 62
    7
 10
114.99814178723204
 20
38.492818646004082
 11
114.99814178723204
 21
40.692818646004355
  0
LINE
  8
_1-2_
  6
CONTINUOUS
 62
    7
 10
115.298141787232
 20
40.992818646004082
 11
115.89814178723191
 21
40.992818646004082
  0
LINE
  8
_1-2_
  6
CONTINUOUS
 62
    7
 10
116.19814178723186
 20
41.292818646004264
 11
116.19814178723186
 21
42.192818646004355
  0
LINE
  8
_1-2_
  6
CONTINUOUS
 62
    7
 10
115.89814178723191
 20
42.492818646004082
 11
112.19814178723186
 21
42.492818646004082
  0
LINE
  8
_1-2_
  6
CONTINUOUS
 62
    7
 10
111.89814178723191
 20
42.192818646004355
 11
111.89814178723191
 21
41.292818646004264
  0
LINE
  8
_1-2_
  6
CONTINUOUS
 62
    7
 10
112.19814178723186
 20
40.992818646004082
 11
112.798141787232
 21
40.992818646004082
  0
LINE
  8
_1-2_
  6
CONTINUOUS
 62
    7
 10
113.09814178723195
 20
40.692818646004355
 11
113.09814178723195
 21
38.492818646004082
  0
LINE
  8
_1-2_
  6
CONTINUOUS
 62
    7
 10
112.798141787232
 20
38.192818646004355
 11
112.19814178723186
 21
38.192818646004355
  0
LINE
  8
_1-2_
  6
CONTINUOUS
 62
    7
 10
111.89814178723191
 20
37.892818646004173
 11
111.89814178723191
 21
37.092818646003991
  0
LINE
  8
_1-2_
  6
CONTINUOUS
 62
    7
 10
111.59814178723195
 20
36.792818646004264
 11
108.99814178723204
 21
36.792818646004264
  0
LINE
  8
_1-2_
  6
CONTINUOUS
 62
    7
 10
108.69814178723186
 20
37.092818646003991
 11
108.69814178723186
 21
37.892818646004173
  0
LINE
  8
_1-2_
  6
CONTINUOUS
 62
    7
 10
108.39814178723191
 20
38.192818646004355
 11
107.798141787232
 21
38.192818646004355
  0
LINE
  8
_1-2_
  6
CONTINUOUS
 62
    7
 10
107.49814178723204
 20
38.492818646004082
 11
107.49814178723204
 21
40.692818646004355
  0
LINE
  8
_1-2_
  6
CONTINUOUS
 62
    7
 10
107.798141787232
 20
40.992818646004082
 11
108.39814178723191
 21
40.992818646004082
  0
LINE
  8
_1-2_
  6
CONTINUOUS
 62
    7
 10
108.69814178723186
 20
41.292818646004264
 11
108.69814178723186
 21
42.192818646004355
  0
LINE
  8
_1-2_
  6
CONTINUOUS
 62
    7
 10
108.39814178723191
 20
42.492818646004082
 11
106.298141787232
 21
42.492818646004082
  0
ARC
  8
_1-2_
  6
CONTINUOUS
 62
    7
 10
102.63217703344526
 20
31.992818546827323
 40
0.5
 50
90
 51
119.99737
  0
ARC
  8
_1-2_
  6
CONTINUOUS
 62
    7
 10
100.36422703344488
 20
31.992818546827323
 40
0.5
 50
59.999315000000045
 51
90.000000000000028
  0
ARC
  8
_1-2_
  6
CONTINUOUS
 62
    7
 10
101.49815903344461
 20
32.492838546827727
 40
0.5
 50
239.99931000000001
 51
299.99736999999999
  0
ARC
  8
_1-2_
  6
CONTINUOUS
 62
    7
 10
103.28912603344452
 20
31.992818546827323
 40
0.5
 50
26.565050999999976
 51
89.999999999999986
  0
ARC
  8
_1-2_
  6
CONTINUOUS
 62
    7
 10
99.698143133445228
 20
31.992818546827323
 40
0.5
 50
90
 51
180
  0
ARC
  8
_1-2_
  6
CONTINUOUS
 62
    7
 10
99.698143133445228
 20
27.192818546827596
 40
0.5
 50
180
 51
270
  0
ARC
  8
_1-2_
  6
CONTINUOUS
 62
    7
 10
105.68912603344506
 20
27.192818546827596
 40
0.5
 50
270
 51
26.565051000000039
  0
ARC
  8
_1-2_
  6
CONTINUOUS
 62
    7
 10
129.298141787232
 20
35.992818646004082
 40
1
 50
270
 51
0
  0
ARC
  8
_1-2_
  6
CONTINUOUS
 62
    7
 10
129.298141787232
 20
41.492818646004082
 40
1
 50
0
 51
90
  0
ARC
  8
_1-2_
  6
CONTINUOUS
 62
    7
 10
127.19814178723186
 20
42.192818646004355
 40
0.2999999999999999
 50
90
 51
180
  0
ARC
  8
_1-2_
  6
CONTINUOUS
 62
    7
 10
127.19814178723186
 20
41.292818646004264
 40
0.2999999999999999
 50
180
 51
270
  0
ARC
  8
_1-2_
  6
CONTINUOUS
 62
    7
 10
127.798141787232
 20
40.692818646004355
 40
0.2999999999999999
 50
0
 51
90
  0
ARC
  8
_1-2_
  6
CONTINUOUS
 62
    7
 10
127.798141787232
 20
38.492818646004082
 40
0.2999999999999999
 50
270
 51
0
  0
ARC
  8
_1-2_
  6
CONTINUOUS
 62
    7
 10
127.19814178723186
 20
37.892818646004173
 40
0.2999999999999999
 50
90
 51
180
  0
ARC
  8
_1-2_
  6
CONTINUOUS
 62
    7
 10
126.59814178723195
 20
37.092818646003991
 40
0.2999999999999999
 50
270
 51
0
  0
ARC
  8
_1-2_
  6
CONTINUOUS
 62
    7
 10
123.39814178723191
 20
42.192818646004355
 40
0.2999999999999999
 50
0
 51
90
  0
ARC
  8
_1-2_
  6
CONTINUOUS
 62
    7
 10
123.39814178723191
 20
41.292818646004264
 40
0.2999999999999999
 50
270
 51
0
  0
ARC
  8
_1-2_
  6
CONTINUOUS
 62
    7
 10
122.798141787232
 20
40.692818646004355
 40
0.2999999999999999
 50
90
 51
180
  0
ARC
  8
_1-2_
  6
CONTINUOUS
 62
    7
 10
122.798141787232
 20
38.492818646004082
 40
0.2999999999999999
 50
180
 51
270
  0
ARC
  8
_1-2_
  6
CONTINUOUS
 62
    7
 10
123.39814178723191
 20
37.892818646004173
 40
0.2999999999999999
 50
0
 51
90
  0
ARC
  8
_1-2_
  6
CONTINUOUS
 62
    7
 10
123.99814178723204
 20
37.092818646003991
 40
0.2999999999999999
 50
180
 51
270
  0
ARC
  8
_1-2_
  6
CONTINUOUS
 62
    7
 10
119.69814178723186
 20
42.192818646004355
 40
0.2999999999999999
 50
90
 51
180
  0
ARC
  8
_1-2_
  6
CONTINUOUS
 62
    7
 10
119.69814178723186
 20
41.292818646004264
 40
0.2999999999999999
 50
180
 51
270
  0
ARC
  8
_1-2_
  6
CONTINUOUS
 62
    7
 10
120.298141787232
 20
40.692818646004355
 40
0.2999999999999999
 50
0
 51
90
  0
ARC
  8
_1-2_
  6
CONTINUOUS
 62
    7
 10
120.298141787232
 20
38.492818646004082
 40
0.2999999999999999
 50
270
 51
0
  0
ARC
  8
_1-2_
  6
CONTINUOUS
 62
    7
 10
119.69814178723186
 20
37.892818646004173
 40
0.2999999999999999
 50
90
 51
180
  0
ARC
  8
_1-2_
  6
CONTINUOUS
 62
    7
 10
119.09814178723195
 20
37.092818646003991
 40
0.2999999999999999
 50
270
 51
0
  0
ARC
  8
_1-2_
  6
CONTINUOUS
 62
    7
 10
115.89814178723191
 20
42.192818646004355
 40
0.2999999999999999
 50
0
 51
90
  0
ARC
  8
_1-2_
  6
CONTINUOUS
 62
    7
 10
115.89814178723191
 20
41.292818646004264
 40
0.2999999999999999
 50
270
 51
0
  0
ARC
  8
_1-2_
  6
CONTINUOUS
 62
    7
 10
115.298141787232
 20
40.692818646004355
 40
0.2999999999999999
 50
90
 51
180
  0
ARC
  8
_1-2_
  6
CONTINUOUS
 62
    7
 10
115.298141787232
 20
38.492818646004082
 40
0.2999999999999999
 50
180
 51
270
  0
ARC
  8
_1-2_
  6
CONTINUOUS
 62
    7
 10
115.89814178723191
 20
37.892818646004173
 40
0.2999999999999999
 50
0
 51
90
  0
ARC
  8
_1-2_
  6
CONTINUOUS
 62
    7
 10
116.49814178723204
 20
37.092818646003991
 40
0.2999999999999999
 50
180
 51
270
  0
ARC
  8
_1-2_
  6
CONTINUOUS
 62
    7
 10
112.19814178723186
 20
42.192818646004355
 40
0.2999999999999999
 50
90
 51
180
  0
ARC
  8
_1-2_
  6
CONTINUOUS
 62
    7
 10
112.19814178723186
 20
41.292818646004264
 40
0.2999999999999999
 50
180
 51
270
  0
ARC
  8
_1-2_
  6
CONTINUOUS
 62
    7
 10
112.798141787232
 20
40.692818646004355
 40
0.2999999999999999
 50
0
 51
90
  0
ARC
  8
_1-2_
  6
CONTINUOUS
 62
    7
 10
112.798141787232
 20
38.492818646004082
 40
0.2999999999999999
 50
270
 51
0
  0
ARC
  8
_1-2_
  6
CONTINUOUS
 62
    7
 10
112.19814178723186
 20
37.892818646004173
 40
0.2999999999999999
 50
90
 51
180
  0
ARC
  8
_1-2_
  6
CONTINUOUS
 62
    7
 10
111.59814178723195
 20
37.092818646003991
 40
0.2999999999999999
 50
270
 51
0
  0
ARC
  8
_1-2_
  6
CONTINUOUS
 62
    7
 10
108.39814178723191
 20
42.192818646004355
 40
0.2999999999999999
 50
0
 51
90
  0
ARC
  8
_1-2_
  6
CONTINUOUS
 62
    7
 10
108.39814178723191
 20
41.292818646004264
 40
0.2999999999999999
 50
270
 51
0
  0
ARC
  8
_1-2_
  6
CONTINUOUS
 62
    7
 10
107.798141787232
 20
40.692818646004355
 40
0.2999999999999999
 50
90
 51
180
  0
ARC
  8
_1-2_
  6
CONTINUOUS
 62
    7
 10
107.798141787232
 20
38.492818646004082
 40
0.2999999999999999
 50
180
 51
270
  0
ARC
  8
_1-2_
  6
CONTINUOUS
 62
    7
 10
108.39814178723191
 20
37.892818646004173
 40
0.2999999999999999
 50
0
 51
90
  0
ARC
  8
_1-2_
  6
CONTINUOUS
 62
    7
 10
108.99814178723204
 20
37.092818646003991
 40
0.2999999999999999
 50
180
 51
270
  0
ARC
  8
_1-2_
  6
CONTINUOUS
 62
    7
 10
106.298141787232
 20
41.492818646004082
 40
1
 50
90
 51
180
  0
ARC
  8
_1-2_
  6
CONTINUOUS
 62
    7
 10
104.99814178723204
 20
34.617082714715991
 40
0.2999999999999999
 50
315
 51
0
  0
ARC
  8
_1-2_
  6
CONTINUOUS
 62
    7
 10
104.09814178723195
 20
32.868554577292173
 40
0.2999999999999999
 50
135
 51
180
  0
ARC
  8
_1-2_
  6
CONTINUOUS
 62
    7
 10
104.09814178723195
 20
32.163639039253951
 40
0.2999999999999999
 50
180
 51
206.56505117707803
  0
ARC
  8
_1-2_
  6
CONTINUOUS
 62
    7
 10
105.68355198385689
 20
28.992818646004082
 40
0.2999999999999999
 50
206.565051177078
 51
270
  0
ARC
  8
_1-2_
  6
CONTINUOUS
 62
    7
 10
108.69814178723186
 20
28.992818646004082
 40
0.2999999999999999
 50
270
 51
0
  0
ARC
  8
_1-2_
  6
CONTINUOUS
 62
    7
 10
108.69814178723186
 20
30.392818646004173
 40
0.2999999999999999
 50
0
 51
90
  0
ARC
  8
_1-2_
  6
CONTINUOUS
 62
    7
 10
106.69814178723186
 20
30.992818646004082
 40
0.2999999999999999
 50
180
 51
270
  0
ARC
  8
_1-2_
  6
CONTINUOUS
 62
    7
 10
106.69814178723186
 20
32.368554577292173
 40
0.2999999999999999
 50
135
 51
180
  0
ARC
  8
_1-2_
  6
CONTINUOUS
 62
    7
 10
108.02240585594382
 20
33.692818646004355
 40
0.2999999999999999
 50
90.000000000000028
 51
135.00000000000006
  0
ARC
  8
_1-2_
  6
CONTINUOUS
 62
    7
 10
111.49814178723204
 20
33.692818646004355
 40
0.2999999999999999
 50
0
 51
90
  0
ARC
  8
_1-2_
  6
CONTINUOUS
 62
    7
 10
112.09814178723195
 20
32.792818646004264
 40
0.2999999999999999
 50
180
 51
270
  0
ARC
  8
_1-2_
  6
CONTINUOUS
 62
    7
 10
114.12493670647495
 20
32.792818646004264
 40
0.2999999999999999
 50
270
 51
330.00000000000006
  0
ARC
  8
_1-2_
  6
CONTINUOUS
 62
    7
 10
115.91472254096288
 20
34.692818646004355
 40
0.2999999999999999
 50
90.000000000000028
 51
150.00000000000003
  0
LINE
  8
ADD_LINE
  6
DOT
 62
  152
 10
102.79814313344428
 20
19.992818646004537
 11
115.29814313344423
 21
32.492818646004537
  0
LINE
  8
ADD_LINE
  6
DOT
 62
  152
 10
90.298143133444285
 20
32.492818646004537
 11
102.79814313344428
 21
19.992818646004537
  0
LINE
  8
ADD_LINE
  6
DOT
 62
  152
 10
102.49814303344465
 20
26.292818546827505
 11
102.49814303344465
 21
26.692818546827596
  0
LINE
  8
ADD_LINE
  6
DOT
 62
  152
 10
100.4981431334445
 20
26.692818546827596
 11
100.4981431334445
 21
26.292818546827505
  0
LINE
  8
ADD_LINE
  6
DOT
 62
  152
 10
110.298141787232
 20
36.766816571696666
 11
110.298141787232
 21
42.492818646004082
  0
LINE
  8
ADD_LINE
  6
DOT
 62
  152
 10
117.798141787232
 20
42.492818646004082
 11
117.798141787232
 21
36.792818646004264
  0
LINE
  8
ADD_LINE
  6
DOT
 62
  152
 10
125.298141787232
 20
36.792818646004264
 11
125.298141787232
 21
42.492818646004082
  0
LINE
  8
_1-0_
  6
CONTINUOUS
 62
    7
 10
109.79814173973193
 20
58.742818981304083
 11
109.79814173973193
 21
44.742818549104129
  0
LINE
  8
_1-0_
  6
CONTINUOUS
 62
    7
 10
109.79814173973193
 20
45.842818543204089
 11
110.79814178723194
 21
45.842818543204089
  0
LINE
  8
_1-0_
  6
CONTINUOUS
 62
    7
 10
108.79814169223192
 20
45.742818713004112
 11
108.79814169223192
 21
57.742818817304112
  0
LINE
  8
_1-0_
  6
CONTINUOUS
 62
    7
 10
109.79814173973193
 20
57.642818987204123
 11
110.79814178723194
 21
57.642818987204123
  0
LINE
  8
_1-0_
  6
CONTINUOUS
 62
    7
 10
110.79814178723194
 20
58.992818556604107
 11
129.29814202563193
 21
58.992818556604107
  0
LINE
  8
_1-0_
  6
CONTINUOUS
 62
    7
 10
129.29814202563193
 20
58.992818556604107
 11
129.29814202563193
 21
45.492818672104079
  0
LINE
  8
_1-0_
  6
CONTINUOUS
 62
    7
 10
131.2981423534319
 20
45.492818672104079
 11
131.2981423534319
 21
42.492818646004082
  0
LINE
  8
_1-0_
  6
CONTINUOUS
 62
    7
 10
131.2981423534319
 20
42.492818646004082
 11
110.79814178723194
 21
42.492818646004082
  0
LINE
  8
_1-0_
  6
CONTINUOUS
 62
    7
 10
110.79814178723194
 20
42.492818646004082
 11
110.79814178723194
 21
58.992818556604107
  0
LINE
  8
_1-0_
  6
CONTINUOUS
 62
    7
 10
112.7981418822319
 20
57.596757169704119
 11
112.7981418822319
 21
45.492818672104079
  0
LINE
  8
_1-0_
  6
CONTINUOUS
 62
    7
 10
112.7981418822319
 20
45.492818672104079
 11
131.2981423534319
 21
45.492818672104079
  0
LINE
  8
_1-0_
  6
CONTINUOUS
 62
    7
 10
129.29814202563193
 20
49.742818670204088
 11
133.79814183193196
 21
49.742818670204088
  0
LINE
  8
_1-0_
  6
CONTINUOUS
 62
    7
 10
133.79814183193196
 20
49.742818670204088
 11
134.29814098253189
 21
50.242818752104085
  0
LINE
  8
_1-0_
  6
CONTINUOUS
 62
    7
 10
134.29814098253189
 20
50.242818752104085
 11
134.29814098253189
 21
53.242818778204082
  0
LINE
  8
_1-0_
  6
CONTINUOUS
 62
    7
 10
134.29814098253189
 20
53.242818778204082
 11
133.79814183193196
 21
53.742818860204125
  0
LINE
  8
_1-0_
  6
CONTINUOUS
 62
    7
 10
133.79814183193196
 20
53.742818860204125
 11
129.29814202563193
 21
53.742818860204125
  0
LINE
  8
_1-0_
  6
CONTINUOUS
 62
    7
 10
133.79814183193196
 20
53.742818860204125
 11
133.79814183193196
 21
49.742818670204088
  0
LINE
  8
_1-0_
  6
CENTER1
 62
  152
 10
137.49944771830434
 20
51.742818765004074
 11
106.10028885247885
 21
51.742818765004074
  0
LINE
  8
_1-0_
  6
CONTINUOUS
 62
    7
 10
108.29814184313193
 20
47.885582176804121
 11
108.79814169223192
 21
47.885582176804121
  0
LINE
  8
_1-0_
  6
CONTINUOUS
 62
    7
 10
108.29814184313193
 20
47.885582176804121
 11
108.29814184313193
 21
55.600055353604091
  0
LINE
  8
_1-0_
  6
CONTINUOUS
 62
    7
 10
108.29814184313193
 20
55.600055353604091
 11
108.79814169223192
 21
55.600055353604091
  0
ARC
  8
_1-0_
  6
CONTINUOUS
 62
    7
 10
109.79814178723194
 20
45.742818765204106
 40
1
 50
180
 51
270
  0
ARC
  8
_1-0_
  6
CONTINUOUS
 62
    7
 10
109.79814178723194
 20
57.742818765204106
 40
1
 50
90
 51
180
  0
LINE
  8
_1-0_
  6
CENTER1
 62
  152
 10
117.79814178723194
 20
47.57715024712553
 11
117.79814178723194
 21
40.549351672074181
  0
LINE
  8
_1-0_
  6
CENTER1
 62
  152
 10
125.29814178723194
 20
47.57715024712553
 11
125.29814178723194
 21
40.549351672074181
  0
LINE
  8
_1-0_
  6
CONTINUOUS
 62
    7
 10
35.329120916405827
 20
50.164212332904128
 11
45.501733415805802
 21
57.596757169704119
  0
LINE
  8
_1-0_
  6
CONTINUOUS
 62
    7
 10
47.717318155905787
 20
55.400055227604128
 11
47.717318155905787
 21
48.085582302704097
  0
LINE
  8
_1-0_
  6
CONTINUOUS
 62
    7
 10
47.778870894605802
 20
48.242818657204111
 11
51.778871084605839
 21
48.242818657204111
  0
LINE
  8
_1-0_
  6
CONTINUOUS
 62
    7
 10
51.778871084605839
 20
48.242818657204111
 11
51.778871084605839
 21
55.242818873204101
  0
LINE
  8
_1-0_
  6
CONTINUOUS
 62
    7
 10
51.778871084605839
 20
55.242818873204101
 11
47.778870894605802
 21
55.242818873204101
  0
LINE
  8
_1-0_
  6
CONTINUOUS
 62
    7
 10
47.778870894605802
 20
55.242818873204101
 11
47.778870894605802
 21
48.242818657204111
  0
LINE
  8
_1-0_
  6
CONTINUOUS
 62
    7
 10
51.840423823405786
 20
48.085582302704097
 11
51.840423823405786
 21
55.400055227604128
  0
LINE
  8
_1-0_
  6
CONTINUOUS
 62
    7
 10
54.05600856340584
 20
57.596757169704119
 11
64.228621062905859
 21
50.164212332904128
  0
LINE
  8
_1-0_
  6
CONTINUOUS
 62
    7
 10
63.343696047605818
 20
48.953052703104106
 11
57.703682904205834
 21
53.073886991304107
  0
LINE
  8
_1-0_
  6
CENTER1
 62
  152
 10
58.572625133266456
 20
51.742818765004074
 11
40.993423356533867
 21
51.742818765004074
  0
LINE
  8
_1-0_
  6
CONTINUOUS
 62
    7
 10
41.854059075105852
 20
53.073886991304107
 11
36.214045931605824
 21
48.953052703104106
  0
LINE
  8
_1-0_
  6
CONTINUOUS
 62
    7
 10
34.778871324905822
 20
46.127013489404135
 11
34.778871324905822
 21
43.99281889180412
  0
LINE
  8
_1-0_
  6
CONTINUOUS
 62
    7
 10
34.778871324905822
 20
43.99281889180412
 11
46.463754012305799
 21
43.99281889180412
  0
LINE
  8
_1-0_
  6
CONTINUOUS
 62
    7
 10
53.093987966905843
 20
43.99281889180412
 11
64.778870654405864
 21
43.99281889180412
  0
LINE
  8
_1-0_
  6
CONTINUOUS
 62
    7
 10
64.778870654405864
 20
43.99281889180412
 11
64.778870654405864
 21
46.127013489404135
  0
LINE
  8
_1-0_
  6
CONTINUOUS
 62
    7
 10
66.278870900205789
 20
46.127013489404135
 11
66.278870900205789
 21
42.492818646004082
  0
LINE
  8
_1-0_
  6
CONTINUOUS
 62
    7
 10
66.278870900205789
 20
42.492818646004082
 11
33.278871079005853
 21
42.492818646004082
  0
LINE
  8
_1-0_
  6
CONTINUOUS
 62
    7
 10
33.278871079005853
 20
42.492818646004082
 11
33.278871079005853
 21
46.127013489404135
  0
LINE
  8
_1-0_
  6
CENTER1
 62
  152
 10
49.778870989205871
 20
39.676594979184074
 11
49.778870989205871
 21
60.244261057961239
  0
ARC
  8
_1-0_
  6
CONTINUOUS
 62
    7
 10
52.040423802405826
 20
55.400055273104101
 40
0.1999999999999886
 50
58.268285431900004
 51
180
  0
ARC
  8
_1-0_
  6
CONTINUOUS
 62
    7
 10
49.778870989605821
 20
51.742818765204106
 40
4.4999999999999947
 50
301.73171456810002
 51
58.26828543189999
  0
ARC
  8
_1-0_
  6
CONTINUOUS
 62
    7
 10
52.040423802405826
 20
48.085582257304111
 40
0.2000000000000083
 50
180
 51
301.73171456810002
  0
ARC
  8
_1-0_
  6
CONTINUOUS
 62
    7
 10
47.517318176805816
 20
55.400055273104101
 40
0.1999999999999841
 50
0
 51
121.73171456809999
  0
ARC
  8
_1-0_
  6
CONTINUOUS
 62
    7
 10
47.517318176805816
 20
48.085582257304111
 40
0.2000000000000083
 50
238.26828543190004
 51
0.0000000000000254
  0
ARC
  8
_1-0_
  6
CONTINUOUS
 62
    7
 10
49.778870989605821
 20
51.742818765204106
 40
4.4999999999999947
 50
121.73171456809999
 51
238.26828543189998
  0
CIRCLE
  8
_1-0_
  6
CONTINUOUS
 62
    7
 10
49.778870989605821
 20
51.742818765204106
 40
7.0000000000000284
  0
CIRCLE
  8
_1-0_
  6
CONTINUOUS
 62
    7
 10
49.778870989605821
 20
51.742818765204106
 40
4.5999999999999943
  0
ARC
  8
_1-0_
  6
CONTINUOUS
 62
    7
 10
38.278870989605821
 20
46.127013318404124
 40
3.5
 50
126.15345881829998
 51
179.99999999999997
  0
ARC
  8
_1-0_
  6
CONTINUOUS
 62
    7
 10
38.278870989605821
 20
46.127013318404124
 40
5.0000000000000142
 50
126.15345881829998
 51
179.99999999999997
  0
ARC
  8
_1-0_
  6
CONTINUOUS
 62
    7
 10
49.778870989605821
 20
51.742818765204106
 40
7.2500000000000044
 50
53.846541181700005
 51
126.15345881829998
  0
ARC
  8
_1-0_
  6
CONTINUOUS
 62
    7
 10
61.278870989605821
 20
46.127013318404124
 40
5.0000000000000142
 50
0
 51
53.846541181700005
  0
ARC
  8
_1-0_
  6
CONTINUOUS
 62
    7
 10
61.278870989605821
 20
46.127013318404124
 40
3.5
 50
0
 51
53.846541181700005
  0
ARC
  8
_1-0_
  6
CONTINUOUS
 62
    7
 10
49.890165500905823
 20
51.442631172504093
 40
8.2000000000000153
 50
168.52539228960001
 51
245.30075834909997
  0
ARC
  8
_1-0_
  6
CONTINUOUS
 62
    7
 10
49.667576478405863
 20
51.442631172504093
 40
8.2000000000000046
 50
294.69924165089998
 51
11.474607710399988
  0
LINE
  8
_1-0_
  6
CONTINUOUS
 62
    7
 10
48.278870976605845
 20
136.32089537741172
 11
47.778870894605802
 21
135.82089622681167
  0
LINE
  8
_1-0_
  6
CONTINUOUS
 62
    7
 10
47.778870894605802
 20
135.82089622681167
 11
47.778870894605802
 21
131.3208964205117
  0
LINE
  8
_1-0_
  6
CONTINUOUS
 62
    7
 10
43.778870937505872
 20
131.3208964205117
 11
43.778870937505872
 21
132.32089658441168
  0
LINE
  8
_1-0_
  6
CONTINUOUS
 62
    7
 10
42.778870773605831
 20
133.32089674831172
 11
35.278871406905864
 21
133.32089674831172
  0
LINE
  8
_1-0_
  6
CENTER1
 62
  152
 10
37.028870990005771
 20
132.03650117023983
 11
37.028870990005771
 21
116.2422644969908
  0
LINE
  8
_1-0_
  6
CONTINUOUS
 62
    7
 10
33.278871079005853
 20
114.82089627711167
 11
45.501733415805802
 21
114.82089627711167
  0
LINE
  8
_1-0_
  6
CONTINUOUS
 62
    7
 10
42.52887119820582
 20
114.82089627711167
 11
42.52887119820582
 21
131.3208964205117
  0
LINE
  8
_1-0_
  6
CONTINUOUS
 62
    7
 10
42.52887119820582
 20
131.3208964205117
 11
57.028870781005821
 21
131.3208964205117
  0
LINE
  8
_1-0_
  6
CONTINUOUS
 62
    7
 10
57.028870781005821
 20
131.3208964205117
 11
57.028870781005821
 21
114.82089627711173
  0
LINE
  8
_1-0_
  6
CONTINUOUS
 62
    7
 10
54.05600856340584
 20
114.82089627711173
 11
66.278870900205789
 21
114.82089627711173
  0
LINE
  8
_1-0_
  6
CONTINUOUS
 62
    7
 10
66.278870900205789
 20
112.82089618211171
 11
33.278871079005853
 21
112.82089618211171
  0
LINE
  8
_1-0_
  6
CONTINUOUS
 62
    7
 10
33.278871079005853
 20
112.82089618211171
 11
33.278871079005853
 21
131.3208964205117
  0
LINE
  8
_1-0_
  6
CONTINUOUS
 62
    7
 10
35.528870982205831
 20
129.32089609271168
 11
35.528870982205831
 21
125.3208963684117
  0
LINE
  8
_1-0_
  6
CONTINUOUS
 62
    7
 10
38.528870542605773
 20
125.3208963684117
 11
38.528870542605773
 21
129.32089609271168
  0
LINE
  8
_1-0_
  6
CENTER1
 62
  152
 10
34.41474515316429
 20
127.32089623031175
 11
65.570499686696621
 21
127.32089623031175
  0
LINE
  8
_1-0_
  6
CONTINUOUS
 62
    7
 10
64.028870997105855
 20
125.3208963684117
 11
64.028870997105855
 21
129.32089609271168
  0
LINE
  8
_1-0_
  6
CONTINUOUS
 62
    7
 10
61.028871436705799
 20
129.32089609271168
 11
61.028871436705799
 21
125.3208963684117
  0
LINE
  8
_1-0_
  6
CENTER1
 62
  152
 10
62.528870990005771
 20
132.03650117023983
 11
62.528870990005771
 21
116.2422644969908
  0
LINE
  8
_1-0_
  6
CENTER1
 62
  152
 10
65.570499686696621
 20
119.82089618231174
 11
34.41474515316429
 21
119.82089618231174
  0
LINE
  8
_1-0_
  6
CONTINUOUS
 62
    7
 10
42.778870773605831
 20
111.8208961346117
 11
56.778871205705855
 21
111.8208961346117
  0
LINE
  8
_1-0_
  6
CONTINUOUS
 62
    7
 10
55.678871211705882
 20
111.8208961346117
 11
55.678871211705882
 21
112.82089618211171
  0
LINE
  8
_1-0_
  6
CONTINUOUS
 62
    7
 10
55.778871041805814
 20
110.82089608711169
 11
43.778870937505872
 21
110.82089608711169
  0
LINE
  8
_1-0_
  6
CONTINUOUS
 62
    7
 10
43.878870767605804
 20
111.8208961346117
 11
43.878870767605804
 21
112.82089618211171
  0
LINE
  8
_1-0_
  6
CONTINUOUS
 62
    7
 10
45.278871183305796
 20
110.82089608711169
 11
45.278871183305796
 21
110.3208962380117
  0
LINE
  8
_1-0_
  6
CONTINUOUS
 62
    7
 10
45.278871183305796
 20
110.3208962380117
 11
47.717318155905787
 21
110.3208962380117
  0
LINE
  8
_1-0_
  6
CONTINUOUS
 62
    7
 10
47.717318155905787
 20
110.3208962380117
 11
47.717318155905787
 21
110.82089608711169
  0
LINE
  8
_1-0_
  6
CONTINUOUS
 62
    7
 10
51.840423823405786
 20
110.82089608711169
 11
51.840423823405786
 21
110.3208962380117
  0
LINE
  8
_1-0_
  6
CONTINUOUS
 62
    7
 10
54.278870795905846
 20
110.3208962380117
 11
54.278870795905846
 21
110.82089608711175
  0
LINE
  8
_1-0_
  6
CONTINUOUS
 62
    7
 10
66.278870900205789
 20
112.82089618211171
 11
66.278870900205789
 21
131.3208964205117
  0
LINE
  8
_1-0_
  6
CONTINUOUS
 62
    7
 10
64.278870572405822
 20
133.32089674831172
 11
56.778871205705855
 21
133.32089674831172
  0
LINE
  8
_1-0_
  6
CONTINUOUS
 62
    7
 10
55.778871041805814
 20
132.32089658441168
 11
55.778871041805814
 21
131.3208964205117
  0
LINE
  8
_1-0_
  6
CONTINUOUS
 62
    7
 10
51.778871084605839
 20
131.3208964205117
 11
51.778871084605839
 21
135.82089622681167
  0
LINE
  8
_1-0_
  6
CONTINUOUS
 62
    7
 10
51.778871084605839
 20
135.82089622681167
 11
51.278871002705841
 21
136.32089537741172
  0
LINE
  8
_1-0_
  6
CONTINUOUS
 62
    7
 10
51.278871002705841
 20
136.32089537741172
 11
48.278870976605845
 21
136.32089537741172
  0
LINE
  8
_1-0_
  6
CONTINUOUS
 62
    7
 10
47.778870894605802
 20
135.82089622681167
 11
51.778871084605839
 21
135.82089622681167
  0
ARC
  8
_1-0_
  6
CONTINUOUS
 62
    7
 10
55.778870989605821
 20
111.82089618211171
 40
1
 50
270
 51
0
  0
ARC
  8
_1-0_
  6
CONTINUOUS
 62
    7
 10
43.778870989605821
 20
111.82089618211171
 40
1
 50
180
 51
270
  0
ARC
  8
_1-0_
  6
CONTINUOUS
 62
    7
 10
62.528870989605821
 20
125.32089618211171
 40
1.5
 50
180
 51
0
  0
ARC
  8
_1-0_
  6
CONTINUOUS
 62
    7
 10
62.528870989605821
 20
129.32089618211171
 40
1.5
 50
0
 51
180
  0
CIRCLE
  8
_1-0_
  6
CONTINUOUS
 62
    7
 10
62.528870989605821
 20
119.82089618211171
 40
1.5
  0
ARC
  8
_1-0_
  6
CONTINUOUS
 62
    7
 10
64.278870989605821
 20
131.32089618211171
 40
2
 50
0
 51
90
  0
ARC
  8
_1-0_
  6
CONTINUOUS
 62
    7
 10
56.778870989605821
 20
132.32089618211171
 40
1
 50
90
 51
180
  0
ARC
  8
_1-0_
  6
CONTINUOUS
 62
    7
 10
37.028870989605821
 20
125.32089618211171
 40
1.5
 50
180
 51
0
  0
ARC
  8
_1-0_
  6
CONTINUOUS
 62
    7
 10
37.028870989605821
 20
129.32089618211171
 40
1.5
 50
0
 51
180
  0
CIRCLE
  8
_1-0_
  6
CONTINUOUS
 62
    7
 10
37.028870989605821
 20
119.82089618211171
 40
1.5
  0
ARC
  8
_1-0_
  6
CONTINUOUS
 62
    7
 10
35.278870989605821
 20
131.32089618211171
 40
2
 50
90
 51
180
  0
ARC
  8
_1-0_
  6
CONTINUOUS
 62
    7
 10
42.778870989605821
 20
132.32089618211171
 40
1
 50
0
 51
90
  0
LINE
  8
_1-0_
  6
CENTER1
 62
  152
 10
49.778870989205871
 20
105.19210759881389
 11
49.778870989205871
 21
138.18246056064362
  0
LINE
  8
_1-0_
  6
CONTINUOUS
 62
    7
 10
51.840423823405786
 20
110.3208962380117
 11
54.278870795905846
 21
110.3208962380117
  0
LINE
  8
ADD_LINE
  6
DOT
 62
    9
 10
129.29814202563193
 20
51.742818765004074
 11
128.59103524444572
 21
51.035711983817407
  0
LINE
  8
ADD_LINE
  6
DOT
 62
    9
 10
129.29814202563193
 20
51.742818765004074
 11
128.59103524444572
 21
52.449925546190741
  0
LINE
  8
_1-0_
  6
CONTINUOUS
 62
    7
 10
132.88314134852362
 20
47.124016694386398
 11
129.29814202563239
 21
47.124016694386398
  0
LINE
  8
_1-0_
  6
CONTINUOUS
 62
    7
 10
132.88314134852362
 20
56.36162083562175
 11
129.29814202563239
 21
56.36162083562175
  0
LINE
  8
_1-0_
  6
CONTINUOUS
 62
    7
 10
133.29814202563239
 20
48.278717212040817
 11
133.29814202563239
 21
55.206920317967331
  0
LINE
  8
_1-0_
  6
CONTINUOUS
 62
    7
 10
132.88314134852362
 20
49.433417729695236
 11
129.29814202563239
 21
49.433417729695236
  0
LINE
  8
_1-0_
  6
CONTINUOUS
 62
    7
 10
132.88314134852362
 20
54.052219800312912
 11
129.29814202563239
 21
54.052219800312912
  0
ARC
  8
_1-0_
  6
CONTINUOUS
 62
    7
 10
126.66494853274298
 20
51.742818765004074
 40
6.6331934928894043
 50
339.62528991699213
 51
20.374694824218693
  0
LINE
  8
_1-0_
  6
CONTINUOUS
 62
    7
 10
132.8831409993283
 20
47.124043089834196
 11
132.8831409993283
 21
47.124043089834196
  0
LINE
  8
_1-0_
  6
CONTINUOUS
 62
    7
 10
132.8831409993283
 20
47.124043089834196
 11
133.0796391649404
 21
47.420540195318154
  0
LINE
  8
_1-0_
  6
CONTINUOUS
 62
    7
 10
133.0796391649404
 20
47.420540195318154
 11
133.21570264866895
 21
47.743112575196704
  0
LINE
  8
_1-0_
  6
CONTINUOUS
 62
    7
 10
133.21570264866895
 20
47.743112575196704
 11
133.28719723041226
 21
48.081959030936744
  0
LINE
  8
_1-0_
  6
CONTINUOUS
 62
    7
 10
133.28719723041226
 20
48.081959030936744
 11
133.29195058348211
 21
48.426783884445186
  0
LINE
  8
_1-0_
  6
CONTINUOUS
 62
    7
 10
133.29195058348211
 20
48.426783884445186
 11
133.22981827965077
 21
48.767109807037976
  0
LINE
  8
_1-0_
  6
CONTINUOUS
 62
    7
 10
133.22981827965077
 20
48.767109807037976
 11
133.1026881775297
 21
49.092596167770353
  0
LINE
  8
_1-0_
  6
CONTINUOUS
 62
    7
 10
133.1026881775297
 20
49.092596167770353
 11
132.91442306094089
 21
49.393353228275508
  0
LINE
  8
_1-0_
  6
CONTINUOUS
 62
    7
 10
132.91442306094089
 20
49.393353228275508
 11
132.88314134245292
 21
49.433390906427114
  0
LINE
  8
_1-0_
  6
CONTINUOUS
 62
    7
 10
132.8831409993283
 20
54.052246195760709
 11
132.8831409993283
 21
54.052246195760709
  0
LINE
  8
_1-0_
  6
CONTINUOUS
 62
    7
 10
132.8831409993283
 20
54.052246195760709
 11
133.0796391649404
 21
54.348743301244667
  0
LINE
  8
_1-0_
  6
CONTINUOUS
 62
    7
 10
133.0796391649404
 20
54.348743301244667
 11
133.21570264866895
 21
54.671315681123218
  0
LINE
  8
_1-0_
  6
CONTINUOUS
 62
    7
 10
133.21570264866895
 20
54.671315681123218
 11
133.28719723041226
 21
55.010162136863258
  0
LINE
  8
_1-0_
  6
CONTINUOUS
 62
    7
 10
133.28719723041226
 20
55.010162136863258
 11
133.29195058348211
 21
55.3549869903717
  0
LINE
  8
_1-0_
  6
CONTINUOUS
 62
    7
 10
133.29195058348211
 20
55.3549869903717
 11
133.22981827965077
 21
55.695312912964489
  0
LINE
  8
_1-0_
  6
CONTINUOUS
 62
    7
 10
133.22981827965077
 20
55.695312912964489
 11
133.1026881775297
 21
56.020799273696866
  0
LINE
  8
_1-0_
  6
CONTINUOUS
 62
    7
 10
133.1026881775297
 20
56.020799273696866
 11
132.91442306094089
 21
56.321556334202022
  0
LINE
  8
_1-0_
  6
CONTINUOUS
 62
    7
 10
132.91442306094089
 20
56.321556334202022
 11
132.88314134245292
 21
56.361594012353628
  0
LINE
  8
ADD_LINE
  6
DOT
 62
    9
 10
49.778870989205871
 20
131.3208964205117
 11
50.485977770392537
 21
130.61378963932549
  0
LINE
  8
ADD_LINE
  6
DOT
 62
    9
 10
49.778870989205871
 20
131.3208964205117
 11
49.071764208019204
 21
130.61378963932549
  0
LINE
  8
_1-0_
  6
CONTINUOUS
 62
    7
 10
54.397673059823546
 20
134.90589574340339
 11
54.397673059823546
 21
131.32089642051216
  0
LINE
  8
_1-0_
  6
CONTINUOUS
 62
    7
 10
45.160068918588195
 20
134.90589574340339
 11
45.160068918588195
 21
131.32089642051216
  0
LINE
  8
_1-0_
  6
CONTINUOUS
 62
    7
 10
53.242972542169127
 20
135.32089642051216
 11
46.314769436242614
 21
135.32089642051216
  0
LINE
  8
_1-0_
  6
CONTINUOUS
 62
    7
 10
52.088272024514708
 20
134.90589574340339
 11
52.088272024514708
 21
131.32089642051216
  0
LINE
  8
_1-0_
  6
CONTINUOUS
 62
    7
 10
47.469469953897033
 20
134.90589574340339
 11
47.469469953897033
 21
131.32089642051216
  0
ARC
  8
_1-0_
  6
CONTINUOUS
 62
    7
 10
49.778870989205871
 20
128.68770292762275
 40
6.6331934928894043
 50
69.625289916992173
 51
110.37469482421874
  0
LINE
  8
_1-0_
  6
CONTINUOUS
 62
    7
 10
54.397646664375749
 20
134.90589539420807
 11
54.397646664375749
 21
134.90589539420807
  0
LINE
  8
_1-0_
  6
CONTINUOUS
 62
    7
 10
54.397646664375749
 20
134.90589539420807
 11
54.101149558891791
 21
135.10239355982017
  0
LINE
  8
_1-0_
  6
CONTINUOUS
 62
    7
 10
54.101149558891791
 20
135.10239355982017
 11
53.77857717901324
 21
135.23845704354872
  0
LINE
  8
_1-0_
  6
CONTINUOUS
 62
    7
 10
53.77857717901324
 20
135.23845704354872
 11
53.4397307232732
 21
135.30995162529203
  0
LINE
  8
_1-0_
  6
CONTINUOUS
 62
    7
 10
53.4397307232732
 20
135.30995162529203
 11
53.094905869764752
 21
135.31470497836187
  0
LINE
  8
_1-0_
  6
CONTINUOUS
 62
    7
 10
53.094905869764752
 20
135.31470497836187
 11
52.754579947171969
 21
135.25257267453054
  0
LINE
  8
_1-0_
  6
CONTINUOUS
 62
    7
 10
52.754579947171969
 20
135.25257267453054
 11
52.429093586439592
 21
135.12544257240947
  0
LINE
  8
_1-0_
  6
CONTINUOUS
 62
    7
 10
52.429093586439592
 20
135.12544257240947
 11
52.128336525934436
 21
134.93717745582066
  0
LINE
  8
_1-0_
  6
CONTINUOUS
 62
    7
 10
52.128336525934436
 20
134.93717745582066
 11
52.088298847782831
 21
134.90589573733268
  0
LINE
  8
_1-0_
  6
CONTINUOUS
 62
    7
 10
47.469443558449235
 20
134.90589539420807
 11
47.469443558449235
 21
134.90589539420807
  0
LINE
  8
_1-0_
  6
CONTINUOUS
 62
    7
 10
47.469443558449235
 20
134.90589539420807
 11
47.172946452965277
 21
135.10239355982017
  0
LINE
  8
_1-0_
  6
CONTINUOUS
 62
    7
 10
47.172946452965277
 20
135.10239355982017
 11
46.850374073086726
 21
135.23845704354872
  0
LINE
  8
_1-0_
  6
CONTINUOUS
 62
    7
 10
46.850374073086726
 20
135.23845704354872
 11
46.511527617346687
 21
135.30995162529203
  0
LINE
  8
_1-0_
  6
CONTINUOUS
 62
    7
 10
46.511527617346687
 20
135.30995162529203
 11
46.166702763838238
 21
135.31470497836187
  0
LINE
  8
_1-0_
  6
CONTINUOUS
 62
    7
 10
46.166702763838238
 20
135.31470497836187
 11
45.826376841245455
 21
135.25257267453054
  0
LINE
  8
_1-0_
  6
CONTINUOUS
 62
    7
 10
45.826376841245455
 20
135.25257267453054
 11
45.500890480513078
 21
135.12544257240947
  0
LINE
  8
_1-0_
  6
CONTINUOUS
 62
    7
 10
45.500890480513078
 20
135.12544257240947
 11
45.200133420007923
 21
134.93717745582066
  0
LINE
  8
_1-0_
  6
CONTINUOUS
 62
    7
 10
45.200133420007923
 20
134.93717745582066
 11
45.160095741856317
 21
134.90589573733268
  0
LINE
  8
_1-3_
  6
CONTINUOUS
 62
  204
 10
114.29814178743197
 20
45.992818672104079
 11
114.29814178743197
 21
45.492818672104079
  0
LINE
  8
_1-3_
  6
CONTINUOUS
 62
  204
 10
114.29814178743197
 20
45.992818672104079
 11
121.29814178743197
 21
45.992818672104079
  0
LINE
  8
_1-3_
  6
CONTINUOUS
 62
  204
 10
121.29814178743197
 20
45.992818672104079
 11
121.29814178743197
 21
45.492818672104079
  0
LINE
  8
_1-3_
  6
CONTINUOUS
 62
  152
 10
116.29814178723194
 20
38.192818481369216
 11
119.29814178723194
 21
38.192818481369216
  0
LINE
  8
_1-3_
  6
CONTINUOUS
 62
  152
 10
116.49814183491566
 20
45.992818672104079
 11
116.49814183491566
 21
37.992818672104079
  0
LINE
  8
_1-3_
  6
CONTINUOUS
 62
  152
 10
119.09814173954823
 20
45.992818672104079
 11
119.09814173954823
 21
37.992818672104079
  0
LINE
  8
ADD_LINE
  6
DOT
 62
    9
 10
117.79814178723194
 20
45.992818672104079
 11
118.50524856841861
 21
45.285711890917412
  0
LINE
  8
ADD_LINE
  6
DOT
 62
    9
 10
117.79814178723194
 20
45.992818672104079
 11
117.09103500604527
 21
45.285711890917412
  0
LINE
  8
_1-3_
  6
CONTINUOUS
 62
   56
 10
115.04814178723194
 20
45.992818672104079
 11
115.1222663618932
 21
46.840067583961684
  0
LINE
  8
_1-3_
  6
CONTINUOUS
 62
   56
 10
120.54814178723194
 20
45.992818672104079
 11
120.47401721257069
 21
46.840067583961684
  0
LINE
  8
_1-3_
  6
CONTINUOUS
 62
   56
 10
116.49814183491566
 20
37.992818672104079
 11
116.29814178723194
 21
38.192818481369216
  0
LINE
  8
_1-3_
  6
CONTINUOUS
 62
   56
 10
116.29814178723194
 20
45.992818672104079
 11
116.29814178723194
 21
38.192818481369216
  0
LINE
  8
_1-3_
  6
CONTINUOUS
 62
   56
 10
119.29814178723194
 20
45.992818672104079
 11
119.29814178723194
 21
38.192818481369216
  0
LINE
  8
_1-3_
  6
CONTINUOUS
 62
   56
 10
119.09814173954823
 20
37.992818672104079
 11
119.29814178723194
 21
38.192818481369216
  0
LINE
  8
_1-3_
  6
CONTINUOUS
 62
   56
 10
116.49814183491566
 20
37.992818672104079
 11
119.09814173954823
 21
37.992818672104079
  0
ARC
  8
_1-3_
  6
CONTINUOUS
 62
   56
 10
116.11846120137074
 20
46.75291182462712
 40
1
 50
106.25701904296875
 51
175
  0
ARC
  8
_1-3_
  6
CONTINUOUS
 62
   56
 10
119.47782237309315
 20
46.75291182462712
 40
1
 50
4.9999847412109482
 51
73.742965698242202
  0
ARC
  8
_1-3_
  6
CONTINUOUS
 62
   56
 10
117.79814178723194
 20
40.992818672104079
 40
7
 50
73.742965698242187
 51
106.25701904296876
  0
LINE
  8
_1-3_
  6
CONTINUOUS
 62
    7
 10
120.54814221398118
 20
38.896192841102959
 11
120.54814221398118
 21
40.992818646004082
  0
ARC
  8
_1-3_
  6
CONTINUOUS
 62
  204
 10
119.17316673653443
 20
41.860388654474093
 40
3.2675701038374143
 50
245.11524322005664
 51
294.88475677939499
  0
LINE
  8
_1-3_
  6
CONTINUOUS
 62
  204
 10
120.54814221398118
 20
40.992818646004082
 11
117.79819125908762
 21
40.992818646004082
  0
LINE
  8
_1-3_
  6
CONTINUOUS
 62
    7
 10
117.79819125908762
 20
38.59281855063665
 11
119.17316673653443
 21
38.59281855063665
  0
LINE
  8
_1-3_
  6
CONTINUOUS
 62
    7
 10
115.048240304194
 20
38.896192841102959
 11
115.048240304194
 21
40.992818646004082
  0
LINE
  8
_1-3_
  6
CONTINUOUS
 62
  204
 10
115.048240304194
 20
40.992818646004082
 11
117.79819125908762
 21
40.992818646004082
  0
LINE
  8
_1-3_
  6
CONTINUOUS
 62
    7
 10
117.79819125908762
 20
38.59281855063665
 11
116.42321578164081
 21
38.59281855063665
  0
LINE
  8
_1-3_
  6
CONTINUOUS
 62
  204
 10
117.79819125908762
 20
38.896192841118989
 11
117.79819125908762
 21
40.992818646004082
  0
ARC
  8
_1-3_
  6
CONTINUOUS
 62
  204
 10
116.42321578164081
 20
41.860388654474093
 40
3.2675701038374143
 50
245.11524322060501
 51
294.88475678006148
  0
LINE
  8
_1-3_
  6
CONTINUOUS
 62
    7
 10
117.79809231537683
 20
32.400389880522937
 11
115.048141787232
 21
30.812639326438159
  0
LINE
  8
_1-3_
  6
CONTINUOUS
 62
    7
 10
117.79809231537683
 20
32.400389880522937
 11
120.548141787232
 21
30.812582225188464
  0
LINE
  8
_1-3_
  6
CONTINUOUS
 62
    7
 10
120.548141787232
 20
30.812582225188464
 11
120.548141787232
 21
27.637278766020984
  0
LINE
  8
_1-3_
  6
CONTINUOUS
 62
    7
 10
120.548141787232
 20
27.637278766020984
 11
117.79809231537683
 21
26.049471110686511
  0
LINE
  8
_1-3_
  6
CONTINUOUS
 62
    7
 10
115.048141787232
 20
30.812639326438159
 11
115.048141787232
 21
27.637221664771289
  0
LINE
  8
_1-3_
  6
CONTINUOUS
 62
    7
 10
115.048141787232
 20
27.637221664771289
 11
117.79809231537683
 21
26.049471110686511
  0
CIRCLE
  8
_1-3_
  6
CONTINUOUS
 62
  152
 10
117.798141787232
 20
29.224930495604724
 40
2.6500000953674316
  0
CIRCLE
  8
_1-3_
  6
CONTINUOUS
 62
  152
 10
117.798141787232
 20
29.224930495604724
 40
1.2849999666213989
  0
CIRCLE
  8
_1-3_
  6
CONTINUOUS
 62
    7
 10
117.798141787232
 20
29.224930495604724
 40
1.5
  0
LINE
  8
ADD_LINE
  6
DOT
 62
    9
 10
49.778870989205871
 20
110.07089612621166
 11
50.485977770392537
 21
109.363789345025
  0
LINE
  8
ADD_LINE
  6
DOT
 62
    9
 10
49.778870989205871
 20
110.07089612621166
 11
49.071764208019204
 21
109.363789345025
  0
LINE
  8
_1-3_
  6
CONTINUOUS
 62
   56
 10
52.778870989205871
 20
109.82089612621166
 11
51.278870989205871
 21
108.32089612621166
  0
LINE
  8
_1-3_
  6
CONTINUOUS
 62
   56
 10
48.278870989205871
 20
108.32089612621166
 11
51.278870989205871
 21
108.32089612621166
  0
LINE
  8
_1-3_
  6
CONTINUOUS
 62
   56
 10
46.778870989205871
 20
109.82089612621166
 11
48.278870989205871
 21
108.32089612621166
  0
LINE
  8
_1-3_
  6
CONTINUOUS
 62
   56
 10
46.778870989205871
 20
109.82089612621166
 11
52.778870989205871
 21
109.82089612621166
  0
LINE
  8
_1-3_
  6
CONTINUOUS
 62
  152
 10
48.278870989205871
 20
102.0208959354768
 11
51.278870989205871
 21
102.0208959354768
  0
LINE
  8
_1-3_
  6
CONTINUOUS
 62
  152
 10
48.478871036889586
 20
108.32089612621166
 11
48.478871036889586
 21
101.82089612621166
  0
LINE
  8
_1-3_
  6
CONTINUOUS
 62
  152
 10
51.078870941522155
 20
108.32089612621166
 11
51.078870941522155
 21
101.82089612621166
  0
LINE
  8
_1-3_
  6
CONTINUOUS
 62
   56
 10
48.478871036889586
 20
101.82089612621166
 11
48.278870989205871
 21
102.0208959354768
  0
LINE
  8
_1-3_
  6
CONTINUOUS
 62
   56
 10
51.078870941522155
 20
101.82089612621166
 11
51.278870989205871
 21
102.0208959354768
  0
LINE
  8
_1-3_
  6
CONTINUOUS
 62
   56
 10
48.478871036889586
 20
101.82089612621166
 11
51.078870941522155
 21
101.82089612621166
  0
LINE
  8
_1-3_
  6
CONTINUOUS
 62
   56
 10
48.278870989205871
 20
108.32089612621166
 11
48.278870989205871
 21
102.0208959354768
  0
LINE
  8
_1-3_
  6
CONTINUOUS
 62
   56
 10
51.278870989205871
 20
108.32089612621166
 11
51.278870989205871
 21
102.0208959354768
  0
LINE
  8
_1-1_
  6
CONTINUOUS
 62
    5
 10
105.298141787232
 20
45.74281871280408
 11
107.79814173133195
 21
45.74281871280408
  0
LINE
  8
_1-1_
  6
CONTINUOUS
 62
    5
 10
107.79814173133195
 20
45.74281871280408
 11
107.79814173133195
 21
57.742818817204125
  0
LINE
  8
_1-1_
  6
CONTINUOUS
 62
    5
 10
107.79814173133195
 20
57.742818817204125
 11
105.298141787232
 21
57.742818817204125
  0
LINE
  8
_1-1_
  6
CONTINUOUS
 62
    5
 10
105.298141787232
 20
57.742818817204125
 11
105.298141787232
 21
45.74281871280408
  0
LINE
  8
_1-1_
  6
CONTINUOUS
 62
    5
 10
55.778871041405864
 20
107.32089618211171
 11
55.778871041405864
 21
109.82089612621166
  0
LINE
  8
_1-1_
  6
CONTINUOUS
 62
    5
 10
55.778871041405864
 20
109.82089612621166
 11
43.778870937005877
 21
109.82089612621166
  0
LINE
  8
_1-1_
  6
CONTINUOUS
 62
    5
 10
43.778870937005877
 20
109.82089612621166
 11
43.778870937005877
 21
107.32089618211171
  0
LINE
  8
_1-1_
  6
CONTINUOUS
 62
    5
 10
43.778870937005877
 20
107.32089618211171
 11
55.778871041405864
 21
107.32089618211171
  0
LINE
  8
_1-1_
  6
CONTINUOUS
 62
    5
 10
51.478870989205916
 20
107.32089618211171
 11
51.478870989205916
 21
108.52089612621171
  0
LINE
  8
_1-1_
  6
CONTINUOUS
 62
    5
 10
52.778870989205871
 20
109.82089612621166
 11
51.478870989205916
 21
108.52089612621171
  0
LINE
  8
_1-1_
  6
CONTINUOUS
 62
    5
 10
48.078870989205825
 20
107.32089618211171
 11
48.078870989205825
 21
108.52089612621171
  0
LINE
  8
_1-1_
  6
CONTINUOUS
 62
    5
 10
46.778870989205871
 20
109.82089612621166
 11
48.078870989205825
 21
108.52089612621171
  0
LINE
  8
_1-1_
  6
CONTINUOUS
 62
    5
 10
48.078870989205825
 20
108.52089612621171
 11
51.478870989205916
 21
108.52089612621171
  0
LINE
  8
_1-4_
  6
PHANTOM1
 62
  152
 10
90.298143133444285
 20
7.4928186460045367
 11
115.29814313344428
 21
7.4928186460045367
  0
LINE
  8
_1-4_
  6
PHANTOM1
 62
  152
 10
115.29814313344428
 20
7.4928186460045367
 11
115.29814313344428
 21
32.492818646004537
  0
LINE
  8
_1-4_
  6
PHANTOM1
 62
  152
 10
115.29814313344428
 20
32.492818646004537
 11
90.298143133444285
 21
32.492818646004537
  0
LINE
  8
_1-4_
  6
PHANTOM1
 62
  152
 10
90.298143133444285
 20
32.492818646004537
 11
90.298143133444285
 21
7.4928186460045367
  0
LINE
  8
_1-4_
  6
PHANTOM1
 62
  152
 10
32.278870989205871
 20
66.45923739350178
 11
32.278870989205871
 21
7.4928186460045367
  0
LINE
  8
_1-4_
  6
PHANTOM1
 62
  152
 10
7.2788709892058705
 20
66.45923739350178
 11
7.2788709892058705
 21
7.4928186460045367
  0
LINE
  8
_1-4_
  6
PHANTOM1
 62
  152
 10
72.827475818994003
 20
32.492818646004537
 11
32.278870989205871
 21
32.492818646004537
  0
LINE
  8
_1-4_
  6
PHANTOM1
 62
  152
 10
72.827475818994003
 20
7.4928186460045367
 11
7.2788709892058705
 21
7.4928186460045367
  0
LINE
  8
_1-4_
  6
PHANTOM1
 62
  152
 10
90.298143133444285
 20
71.741394691370942
 11
90.298143133444285
 21
34.992818646004537
  0
LINE
  8
_1-4_
  6
PHANTOM1
 62
  152
 10
105.29814313344428
 20
71.741394691370942
 11
105.29814313344428
 21
34.992818646004537
  0
LINE
  8
_1-4_
  6
PHANTOM1
 62
  152
 10
105.29814313344428
 20
34.992818646004537
 11
90.298143133444285
 21
34.992818646004537
  0
LINE
  8
_1-4_
  6
PHANTOM1
 62
  152
 10
7.2788709892058705
 20
117.32089752832405
 11
81.088754405158852
 21
117.32089752832405
  0
LINE
  8
_1-4_
  6
PHANTOM1
 62
  152
 10
7.2788709892058705
 20
92.320897528324053
 11
7.2788709892058705
 21
117.32089752832405
  0
LINE
  8
_1-4_
  6
PHANTOM1
 62
  152
 10
7.2788709892058705
 20
92.320897528324053
 11
81.088754405158852
 21
92.320897528324053
  0
LINE
  8
_1-4_
  6
PHANTOM1
 62
  152
 10
32.278870989205871
 20
92.320897528324053
 11
32.278870989205871
 21
117.32089752832405
  0
TEXT
  8
_1-4_
 62
    7
 10
49.741434006019176
 20
77.137951926748485
 40
4.2999999999999998
 41
0.744186046511628
 50
0
  1
MS25-S
  0
LINE
  8
_1-0_
  6
CONTINUOUS
 62
    7
 10
224.03285731655274
 20
117.53681153845457
 11
224.03285731655274
 21
103.53681110625462
  0
LINE
  8
_1-0_
  6
CONTINUOUS
 62
    7
 10
224.03285731655274
 20
104.63681110035458
 11
225.03285736405275
 21
104.63681110035458
  0
LINE
  8
_1-0_
  6
CONTINUOUS
 62
    7
 10
223.03285726905273
 20
104.5368112701546
 11
223.03285726905273
 21
116.5368113744546
  0
LINE
  8
_1-0_
  6
CONTINUOUS
 62
    7
 10
224.03285731655274
 20
116.43681154435461
 11
225.03285736405275
 21
116.43681154435461
  0
LINE
  8
_1-0_
  6
CONTINUOUS
 62
    7
 10
225.03285736405275
 20
117.7868111137546
 11
243.53285760245274
 21
117.7868111137546
  0
LINE
  8
_1-0_
  6
CONTINUOUS
 62
    7
 10
243.53285760245274
 20
117.7868111137546
 11
243.53285760245274
 21
104.28681122925457
  0
LINE
  8
_1-0_
  6
CONTINUOUS
 62
    7
 10
245.5328579302527
 20
104.28681122925457
 11
245.5328579302527
 21
101.28681120315457
  0
LINE
  8
_1-0_
  6
CONTINUOUS
 62
    7
 10
245.5328579302527
 20
101.28681120315457
 11
225.03285736405275
 21
101.28681120315457
  0
LINE
  8
_1-0_
  6
CONTINUOUS
 62
    7
 10
225.03285736405275
 20
101.28681120315457
 11
225.03285736405275
 21
117.7868111137546
  0
LINE
  8
_1-0_
  6
CONTINUOUS
 62
    7
 10
227.03285745905271
 20
116.39074972685461
 11
227.03285745905271
 21
104.28681122925457
  0
LINE
  8
_1-0_
  6
CONTINUOUS
 62
    7
 10
227.03285745905271
 20
104.28681122925457
 11
245.5328579302527
 21
104.28681122925457
  0
LINE
  8
_1-0_
  6
CONTINUOUS
 62
    7
 10
243.53285760245274
 20
108.53681122735458
 11
248.03285740875276
 21
108.53681122735458
  0
LINE
  8
_1-0_
  6
CONTINUOUS
 62
    7
 10
248.03285740875276
 20
108.53681122735458
 11
248.53285655935269
 21
109.03681130925457
  0
LINE
  8
_1-0_
  6
CONTINUOUS
 62
    7
 10
248.53285655935269
 20
109.03681130925457
 11
248.53285655935269
 21
112.03681133535457
  0
LINE
  8
_1-0_
  6
CONTINUOUS
 62
    7
 10
248.53285655935269
 20
112.03681133535457
 11
248.03285740875276
 21
112.53681141735461
  0
LINE
  8
_1-0_
  6
CONTINUOUS
 62
    7
 10
248.03285740875276
 20
112.53681141735461
 11
243.53285760245274
 21
112.53681141735461
  0
LINE
  8
_1-0_
  6
CONTINUOUS
 62
    7
 10
248.03285740875276
 20
112.53681141735461
 11
248.03285740875276
 21
108.53681122735458
  0
LINE
  8
_1-0_
  6
CENTER1
 62
  152
 10
251.73416329512514
 20
110.53681132215456
 11
220.33500442929966
 21
110.53681132215456
  0
LINE
  8
_1-0_
  6
CONTINUOUS
 62
    7
 10
222.53285741995273
 20
106.67957473395461
 11
223.03285726905273
 21
106.67957473395461
  0
LINE
  8
_1-0_
  6
CONTINUOUS
 62
    7
 10
222.53285741995273
 20
106.67957473395461
 11
222.53285741995273
 21
114.39404791075458
  0
LINE
  8
_1-0_
  6
CONTINUOUS
 62
    7
 10
222.53285741995273
 20
114.39404791075458
 11
223.03285726905273
 21
114.39404791075458
  0
ARC
  8
_1-0_
  6
CONTINUOUS
 62
    7
 10
224.03285736405275
 20
104.53681132235459
 40
1
 50
180
 51
270
  0
ARC
  8
_1-0_
  6
CONTINUOUS
 62
    7
 10
224.03285736405275
 20
116.53681132235459
 40
1
 50
90
 51
180
  0
LINE
  8
_1-0_
  6
CENTER1
 62
  152
 10
232.03285736405275
 20
106.37114280427602
 11
232.03285736405275
 21
99.34334422922467
  0
LINE
  8
_1-0_
  6
CENTER1
 62
  152
 10
239.53285736405275
 20
106.37114280427602
 11
239.53285736405275
 21
99.34334422922467
  0
LINE
  8
_1-0_
  6
CONTINUOUS
 62
    7
 10
149.56383649322663
 20
108.95820489005462
 11
159.73644899262661
 21
116.39074972685461
  0
LINE
  8
_1-0_
  6
CONTINUOUS
 62
    7
 10
161.95203373272659
 20
114.19404778475462
 11
161.95203373272659
 21
106.87957485985459
  0
LINE
  8
_1-0_
  6
CONTINUOUS
 62
    7
 10
162.01358647142661
 20
107.0368112143546
 11
166.01358666142664
 21
107.0368112143546
  0
LINE
  8
_1-0_
  6
CONTINUOUS
 62
    7
 10
166.01358666142664
 20
107.0368112143546
 11
166.01358666142664
 21
114.03681143035459
  0
LINE
  8
_1-0_
  6
CONTINUOUS
 62
    7
 10
166.01358666142664
 20
114.03681143035459
 11
162.01358647142661
 21
114.03681143035459
  0
LINE
  8
_1-0_
  6
CONTINUOUS
 62
    7
 10
162.01358647142661
 20
114.03681143035459
 11
162.01358647142661
 21
107.0368112143546
  0
LINE
  8
_1-0_
  6
CONTINUOUS
 62
    7
 10
166.07513940022659
 20
106.87957485985459
 11
166.07513940022659
 21
114.19404778475462
  0
LINE
  8
_1-0_
  6
CONTINUOUS
 62
    7
 10
168.29072414022664
 20
116.39074972685461
 11
178.46333663972666
 21
108.95820489005462
  0
LINE
  8
_1-0_
  6
CONTINUOUS
 62
    7
 10
177.57841162442662
 20
107.74704526025459
 11
171.93839848102664
 21
111.8678795484546
  0
LINE
  8
_1-0_
  6
CENTER1
 62
  152
 10
172.80734071008726
 20
110.53681132215456
 11
155.22813893335467
 21
110.53681132215456
  0
LINE
  8
_1-0_
  6
CONTINUOUS
 62
    7
 10
156.08877465192666
 20
111.8678795484546
 11
150.44876150842663
 21
107.74704526025459
  0
LINE
  8
_1-0_
  6
CONTINUOUS
 62
    7
 10
149.01358690172663
 20
104.92100604655462
 11
149.01358690172663
 21
102.78681144895461
  0
LINE
  8
_1-0_
  6
CONTINUOUS
 62
    7
 10
149.01358690172663
 20
102.78681144895461
 11
160.6984695891266
 21
102.78681144895461
  0
LINE
  8
_1-0_
  6
CONTINUOUS
 62
    7
 10
167.32870354372665
 20
102.78681144895461
 11
179.01358623122667
 21
102.78681144895461
  0
LINE
  8
_1-0_
  6
CONTINUOUS
 62
    7
 10
179.01358623122667
 20
102.78681144895461
 11
179.01358623122667
 21
104.92100604655462
  0
LINE
  8
_1-0_
  6
CONTINUOUS
 62
    7
 10
180.51358647702659
 20
104.92100604655462
 11
180.51358647702659
 21
101.28681120315457
  0
LINE
  8
_1-0_
  6
CONTINUOUS
 62
    7
 10
180.51358647702659
 20
101.28681120315457
 11
147.51358665582666
 21
101.28681120315457
  0
LINE
  8
_1-0_
  6
CONTINUOUS
 62
    7
 10
147.51358665582666
 20
101.28681120315457
 11
147.51358665582666
 21
104.92100604655462
  0
LINE
  8
_1-0_
  6
CENTER1
 62
  152
 10
164.01358656602667
 20
98.470587536334563
 11
164.01358656602667
 21
119.03825361511173
  0
ARC
  8
_1-0_
  6
CONTINUOUS
 62
    7
 10
166.27513937922663
 20
114.19404783025459
 40
0.1999999999999886
 50
58.268285431900004
 51
180
  0
ARC
  8
_1-0_
  6
CONTINUOUS
 62
    7
 10
164.01358656642662
 20
110.53681132235459
 40
4.4999999999999947
 50
301.73171456810002
 51
58.26828543189999
  0
ARC
  8
_1-0_
  6
CONTINUOUS
 62
    7
 10
166.27513937922663
 20
106.8795748144546
 40
0.2000000000000083
 50
180
 51
301.73171456810002
  0
ARC
  8
_1-0_
  6
CONTINUOUS
 62
    7
 10
161.75203375362662
 20
114.19404783025459
 40
0.1999999999999841
 50
0
 51
121.73171456809999
  0
ARC
  8
_1-0_
  6
CONTINUOUS
 62
    7
 10
161.75203375362662
 20
106.8795748144546
 40
0.2000000000000083
 50
238.26828543190004
 51
0.0000000000000254
  0
ARC
  8
_1-0_
  6
CONTINUOUS
 62
    7
 10
164.01358656642662
 20
110.53681132235459
 40
4.4999999999999947
 50
121.73171456809999
 51
238.26828543189998
  0
CIRCLE
  8
_1-0_
  6
CONTINUOUS
 62
    7
 10
164.01358656642662
 20
110.53681132235459
 40
7.0000000000000284
  0
CIRCLE
  8
_1-0_
  6
CONTINUOUS
 62
    7
 10
164.01358656642662
 20
110.53681132235459
 40
4.5999999999999943
  0
ARC
  8
_1-0_
  6
CONTINUOUS
 62
    7
 10
152.51358656642662
 20
104.92100587555461
 40
3.5
 50
126.15345881829998
 51
179.99999999999997
  0
ARC
  8
_1-0_
  6
CONTINUOUS
 62
    7
 10
152.51358656642662
 20
104.92100587555461
 40
5.0000000000000142
 50
126.15345881829998
 51
179.99999999999997
  0
ARC
  8
_1-0_
  6
CONTINUOUS
 62
    7
 10
164.01358656642662
 20
110.53681132235459
 40
7.2500000000000044
 50
53.846541181700005
 51
126.15345881829998
  0
ARC
  8
_1-0_
  6
CONTINUOUS
 62
    7
 10
175.51358656642662
 20
104.92100587555461
 40
5.0000000000000142
 50
0
 51
53.846541181700005
  0
ARC
  8
_1-0_
  6
CONTINUOUS
 62
    7
 10
175.51358656642662
 20
104.92100587555461
 40
3.5
 50
0
 51
53.846541181700005
  0
ARC
  8
_1-0_
  6
CONTINUOUS
 62
    7
 10
164.12488107772663
 20
110.23662372965458
 40
8.2000000000000153
 50
168.52539228960001
 51
245.30075834909997
  0
ARC
  8
_1-0_
  6
CONTINUOUS
 62
    7
 10
163.90229205522667
 20
110.23662372965458
 40
8.2000000000000046
 50
294.69924165089998
 51
11.474607710399988
  0
LINE
  8
_1-0_
  6
CONTINUOUS
 62
    7
 10
162.51358655342665
 20
195.1148879345622
 11
162.01358647142661
 21
194.61488878396216
  0
LINE
  8
_1-0_
  6
CONTINUOUS
 62
    7
 10
162.01358647142661
 20
194.61488878396216
 11
162.01358647142661
 21
190.11488897766219
  0
LINE
  8
_1-0_
  6
CONTINUOUS
 62
    7
 10
158.01358651432668
 20
190.11488897766219
 11
158.01358651432668
 21
191.11488914156217
  0
LINE
  8
_1-0_
  6
CONTINUOUS
 62
    7
 10
157.01358635042664
 20
192.11488930546221
 11
149.51358698372667
 21
192.11488930546221
  0
LINE
  8
_1-0_
  6
CENTER1
 62
  152
 10
151.26358656682658
 20
190.83049372739032
 11
151.26358656682658
 21
175.03625705414129
  0
LINE
  8
_1-0_
  6
CONTINUOUS
 62
    7
 10
147.51358665582666
 20
173.61488883426216
 11
159.73644899262661
 21
173.61488883426216
  0
LINE
  8
_1-0_
  6
CONTINUOUS
 62
    7
 10
156.76358677502662
 20
173.61488883426216
 11
156.76358677502662
 21
190.11488897766219
  0
LINE
  8
_1-0_
  6
CONTINUOUS
 62
    7
 10
156.76358677502662
 20
190.11488897766219
 11
171.26358635782663
 21
190.11488897766219
  0
LINE
  8
_1-0_
  6
CONTINUOUS
 62
    7
 10
171.26358635782663
 20
190.11488897766219
 11
171.26358635782663
 21
173.61488883426222
  0
LINE
  8
_1-0_
  6
CONTINUOUS
 62
    7
 10
168.29072414022664
 20
173.61488883426222
 11
180.51358647702659
 21
173.61488883426222
  0
LINE
  8
_1-0_
  6
CONTINUOUS
 62
    7
 10
180.51358647702659
 20
171.6148887392622
 11
147.51358665582666
 21
171.6148887392622
  0
LINE
  8
_1-0_
  6
CONTINUOUS
 62
    7
 10
147.51358665582666
 20
171.6148887392622
 11
147.51358665582666
 21
190.11488897766219
  0
LINE
  8
_1-0_
  6
CONTINUOUS
 62
    7
 10
149.76358655902663
 20
188.11488864986217
 11
149.76358655902663
 21
184.11488892556218
  0
LINE
  8
_1-0_
  6
CONTINUOUS
 62
    7
 10
152.76358611942658
 20
184.11488892556218
 11
152.76358611942658
 21
188.11488864986217
  0
LINE
  8
_1-0_
  6
CENTER1
 62
  152
 10
148.64946072998509
 20
186.11488878746223
 11
179.80521526351743
 21
186.11488878746223
  0
LINE
  8
_1-0_
  6
CONTINUOUS
 62
    7
 10
178.26358657392666
 20
184.11488892556218
 11
178.26358657392666
 21
188.11488864986217
  0
LINE
  8
_1-0_
  6
CONTINUOUS
 62
    7
 10
175.2635870135266
 20
188.11488864986217
 11
175.2635870135266
 21
184.11488892556218
  0
LINE
  8
_1-0_
  6
CENTER1
 62
  152
 10
176.76358656682658
 20
190.83049372739032
 11
176.76358656682658
 21
175.03625705414129
  0
LINE
  8
_1-0_
  6
CENTER1
 62
  152
 10
179.80521526351743
 20
178.61488873946223
 11
148.64946072998509
 21
178.61488873946223
  0
LINE
  8
_1-0_
  6
CONTINUOUS
 62
    7
 10
157.01358635042664
 20
170.61488869176219
 11
171.01358678252666
 21
170.61488869176219
  0
LINE
  8
_1-0_
  6
CONTINUOUS
 62
    7
 10
169.91358678852669
 20
170.61488869176219
 11
169.91358678852669
 21
171.6148887392622
  0
LINE
  8
_1-0_
  6
CONTINUOUS
 62
    7
 10
170.01358661862662
 20
169.61488864426218
 11
158.01358651432668
 21
169.61488864426218
  0
LINE
  8
_1-0_
  6
CONTINUOUS
 62
    7
 10
158.11358634442661
 20
170.61488869176219
 11
158.11358634442661
 21
171.6148887392622
  0
LINE
  8
_1-0_
  6
CONTINUOUS
 62
    7
 10
159.5135867601266
 20
169.61488864426218
 11
159.5135867601266
 21
169.11488879516219
  0
LINE
  8
_1-0_
  6
CONTINUOUS
 62
    7
 10
159.5135867601266
 20
169.11488879516219
 11
161.95203373272659
 21
169.11488879516219
  0
LINE
  8
_1-0_
  6
CONTINUOUS
 62
    7
 10
161.95203373272659
 20
169.11488879516219
 11
161.95203373272659
 21
169.61488864426218
  0
LINE
  8
_1-0_
  6
CONTINUOUS
 62
    7
 10
166.07513940022659
 20
169.61488864426218
 11
166.07513940022659
 21
169.11488879516219
  0
LINE
  8
_1-0_
  6
CONTINUOUS
 62
    7
 10
168.51358637272665
 20
169.11488879516219
 11
168.51358637272665
 21
169.61488864426224
  0
LINE
  8
_1-0_
  6
CONTINUOUS
 62
    7
 10
180.51358647702659
 20
171.6148887392622
 11
180.51358647702659
 21
190.11488897766219
  0
LINE
  8
_1-0_
  6
CONTINUOUS
 62
    7
 10
178.51358614922663
 20
192.11488930546221
 11
171.01358678252666
 21
192.11488930546221
  0
LINE
  8
_1-0_
  6
CONTINUOUS
 62
    7
 10
170.01358661862662
 20
191.11488914156217
 11
170.01358661862662
 21
190.11488897766219
  0
LINE
  8
_1-0_
  6
CONTINUOUS
 62
    7
 10
166.01358666142664
 20
190.11488897766219
 11
166.01358666142664
 21
194.61488878396216
  0
LINE
  8
_1-0_
  6
CONTINUOUS
 62
    7
 10
166.01358666142664
 20
194.61488878396216
 11
165.51358657952665
 21
195.1148879345622
  0
LINE
  8
_1-0_
  6
CONTINUOUS
 62
    7
 10
165.51358657952665
 20
195.1148879345622
 11
162.51358655342665
 21
195.1148879345622
  0
LINE
  8
_1-0_
  6
CONTINUOUS
 62
    7
 10
162.01358647142661
 20
194.61488878396216
 11
166.01358666142664
 21
194.61488878396216
  0
ARC
  8
_1-0_
  6
CONTINUOUS
 62
    7
 10
170.01358656642662
 20
170.6148887392622
 40
1
 50
270
 51
0
  0
ARC
  8
_1-0_
  6
CONTINUOUS
 62
    7
 10
158.01358656642662
 20
170.6148887392622
 40
1
 50
180
 51
270
  0
ARC
  8
_1-0_
  6
CONTINUOUS
 62
    7
 10
176.76358656642662
 20
184.1148887392622
 40
1.5
 50
180
 51
0
  0
ARC
  8
_1-0_
  6
CONTINUOUS
 62
    7
 10
176.76358656642662
 20
188.1148887392622
 40
1.5
 50
0
 51
180
  0
CIRCLE
  8
_1-0_
  6
CONTINUOUS
 62
    7
 10
176.76358656642662
 20
178.6148887392622
 40
1.5
  0
ARC
  8
_1-0_
  6
CONTINUOUS
 62
    7
 10
178.51358656642662
 20
190.1148887392622
 40
2
 50
0
 51
90
  0
ARC
  8
_1-0_
  6
CONTINUOUS
 62
    7
 10
171.01358656642662
 20
191.1148887392622
 40
1
 50
90
 51
180
  0
ARC
  8
_1-0_
  6
CONTINUOUS
 62
    7
 10
151.26358656642662
 20
184.1148887392622
 40
1.5
 50
180
 51
0
  0
ARC
  8
_1-0_
  6
CONTINUOUS
 62
    7
 10
151.26358656642662
 20
188.1148887392622
 40
1.5
 50
0
 51
180
  0
CIRCLE
  8
_1-0_
  6
CONTINUOUS
 62
    7
 10
151.26358656642662
 20
178.6148887392622
 40
1.5
  0
ARC
  8
_1-0_
  6
CONTINUOUS
 62
    7
 10
149.51358656642662
 20
190.1148887392622
 40
2
 50
90
 51
180
  0
ARC
  8
_1-0_
  6
CONTINUOUS
 62
    7
 10
157.01358656642662
 20
191.1148887392622
 40
1
 50
0
 51
90
  0
LINE
  8
_1-0_
  6
CENTER1
 62
  152
 10
164.01358656602667
 20
163.98610015596438
 11
164.01358656602667
 21
196.97645311779411
  0
LINE
  8
_1-0_
  6
CONTINUOUS
 62
    7
 10
166.07513940022659
 20
169.11488879516219
 11
168.51358637272665
 21
169.11488879516219
  0
LINE
  8
ADD_LINE
  6
DOT
 62
    9
 10
243.53285760245274
 20
110.53681132215456
 11
242.82575082126652
 21
109.8297045409679
  0
LINE
  8
ADD_LINE
  6
DOT
 62
    9
 10
243.53285760245274
 20
110.53681132215456
 11
242.82575082126652
 21
111.24391810334123
  0
LINE
  8
_1-0_
  6
CONTINUOUS
 62
    7
 10
247.11785692534443
 20
105.91800925153689
 11
243.53285760245319
 21
105.91800925153689
  0
LINE
  8
_1-0_
  6
CONTINUOUS
 62
    7
 10
247.11785692534443
 20
115.15561339277224
 11
243.53285760245319
 21
115.15561339277224
  0
LINE
  8
_1-0_
  6
CONTINUOUS
 62
    7
 10
247.53285760245319
 20
107.07270976919131
 11
247.53285760245319
 21
114.00091287511782
  0
LINE
  8
_1-0_
  6
CONTINUOUS
 62
    7
 10
247.11785692534443
 20
108.22741028684572
 11
243.53285760245319
 21
108.22741028684572
  0
LINE
  8
_1-0_
  6
CONTINUOUS
 62
    7
 10
247.11785692534443
 20
112.8462123574634
 11
243.53285760245319
 21
112.8462123574634
  0
ARC
  8
_1-0_
  6
CONTINUOUS
 62
    7
 10
240.89966410956379
 20
110.53681132215456
 40
6.6331934928894043
 50
339.62528991699213
 51
20.374694824218693
  0
LINE
  8
_1-0_
  6
CONTINUOUS
 62
    7
 10
247.11785657614911
 20
105.91803564698468
 11
247.11785657614911
 21
105.91803564698468
  0
LINE
  8
_1-0_
  6
CONTINUOUS
 62
    7
 10
247.11785657614911
 20
105.91803564698468
 11
247.31435474176121
 21
106.21453275246864
  0
LINE
  8
_1-0_
  6
CONTINUOUS
 62
    7
 10
247.31435474176121
 20
106.21453275246864
 11
247.45041822548976
 21
106.53710513234719
  0
LINE
  8
_1-0_
  6
CONTINUOUS
 62
    7
 10
247.45041822548976
 20
106.53710513234719
 11
247.52191280723306
 21
106.87595158808723
  0
LINE
  8
_1-0_
  6
CONTINUOUS
 62
    7
 10
247.52191280723306
 20
106.87595158808723
 11
247.52666616030291
 21
107.22077644159567
  0
LINE
  8
_1-0_
  6
CONTINUOUS
 62
    7
 10
247.52666616030291
 20
107.22077644159567
 11
247.46453385647158
 21
107.56110236418847
  0
LINE
  8
_1-0_
  6
CONTINUOUS
 62
    7
 10
247.46453385647158
 20
107.56110236418847
 11
247.3374037543505
 21
107.88658872492084
  0
LINE
  8
_1-0_
  6
CONTINUOUS
 62
    7
 10
247.3374037543505
 20
107.88658872492084
 11
247.14913863776169
 21
108.187345785426
  0
LINE
  8
_1-0_
  6
CONTINUOUS
 62
    7
 10
247.14913863776169
 20
108.187345785426
 11
247.11785691927372
 21
108.2273834635776
  0
LINE
  8
_1-0_
  6
CONTINUOUS
 62
    7
 10
247.11785657614911
 20
112.84623875291119
 11
247.11785657614911
 21
112.84623875291119
  0
LINE
  8
_1-0_
  6
CONTINUOUS
 62
    7
 10
247.11785657614911
 20
112.84623875291119
 11
247.31435474176121
 21
113.14273585839516
  0
LINE
  8
_1-0_
  6
CONTINUOUS
 62
    7
 10
247.31435474176121
 20
113.14273585839516
 11
247.45041822548976
 21
113.46530823827371
  0
LINE
  8
_1-0_
  6
CONTINUOUS
 62
    7
 10
247.45041822548976
 20
113.46530823827371
 11
247.52191280723306
 21
113.80415469401375
  0
LINE
  8
_1-0_
  6
CONTINUOUS
 62
    7
 10
247.52191280723306
 20
113.80415469401375
 11
247.52666616030291
 21
114.14897954752219
  0
LINE
  8
_1-0_
  6
CONTINUOUS
 62
    7
 10
247.52666616030291
 20
114.14897954752219
 11
247.46453385647158
 21
114.48930547011499
  0
LINE
  8
_1-0_
  6
CONTINUOUS
 62
    7
 10
247.46453385647158
 20
114.48930547011499
 11
247.3374037543505
 21
114.81479183084735
  0
LINE
  8
_1-0_
  6
CONTINUOUS
 62
    7
 10
247.3374037543505
 20
114.81479183084735
 11
247.14913863776169
 21
115.11554889135252
  0
LINE
  8
_1-0_
  6
CONTINUOUS
 62
    7
 10
247.14913863776169
 20
115.11554889135252
 11
247.11785691927372
 21
115.15558656950411
  0
LINE
  8
ADD_LINE
  6
DOT
 62
    9
 10
164.01358656602667
 20
190.11488897766219
 11
164.72069334721334
 21
189.40778219647598
  0
LINE
  8
ADD_LINE
  6
DOT
 62
    9
 10
164.01358656602667
 20
190.11488897766219
 11
163.30647978484001
 21
189.40778219647598
  0
LINE
  8
_1-0_
  6
CONTINUOUS
 62
    7
 10
168.63238863664435
 20
193.69988830055388
 11
168.63238863664435
 21
190.11488897766264
  0
LINE
  8
_1-0_
  6
CONTINUOUS
 62
    7
 10
159.394784495409
 20
193.69988830055388
 11
159.394784495409
 21
190.11488897766264
  0
LINE
  8
_1-0_
  6
CONTINUOUS
 62
    7
 10
167.47768811898993
 20
194.11488897766264
 11
160.54948501306342
 21
194.11488897766264
  0
LINE
  8
_1-0_
  6
CONTINUOUS
 62
    7
 10
166.32298760133551
 20
193.69988830055388
 11
166.32298760133551
 21
190.11488897766264
  0
LINE
  8
_1-0_
  6
CONTINUOUS
 62
    7
 10
161.70418553071784
 20
193.69988830055388
 11
161.70418553071784
 21
190.11488897766264
  0
ARC
  8
_1-0_
  6
CONTINUOUS
 62
    7
 10
164.01358656602667
 20
187.48169548477324
 40
6.6331934928894043
 50
69.625289916992173
 51
110.37469482421874
  0
LINE
  8
_1-0_
  6
CONTINUOUS
 62
    7
 10
168.63236224119655
 20
193.69988795135856
 11
168.63236224119655
 21
193.69988795135856
  0
LINE
  8
_1-0_
  6
CONTINUOUS
 62
    7
 10
168.63236224119655
 20
193.69988795135856
 11
168.3358651357126
 21
193.89638611697066
  0
LINE
  8
_1-0_
  6
CONTINUOUS
 62
    7
 10
168.3358651357126
 20
193.89638611697066
 11
168.01329275583404
 21
194.03244960069921
  0
LINE
  8
_1-0_
  6
CONTINUOUS
 62
    7
 10
168.01329275583404
 20
194.03244960069921
 11
167.67444630009399
 21
194.10394418244252
  0
LINE
  8
_1-0_
  6
CONTINUOUS
 62
    7
 10
167.67444630009399
 20
194.10394418244252
 11
167.32962144658555
 21
194.10869753551236
  0
LINE
  8
_1-0_
  6
CONTINUOUS
 62
    7
 10
167.32962144658555
 20
194.10869753551236
 11
166.98929552399278
 21
194.04656523168103
  0
LINE
  8
_1-0_
  6
CONTINUOUS
 62
    7
 10
166.98929552399278
 20
194.04656523168103
 11
166.6638091632604
 21
193.91943512955996
  0
LINE
  8
_1-0_
  6
CONTINUOUS
 62
    7
 10
166.6638091632604
 20
193.91943512955996
 11
166.36305210275523
 21
193.73117001297115
  0
LINE
  8
_1-0_
  6
CONTINUOUS
 62
    7
 10
166.36305210275523
 20
193.73117001297115
 11
166.32301442460363
 21
193.69988829448317
  0
LINE
  8
_1-0_
  6
CONTINUOUS
 62
    7
 10
161.70415913527003
 20
193.69988795135856
 11
161.70415913527003
 21
193.69988795135856
  0
LINE
  8
_1-0_
  6
CONTINUOUS
 62
    7
 10
161.70415913527003
 20
193.69988795135856
 11
161.40766202978608
 21
193.89638611697066
  0
LINE
  8
_1-0_
  6
CONTINUOUS
 62
    7
 10
161.40766202978608
 20
193.89638611697066
 11
161.08508964990753
 21
194.03244960069921
  0
LINE
  8
_1-0_
  6
CONTINUOUS
 62
    7
 10
161.08508964990753
 20
194.03244960069921
 11
160.74624319416748
 21
194.10394418244252
  0
LINE
  8
_1-0_
  6
CONTINUOUS
 62
    7
 10
160.74624319416748
 20
194.10394418244252
 11
160.40141834065903
 21
194.10869753551236
  0
LINE
  8
_1-0_
  6
CONTINUOUS
 62
    7
 10
160.40141834065903
 20
194.10869753551236
 11
160.06109241806627
 21
194.04656523168103
  0
LINE
  8
_1-0_
  6
CONTINUOUS
 62
    7
 10
160.06109241806627
 20
194.04656523168103
 11
159.73560605733388
 21
193.91943512955996
  0
LINE
  8
_1-0_
  6
CONTINUOUS
 62
    7
 10
159.73560605733388
 20
193.91943512955996
 11
159.43484899682872
 21
193.73117001297115
  0
LINE
  8
_1-0_
  6
CONTINUOUS
 62
    7
 10
159.43484899682872
 20
193.73117001297115
 11
159.39481131867711
 21
193.69988829448317
  0
LINE
  8
_1-3_
  6
CONTINUOUS
 62
  204
 10
228.53285736425278
 20
104.78681122925457
 11
228.53285736425278
 21
104.28681122925457
  0
LINE
  8
_1-3_
  6
CONTINUOUS
 62
  204
 10
228.53285736425278
 20
104.78681122925457
 11
235.53285736425278
 21
104.78681122925457
  0
LINE
  8
_1-3_
  6
CONTINUOUS
 62
  204
 10
235.53285736425278
 20
104.78681122925457
 11
235.53285736425278
 21
104.28681122925457
  0
LINE
  8
_1-3_
  6
CONTINUOUS
 62
  152
 10
230.53285736405275
 20
96.986811038519704
 11
233.53285736405275
 21
96.986811038519704
  0
LINE
  8
_1-3_
  6
CONTINUOUS
 62
  152
 10
230.73285741173646
 20
104.78681122925457
 11
230.73285741173646
 21
96.786811229254567
  0
LINE
  8
_1-3_
  6
CONTINUOUS
 62
  152
 10
233.33285731636903
 20
104.78681122925457
 11
233.33285731636903
 21
96.786811229254567
  0
LINE
  8
ADD_LINE
  6
DOT
 62
    9
 10
232.03285736405275
 20
104.78681122925457
 11
232.73996414523941
 21
104.0797044480679
  0
LINE
  8
ADD_LINE
  6
DOT
 62
    9
 10
232.03285736405275
 20
104.78681122925457
 11
231.32575058286608
 21
104.0797044480679
  0
LINE
  8
_1-3_
  6
CONTINUOUS
 62
   56
 10
229.28285736405275
 20
104.78681122925457
 11
229.356981938714
 21
105.63406014111217
  0
LINE
  8
_1-3_
  6
CONTINUOUS
 62
   56
 10
234.78285736405275
 20
104.78681122925457
 11
234.70873278939149
 21
105.63406014111217
  0
LINE
  8
_1-3_
  6
CONTINUOUS
 62
   56
 10
230.73285741173646
 20
96.786811229254567
 11
230.53285736405275
 21
96.986811038519704
  0
LINE
  8
_1-3_
  6
CONTINUOUS
 62
   56
 10
230.53285736405275
 20
104.78681122925457
 11
230.53285736405275
 21
96.986811038519704
  0
LINE
  8
_1-3_
  6
CONTINUOUS
 62
   56
 10
233.53285736405275
 20
104.78681122925457
 11
233.53285736405275
 21
96.986811038519704
  0
LINE
  8
_1-3_
  6
CONTINUOUS
 62
   56
 10
233.33285731636903
 20
96.786811229254567
 11
233.53285736405275
 21
96.986811038519704
  0
LINE
  8
_1-3_
  6
CONTINUOUS
 62
   56
 10
230.73285741173646
 20
96.786811229254567
 11
233.33285731636903
 21
96.786811229254567
  0
ARC
  8
_1-3_
  6
CONTINUOUS
 62
   56
 10
230.35317677819154
 20
105.54690438177761
 40
1
 50
106.25701904296875
 51
175
  0
ARC
  8
_1-3_
  6
CONTINUOUS
 62
   56
 10
233.71253794991395
 20
105.54690438177761
 40
1
 50
4.9999847412109482
 51
73.742965698242202
  0
ARC
  8
_1-3_
  6
CONTINUOUS
 62
   56
 10
232.03285736405275
 20
99.786811229254567
 40
7
 50
73.742965698242187
 51
106.25701904296876
  0
LINE
  8
_1-3_
  6
CONTINUOUS
 62
    7
 10
234.78285779080198
 20
97.690185398253448
 11
234.78285779080198
 21
99.786811203154571
  0
ARC
  8
_1-3_
  6
CONTINUOUS
 62
  204
 10
233.40788231335523
 20
100.65438121162458
 40
3.2675701038374143
 50
245.11524322005664
 51
294.88475677939499
  0
LINE
  8
_1-3_
  6
CONTINUOUS
 62
  204
 10
234.78285779080198
 20
99.786811203154571
 11
232.03290683590842
 21
99.786811203154571
  0
LINE
  8
_1-3_
  6
CONTINUOUS
 62
    7
 10
232.03290683590842
 20
97.386811107787139
 11
233.40788231335523
 21
97.386811107787139
  0
LINE
  8
_1-3_
  6
CONTINUOUS
 62
    7
 10
229.2829558810148
 20
97.690185398253448
 11
229.2829558810148
 21
99.786811203154571
  0
LINE
  8
_1-3_
  6
CONTINUOUS
 62
  204
 10
229.2829558810148
 20
99.786811203154571
 11
232.03290683590842
 21
99.786811203154571
  0
LINE
  8
_1-3_
  6
CONTINUOUS
 62
    7
 10
232.03290683590842
 20
97.386811107787139
 11
230.65793135846161
 21
97.386811107787139
  0
LINE
  8
_1-3_
  6
CONTINUOUS
 62
  204
 10
232.03290683590842
 20
97.690185398269477
 11
232.03290683590842
 21
99.786811203154571
  0
ARC
  8
_1-3_
  6
CONTINUOUS
 62
  204
 10
230.65793135846161
 20
100.65438121162458
 40
3.2675701038374143
 50
245.11524322060501
 51
294.88475678006148
  0
LINE
  8
_1-3_
  6
CONTINUOUS
 62
    7
 10
232.03280789219764
 20
91.194382437673426
 11
229.2828573640528
 21
89.606631883588648
  0
LINE
  8
_1-3_
  6
CONTINUOUS
 62
    7
 10
232.03280789219764
 20
91.194382437673426
 11
234.7828573640528
 21
89.606574782338953
  0
LINE
  8
_1-3_
  6
CONTINUOUS
 62
    7
 10
234.7828573640528
 20
89.606574782338953
 11
234.7828573640528
 21
86.431271323171472
  0
LINE
  8
_1-3_
  6
CONTINUOUS
 62
    7
 10
234.7828573640528
 20
86.431271323171472
 11
232.03280789219764
 21
84.843463667837
  0
LINE
  8
_1-3_
  6
CONTINUOUS
 62
    7
 10
229.2828573640528
 20
89.606631883588648
 11
229.2828573640528
 21
86.431214221921778
  0
LINE
  8
_1-3_
  6
CONTINUOUS
 62
    7
 10
229.2828573640528
 20
86.431214221921778
 11
232.03280789219764
 21
84.843463667837
  0
CIRCLE
  8
_1-3_
  6
CONTINUOUS
 62
  152
 10
232.0328573640528
 20
88.018923052755213
 40
2.6500000953674316
  0
CIRCLE
  8
_1-3_
  6
CONTINUOUS
 62
  152
 10
232.0328573640528
 20
88.018923052755213
 40
1.2849999666213989
  0
CIRCLE
  8
_1-3_
  6
CONTINUOUS
 62
    7
 10
232.0328573640528
 20
88.018923052755213
 40
1.5
  0
LINE
  8
ADD_LINE
  6
DOT
 62
    9
 10
164.01358656602667
 20
168.86488868336215
 11
164.72069334721334
 21
168.15778190217549
  0
LINE
  8
ADD_LINE
  6
DOT
 62
    9
 10
164.01358656602667
 20
168.86488868336215
 11
163.30647978484001
 21
168.15778190217549
  0
LINE
  8
_1-3_
  6
CONTINUOUS
 62
   56
 10
167.01358656602667
 20
168.61488868336215
 11
165.51358656602667
 21
167.11488868336215
  0
LINE
  8
_1-3_
  6
CONTINUOUS
 62
   56
 10
162.51358656602667
 20
167.11488868336215
 11
165.51358656602667
 21
167.11488868336215
  0
LINE
  8
_1-3_
  6
CONTINUOUS
 62
   56
 10
161.01358656602667
 20
168.61488868336215
 11
162.51358656602667
 21
167.11488868336215
  0
LINE
  8
_1-3_
  6
CONTINUOUS
 62
   56
 10
161.01358656602667
 20
168.61488868336215
 11
167.01358656602667
 21
168.61488868336215
  0
LINE
  8
_1-3_
  6
CONTINUOUS
 62
  152
 10
162.51358656602667
 20
160.81488849262729
 11
165.51358656602667
 21
160.81488849262729
  0
LINE
  8
_1-3_
  6
CONTINUOUS
 62
  152
 10
162.71358661371039
 20
167.11488868336215
 11
162.71358661371039
 21
160.61488868336215
  0
LINE
  8
_1-3_
  6
CONTINUOUS
 62
  152
 10
165.31358651834296
 20
167.11488868336215
 11
165.31358651834296
 21
160.61488868336215
  0
LINE
  8
_1-3_
  6
CONTINUOUS
 62
   56
 10
162.71358661371039
 20
160.61488868336215
 11
162.51358656602667
 21
160.81488849262729
  0
LINE
  8
_1-3_
  6
CONTINUOUS
 62
   56
 10
165.31358651834296
 20
160.61488868336215
 11
165.51358656602667
 21
160.81488849262729
  0
LINE
  8
_1-3_
  6
CONTINUOUS
 62
   56
 10
162.71358661371039
 20
160.61488868336215
 11
165.31358651834296
 21
160.61488868336215
  0
LINE
  8
_1-3_
  6
CONTINUOUS
 62
   56
 10
162.51358656602667
 20
167.11488868336215
 11
162.51358656602667
 21
160.81488849262729
  0
LINE
  8
_1-3_
  6
CONTINUOUS
 62
   56
 10
165.51358656602667
 20
167.11488868336215
 11
165.51358656602667
 21
160.81488849262729
  0
LINE
  8
_1-1_
  6
CONTINUOUS
 62
    5
 10
219.5328573640528
 20
104.53681126995457
 11
222.03285730815276
 21
104.53681126995457
  0
LINE
  8
_1-1_
  6
CONTINUOUS
 62
    5
 10
222.03285730815276
 20
104.53681126995457
 11
222.03285730815276
 21
116.53681137435461
  0
LINE
  8
_1-1_
  6
CONTINUOUS
 62
    5
 10
222.03285730815276
 20
116.53681137435461
 11
219.5328573640528
 21
116.53681137435461
  0
LINE
  8
_1-1_
  6
CONTINUOUS
 62
    5
 10
219.5328573640528
 20
116.53681137435461
 11
219.5328573640528
 21
104.53681126995457
  0
LINE
  8
_1-1_
  6
CONTINUOUS
 62
    5
 10
170.01358661822667
 20
166.1148887392622
 11
170.01358661822667
 21
168.61488868336215
  0
LINE
  8
_1-1_
  6
CONTINUOUS
 62
    5
 10
170.01358661822667
 20
168.61488868336215
 11
158.01358651382668
 21
168.61488868336215
  0
LINE
  8
_1-1_
  6
CONTINUOUS
 62
    5
 10
158.01358651382668
 20
168.61488868336215
 11
158.01358651382668
 21
166.1148887392622
  0
LINE
  8
_1-1_
  6
CONTINUOUS
 62
    5
 10
158.01358651382668
 20
166.1148887392622
 11
170.01358661822667
 21
166.1148887392622
  0
LINE
  8
_1-1_
  6
CONTINUOUS
 62
    5
 10
165.71358656602672
 20
166.1148887392622
 11
165.71358656602672
 21
167.3148886833622
  0
LINE
  8
_1-1_
  6
CONTINUOUS
 62
    5
 10
167.01358656602667
 20
168.61488868336215
 11
165.71358656602672
 21
167.3148886833622
  0
LINE
  8
_1-1_
  6
CONTINUOUS
 62
    5
 10
162.31358656602663
 20
166.1148887392622
 11
162.31358656602663
 21
167.3148886833622
  0
LINE
  8
_1-1_
  6
CONTINUOUS
 62
    5
 10
161.01358656602667
 20
168.61488868336215
 11
162.31358656602663
 21
167.3148886833622
  0
LINE
  8
_1-1_
  6
CONTINUOUS
 62
    5
 10
162.31358656602663
 20
167.3148886833622
 11
165.71358656602672
 21
167.3148886833622
  0
TEXT
  8
_1-0_
 62
    7
 10
178.51925043469089
 20
138.67313116844713
 40
4.2999999999999998
 41
0.744186046511628
 50
0
  1
MS25-D
  0
ENDSEC
  0
EOF
