  0
SECTION
  2
HEADER
  9
$ACADVER
  1
AC1009
  9
$INSBASE
 10
0
 20
0
 30
0
  9
$EXTMIN
 10
0
 20
0
  9
$EXTMAX
 10
1189
 20
841
  9
$LIMMIN
 10
0
 20
0
  9
$LIMMAX
 10
1189
 20
841
  9
$LTSCALE
 40
1
  0
ENDSEC
  0
SECTION
  2
TABLES
  0
TABLE
  2
LTYPE
 70
     9
  0
LTYPE
  2
CONTINUOUS
 70
    64
  3
実線
 72
    65
 73
     0
 40
0.0
  0
LTYPE
  2
DASHED1
 70
    64
  3
--  --  --  --  --  --  --  --  
 72
    65
 73
     2
 40
2.5
 49
1.25
 49
-1.25
  0
LTYPE
  2
DASHED2
 70
    64
  3
----    ----    ----    ----    
 72
    65
 73
     2
 40
5.0
 49
2.5
 49
-2.5
  0
LTYPE
  2
DASHED3
 70
    64
  3
------  ------  ------  ------  
 72
    65
 73
     2
 40
5.0
 49
3.75
 49
-1.25
  0
LTYPE
  2
CENTER1
 70
    64
  3
----- - ----- - ----- - ----- - 
 72
    65
 73
     4
 40
10.0
 49
6.25
 49
-1.25
 49
1.25
 49
-1.25
  0
LTYPE
  2
CENTER2
 70
    64
  3
----------  --  ----------  --  
 72
    65
 73
     4
 40
20.0
 49
12.5
 49
-2.5
 49
2.5
 49
-2.5
  0
LTYPE
  2
PHANTOM1
 70
    64
  3
--- - - --- - - --- - - --- - - 
 72
    65
 73
     6
 40
10.0
 49
3.25
 49
-1.25
 49
1.25
 49
-1.25
 49
1.25
 49
-1.25
  0
LTYPE
  2
PHANTOM2
 70
    64
  3
--------  -  -  --------  -  -  
 72
    65
 73
     6
 40
20.0
 49
10.0
 49
-2.5
 49
1.25
 49
-2.5
 49
1.25
 49
-2.5
  0
LTYPE
  2
DOT
 70
    64
  3
-   -   -   -   -   -   -   -   
 72
    65
 73
     2
 40
2.5
 49
0.625
 49
-1.875
  0
LTYPE
  2
DUMMY
 70
    64
  3
ダミー
 72
    65
 73
     0
 40
0.0
  0
LTYPE
  2
RAND1
 70
    64
  3
ランダム線1
 72
    65
 73
     4
 40
10.0
 49
1.0
 49
-2.0
 49
3.0
 49
-4.0
  0
LTYPE
  2
RAND2
 70
    64
  3
ランダム線2
 72
    65
 73
     4
 40
14.0
 49
2.0
 49
-3.0
 49
4.0
 49
-5.0
  0
LTYPE
  2
RAND3
 70
    64
  3
ランダム線3
 72
    65
 73
     4
 40
18.0
 49
3.0
 49
-4.0
 49
5.0
 49
-6.0
  0
LTYPE
  2
RAND4
 70
    64
  3
ランダム線4
 72
    65
 73
     4
 40
22.0
 49
4.0
 49
-5.0
 49
6.0
 49
-7.0
  0
LTYPE
  2
RAND5
 70
    64
  3
ランダム線5
 72
    65
 73
     4
 40
26.0
 49
5.0
 49
-6.0
 49
7.0
 49
-8.0
  0
LTYPE
  2
LONG1
 70
    64
  3
----------  --  ----------  --  
 72
    65
 73
     4
 40
40.0
 49
32.5
 49
-2.5
 49
2.5
 49
-2.5
  0
LTYPE
  2
LONG2
 70
    64
  3
--------  -  -  --------  -  -  
 72
    65
 73
     6
 40
40.0
 49
30.0
 49
-2.5
 49
1.25
 49
-2.5
 49
1.25
 49
-2.5
  0
LTYPE
  2
LONG3
 70
    64
  3
+++++++++++++++..+++++++++++++++
 72
    65
 73
     2
 40
40.0
 49
37.5
 49
-2.5
  0
LTYPE
  2
LONG4
 70
    64
  3
+++++++++++++++..+++++++++++++++
 72
    65
 73
     2
 40
80.0
 49
75.0
 49
-5.0
  0
LTYPE
  2
LONG5
 70
    64
  3
----------  --  ----------  --  
 72
    65
 73
     4
 40
60.0
 49
37.5
 49
-7.5
 49
7.5
 49
-7.5
  0
LTYPE
  2
dashed
 70
   64
  3
-------   -------------   ------
 72
   65
 73
    2
 40
7.5
 49
6
 49
-1.5
  0
LTYPE
  2
dashed_spaced
 70
   64
  3
----        --------        ----
 72
   65
 73
    2
 40
12
 49
6
 49
-6
  0
LTYPE
  2
long_dashed_dotted
 70
   64
  3
------------- --- --------------
 72
   65
 73
    4
 40
15.25
 49
12
 49
-1.5
 49
0.25
 49
-1.5
  0
LTYPE
  2
long_dashed_double-dotted
 70
   64
  3
----------- --- --- ------------
 72
   65
 73
    6
 40
17
 49
12
 49
-1.5
 49
0.25
 49
-1.5
 49
0.25
 49
-1.5
  0
LTYPE
  2
long_dashed_triplicate-dotted
 70
   64
  3
--------- --- --- --- ----------
 72
   65
 73
    8
 40
18.75
 49
12
 49
-1.5
 49
0.25
 49
-1.5
 49
0.25
 49
-1.5
 49
0.25
 49
-1.5
  0
LTYPE
  2
dotted
 70
   64
  3
   -       -       -       -    
 72
   65
 73
    2
 40
1.75
 49
0.25
 49
-1.5
  0
LTYPE
  2
chain
 70
   64
  3
-------------- -- --------------
 72
   65
 73
    4
 40
18.5
 49
12
 49
-1.5
 49
3.5
 49
-1.5
  0
LTYPE
  2
chain_double_dash
 70
   64
  3
------------ -- -- -------------
 72
   65
 73
    6
 40
23.5
 49
12
 49
-1.5
 49
3.5
 49
-1.5
 49
3.5
 49
-1.5
  0
LTYPE
  2
dashed_dotted
 70
   64
  3
-----------     -     ----------
 72
   65
 73
    4
 40
9.25
 49
6
 49
-1.5
 49
0.25
 49
-1.5
  0
LTYPE
  2
double-dashed_dotted
 70
   64
  3
------   -----------   -   -----
 72
   65
 73
    6
 40
16.75
 49
6
 49
-1.5
 49
6
 49
-1.5
 49
0.25
 49
-1.5
  0
LTYPE
  2
dashed_double-dotted
 70
   64
  3
---------    -    -    ---------
 72
   65
 73
    6
 40
11
 49
6
 49
-1.5
 49
0.25
 49
-1.5
 49
0.25
 49
-1.5
  0
LTYPE
  2
double-dashed_double-dotted
 70
   64
  3
-----   ---------   -   -   ----
 72
   65
 73
    8
 40
18.5
 49
6
 49
-1.5
 49
6
 49
-1.5
 49
0.25
 49
-1.5
 49
0.25
 49
-1.5
  0
LTYPE
  2
dashed_triplicate-dotted
 70
   64
  3
-------    -    -    -    ------
 72
   65
 73
    8
 40
12.75
 49
6
 49
-1.5
 49
0.25
 49
-1.5
 49
0.25
 49
-1.5
 49
0.25
 49
-1.5
  0
LTYPE
  2
double-dashed_triplicate-dotted
 70
   64
  3
-----  ---------  -  -  -  -----
 72
   65
 73
   10
 40
20.25
 49
6
 49
-1.5
 49
6
 49
-1.5
 49
0.25
 49
-1.5
 49
0.25
 49
-1.5
 49
0.25
 49
-1.5
  0
LTYPE
  2
undefined
 70
   64
  3
--------------------------------
 72
   65
 73
    0
 40
0
  0
ENDTAB
  0
TABLE
  2
STYLE
  5
3
100
AcDbSymbolTable
 70
     1
  0
STYLE
  5
10
100
AcDbSymbolTableRecord
100
AcDbTextStyleTableRecord
  2
STANDARD
 70
     0
 40
0.0
 41
1.0
 50
0.0
 71
     0
 42
0.2
  3
txt
  4
bigfont.shx
  0
STYLE
  5
26
100
AcDbSymbolTableRecord
100
AcDbTextStyleTableRecord
  2
TATEGAKI
 70
    68
 40
0.0
 41
1.0
 50
0.0
 71
     0
 42
1.0
  3
txt
  4
bigfont.shx
  0
ENDTAB
  0
TABLE
  2
LAYER
 70
    6
  0
LAYER
  2
_0-0_
 70
   64
 62
    7
  6
CONTINUOUS
  0
LAYER
  2
_0-1_
 70
   64
 62
    7
  6
CONTINUOUS
  0
LAYER
  2
_0-2_
 70
   64
 62
    7
  6
CONTINUOUS
  0
LAYER
  2
_0-b_
 70
   64
 62
    7
  6
CONTINUOUS
  0
LAYER
  2
_0-e_
 70
   64
 62
    7
  6
CONTINUOUS
  0
LAYER
  2
ADD_LINE
 70
   64
 62
    7
  6
CONTINUOUS
  0
ENDTAB
  0
ENDSEC
  0
SECTION
  2
BLOCKS
  0
ENDSEC
  0
SECTION
  2
ENTITIES
  0
ARC
  8
_0-0_
  6
CONTINUOUS
 62
    7
 10
234.7786428891107
 20
88.36512836152508
 40
2.6000000000000227
 50
180
 51
0
  0
ARC
  8
_0-0_
  6
CONTINUOUS
 62
    7
 10
234.7786428891107
 20
95.165128361525149
 40
2.6000000000000227
 50
0
 51
180
  0
LINE
  8
_0-0_
  6
CONTINUOUS
 62
    7
 10
237.37864288911061
 20
95.165128361525149
 11
237.37864288911061
 21
88.36512836152508
  0
LINE
  8
_0-0_
  6
CONTINUOUS
 62
    7
 10
232.17864288911056
 20
95.165128361525149
 11
232.17864288911056
 21
88.36512836152508
  0
ARC
  8
_0-0_
  6
CONTINUOUS
 62
    7
 10
234.7786428891107
 20
95.165128361525035
 40
1.6000000000000227
 50
0.0000000000010177
 51
179.99999999999898
  0
LINE
  8
_0-0_
  6
CONTINUOUS
 62
    7
 10
233.17864288911056
 20
95.165128361525149
 11
233.17864288911056
 21
88.36512836152508
  0
LINE
  8
_0-0_
  6
CONTINUOUS
 62
    7
 10
236.37864288911061
 20
95.165128361525149
 11
236.37864288911061
 21
88.36512836152508
  0
ARC
  8
_0-0_
  6
CONTINUOUS
 62
    7
 10
234.7786428891107
 20
88.36512836152508
 40
1.6000000000000227
 50
270.28125895167864
 51
359.99999999999898
  0
ARC
  8
_0-0_
  6
CONTINUOUS
 62
    7
 10
234.7786428891107
 20
88.36512836152508
 40
1.6000000000000227
 50
180.00000000000105
 51
270.28125895167864
  0
ARC
  8
_0-0_
  6
CONTINUOUS
 62
    7
 10
269.77864288911059
 20
88.36512836152508
 40
2.6000000000000227
 50
180
 51
0
  0
ARC
  8
_0-0_
  6
CONTINUOUS
 62
    7
 10
269.77864288911059
 20
95.165128361525149
 40
2.6000000000000227
 50
0
 51
180
  0
LINE
  8
_0-0_
  6
CONTINUOUS
 62
    7
 10
267.17864288911056
 20
95.165128361525149
 11
267.17864288911056
 21
88.36512836152508
  0
LINE
  8
_0-0_
  6
CONTINUOUS
 62
    7
 10
272.37864288911061
 20
95.165128361525149
 11
272.37864288911061
 21
88.36512836152508
  0
ARC
  8
_0-0_
  6
CONTINUOUS
 62
    7
 10
269.77864288911059
 20
95.165128361525035
 40
1.6000000000000227
 50
0.0000000000010177
 51
179.99999999999898
  0
LINE
  8
_0-0_
  6
CONTINUOUS
 62
    7
 10
271.37864288911061
 20
95.165128361525149
 11
271.37864288911061
 21
88.36512836152508
  0
LINE
  8
_0-0_
  6
CONTINUOUS
 62
    7
 10
268.17864288911056
 20
95.165128361525149
 11
268.17864288911056
 21
88.36512836152508
  0
ARC
  8
_0-0_
  6
CONTINUOUS
 62
    7
 10
269.77864288911059
 20
88.36512836152508
 40
1.6000000000000227
 50
180.00000000000105
 51
269.71874104832131
  0
ARC
  8
_0-0_
  6
CONTINUOUS
 62
    7
 10
269.77864288911059
 20
88.36512836152508
 40
1.6000000000000227
 50
269.71874104832136
 51
359.99999999999903
  0
LINE
  8
_0-0_
  6
CONTINUOUS
 62
    7
 10
265.77864288911059
 20
100.76512836152506
 11
265.77864288911059
 21
82.765128361525058
  0
LINE
  8
_0-0_
  6
CONTINUOUS
 62
    7
 10
238.77864288911059
 20
100.76512836152506
 11
238.77864288911059
 21
82.765128361525058
  0
LINE
  8
_0-0_
  6
CONTINUOUS
 62
    7
 10
275.27864288911059
 20
83.765128361525058
 11
275.27864288911059
 21
99.765128361525058
  0
ARC
  8
_0-0_
  6
CONTINUOUS
 62
    7
 10
274.27864288911059
 20
99.765128361525058
 40
1
 50
0
 51
90
  0
LINE
  8
_0-0_
  6
CONTINUOUS
 62
    7
 10
274.27864288911059
 20
100.76512836152506
 11
230.27864288911059
 21
100.76512836152506
  0
LINE
  8
_0-0_
  6
CONTINUOUS
 62
    7
 10
229.27864288911059
 20
83.765128361525058
 11
229.27864288911059
 21
99.765128361525058
  0
ARC
  8
_0-0_
  6
CONTINUOUS
 62
    7
 10
230.27864288911059
 20
99.765128361525058
 40
1
 50
90
 51
180
  0
LINE
  8
_0-0_
  6
CONTINUOUS
 62
    7
 10
242.27864288911059
 20
80.765128361525058
 11
262.27864288911059
 21
80.765128361525058
  0
LINE
  8
_0-0_
  6
CONTINUOUS
 62
    7
 10
262.27864288911059
 20
82.765128361525058
 11
262.27864288911059
 21
80.765128361525058
  0
LINE
  8
_0-0_
  6
CONTINUOUS
 62
    7
 10
242.27864288911059
 20
82.765128361525058
 11
242.27864288911059
 21
80.765128361525058
  0
LINE
  8
_0-0_
  6
CONTINUOUS
 62
    7
 10
242.27864288911059
 20
42.493097304917683
 11
262.27864288911059
 21
42.493097304917683
  0
LINE
  8
_0-0_
  6
CONTINUOUS
 62
    7
 10
242.27864288911059
 20
50.493097304917683
 11
262.27864288911059
 21
50.493097304917683
  0
LINE
  8
_0-0_
  6
CONTINUOUS
 62
    7
 10
242.27864288911059
 20
43.493097304917683
 11
262.27864288911059
 21
43.493097304917683
  0
LINE
  8
_0-0_
  6
CONTINUOUS
 62
    7
 10
242.27864288911059
 20
44.493097304917683
 11
262.27864288911059
 21
44.493097304917683
  0
LINE
  8
_0-0_
  6
CONTINUOUS
 62
    7
 10
242.27864288911059
 20
48.493097304917683
 11
262.27864288911059
 21
48.493097304917683
  0
LINE
  8
_0-0_
  6
CONTINUOUS
 62
    7
 10
242.27864288911059
 20
49.493097304917683
 11
262.27864288911059
 21
49.493097304917683
  0
LINE
  8
_0-0_
  6
CONTINUOUS
 62
    7
 10
262.27864288911059
 20
44.493097304917683
 11
262.27864288911059
 21
42.493097304917683
  0
LINE
  8
_0-0_
  6
CONTINUOUS
 62
    7
 10
262.27864288911059
 20
50.493097304917683
 11
262.27864288911059
 21
48.493097304917683
  0
LINE
  8
_0-0_
  6
CONTINUOUS
 62
    7
 10
242.27864288911059
 20
44.493097304917683
 11
242.27864288911059
 21
42.493097304917683
  0
LINE
  8
_0-0_
  6
CONTINUOUS
 62
    7
 10
242.27864288911059
 20
50.493097304917683
 11
242.27864288911059
 21
48.493097304917683
  0
LINE
  8
_0-0_
  6
CONTINUOUS
 62
    7
 10
265.77864288911059
 20
44.693097304917728
 11
265.77864288911059
 21
53.293097304917751
  0
LINE
  8
_0-0_
  6
CONTINUOUS
 62
    7
 10
275.0786428891106
 20
44.493097304917683
 11
265.97864288911057
 21
44.493097304917683
  0
ARC
  8
_0-0_
  6
CONTINUOUS
 62
    7
 10
265.97864288911057
 20
44.693097304917728
 40
0.2
 50
180
 51
270
  0
ARC
  8
_0-0_
  6
CONTINUOUS
 62
    7
 10
275.0786428891106
 20
44.293097304917751
 40
0.2
 50
0
 51
90
  0
LINE
  8
_0-0_
  6
CONTINUOUS
 62
    7
 10
275.27864288911059
 20
44.293097304917751
 11
275.27864288911059
 21
40.493097304917683
  0
LINE
  8
_0-0_
  6
CONTINUOUS
 62
    7
 10
238.77864288911059
 20
44.693097304917728
 11
238.77864288911059
 21
53.293097304917751
  0
LINE
  8
_0-0_
  6
CONTINUOUS
 62
    7
 10
229.47864288911063
 20
44.493097304917683
 11
238.57864288911054
 21
44.493097304917683
  0
ARC
  8
_0-0_
  6
CONTINUOUS
 62
    7
 10
238.57864288911054
 20
44.693097304917728
 40
0.2
 50
270
 51
0
  0
ARC
  8
_0-0_
  6
CONTINUOUS
 62
    7
 10
229.47864288911063
 20
44.293097304917751
 40
0.2
 50
90
 51
180
  0
LINE
  8
_0-0_
  6
CONTINUOUS
 62
    7
 10
229.27864288911059
 20
44.293097304917751
 11
229.27864288911059
 21
40.493097304917683
  0
LINE
  8
_0-0_
  6
CONTINUOUS
 62
    7
 10
265.5786428891106
 20
53.493097304917683
 11
238.97864288911063
 21
53.493097304917683
  0
ARC
  8
_0-0_
  6
CONTINUOUS
 62
    7
 10
265.5786428891106
 20
53.293097304917751
 40
0.2
 50
0
 51
90
  0
ARC
  8
_0-0_
  6
CONTINUOUS
 62
    7
 10
238.97864288911063
 20
53.293097304917751
 40
0.2
 50
90
 51
180
  0
LINE
  8
_0-0_
  6
CONTINUOUS
 62
    7
 10
229.27864288911059
 20
40.493097304917683
 11
275.27864288911059
 21
40.493097304917683
  0
ARC
  8
_0-0_
  6
CONTINUOUS
 62
    7
 10
274.27864288911059
 20
83.765128361525058
 40
1
 50
270
 51
0
  0
LINE
  8
_0-0_
  6
CONTINUOUS
 62
    7
 10
274.27864288911059
 20
82.765128361525058
 11
230.27864288911059
 21
82.765128361525058
  0
ARC
  8
_0-0_
  6
CONTINUOUS
 62
    7
 10
230.27864288911059
 20
83.765128361525058
 40
1
 50
180
 51
270
  0
LINE
  8
_0-0_
  6
CONTINUOUS
 62
    7
 10
24.27699128858626
 20
127.97137353756568
 11
74.27699128858626
 21
127.97137353756568
  0
LINE
  8
_0-0_
  6
CONTINUOUS
 62
    7
 10
24.27699128858626
 20
127.97137353756568
 11
24.27699128858626
 21
95.471373537565682
  0
LINE
  8
_0-0_
  6
CONTINUOUS
 62
    7
 10
74.27699128858626
 20
127.97137353756568
 11
74.27699128858626
 21
95.471373537565682
  0
LINE
  8
_0-0_
  6
CONTINUOUS
 62
    7
 10
24.27699128858626
 20
95.471373537565682
 11
74.27699128858626
 21
95.471373537565682
  0
LINE
  8
_0-0_
  6
CONTINUOUS
 62
    7
 10
24.27699128858626
 20
59.98880289756562
 11
24.27699128858626
 21
44.688802897565608
  0
LINE
  8
_0-0_
  6
CONTINUOUS
 62
    7
 10
24.27699128858626
 20
59.98880289756562
 11
74.27699128858626
 21
59.98880289756562
  0
LINE
  8
_0-0_
  6
CONTINUOUS
 62
    7
 10
74.27699128858626
 20
59.98880289756562
 11
74.27699128858626
 21
44.688802897565608
  0
LINE
  8
_0-0_
  6
CONTINUOUS
 62
    7
 10
24.27699128858626
 20
51.488762896965625
 11
44.27699128858626
 21
51.488762896965625
  0
LINE
  8
_0-0_
  6
CONTINUOUS
 62
    7
 10
54.27699128858626
 20
51.488762896965625
 11
74.27699128858626
 21
51.488762896965625
  0
LINE
  8
_0-0_
  6
CONTINUOUS
 62
    7
 10
44.27699128858626
 20
51.488762896965625
 11
44.27699128858626
 21
45.688762896965613
  0
LINE
  8
_0-0_
  6
CONTINUOUS
 62
    7
 10
54.27699128858626
 20
51.488762896965625
 11
54.27699128858626
 21
45.688762896965613
  0
LINE
  8
_0-0_
  6
CONTINUOUS
 62
    7
 10
24.27699128858626
 20
45.688762896965613
 11
44.27699128858626
 21
45.688762896965613
  0
LINE
  8
_0-0_
  6
CONTINUOUS
 62
    7
 10
54.27699128858626
 20
45.688762896965613
 11
74.27699128858626
 21
45.688762896965613
  0
LINE
  8
_0-0_
  6
CONTINUOUS
 62
    7
 10
65.77699128858626
 20
42.988762896965341
 11
65.77699128858626
 21
45.688762896965613
  0
LINE
  8
_0-0_
  6
CONTINUOUS
 62
    7
 10
65.27699128858626
 20
42.488762896965341
 11
65.77699128858626
 21
42.988762896965341
  0
LINE
  8
_0-0_
  6
CONTINUOUS
 62
    7
 10
62.77699128858626
 20
42.988762896965341
 11
63.27699128858626
 21
42.488762896965341
  0
LINE
  8
_0-0_
  6
CONTINUOUS
 62
    7
 10
63.27699128858626
 20
42.488762896965341
 11
65.27699128858626
 21
42.488762896965341
  0
LINE
  8
_0-0_
  6
CONTINUOUS
 62
    7
 10
62.77699128858626
 20
42.988762896965341
 11
62.77699128858626
 21
45.688762896965613
  0
LINE
  8
_0-0_
  6
CONTINUOUS
 62
    7
 10
35.77699128858626
 20
42.988762896965341
 11
35.77699128858626
 21
45.688762896965613
  0
LINE
  8
_0-0_
  6
CONTINUOUS
 62
    7
 10
35.27699128858626
 20
42.488762896965341
 11
35.77699128858626
 21
42.988762896965341
  0
LINE
  8
_0-0_
  6
CONTINUOUS
 62
    7
 10
32.77699128858626
 20
42.988762896965341
 11
33.27699128858626
 21
42.488762896965341
  0
LINE
  8
_0-0_
  6
CONTINUOUS
 62
    7
 10
33.27699128858626
 20
42.488762896965341
 11
35.27699128858626
 21
42.488762896965341
  0
LINE
  8
_0-0_
  6
CONTINUOUS
 62
    7
 10
32.77699128858626
 20
42.988762896965341
 11
32.77699128858626
 21
45.688762896965613
  0
LINE
  8
_0-0_
  6
CONTINUOUS
 62
    7
 10
24.27699128858626
 20
44.688802897565608
 11
32.77699128858626
 21
44.688802897565608
  0
LINE
  8
_0-0_
  6
CONTINUOUS
 62
    7
 10
35.77699128858626
 20
44.688802897565608
 11
62.77699128858626
 21
44.688802897565608
  0
LINE
  8
_0-0_
  6
CONTINUOUS
 62
    7
 10
65.77699128858626
 20
44.688802897565608
 11
74.27699128858626
 21
44.688802897565608
  0
LINE
  8
_0-0_
  6
CONTINUOUS
 62
    7
 10
126.06892870121743
 20
42.988762896948401
 11
126.06892870121743
 21
45.688762896948674
  0
LINE
  8
_0-0_
  6
CONTINUOUS
 62
    7
 10
126.36892870121716
 20
45.688762896948674
 11
120.37794870121758
 21
45.688762896948674
  0
LINE
  8
_0-0_
  6
CONTINUOUS
 62
    7
 10
119.93072870121756
 20
46.412372896948682
 11
122.3307287012172
 21
51.212372896948409
  0
LINE
  8
_0-0_
  6
CONTINUOUS
 62
    7
 10
122.77794870121721
 20
51.488762896948401
 11
123.43489870121726
 21
51.488762896948401
  0
LINE
  8
_0-0_
  6
CONTINUOUS
 62
    7
 10
123.68487870121686
 20
51.421792896948546
 11
124.31892870121743
 21
51.055752896948661
  0
LINE
  8
_0-0_
  6
CONTINUOUS
 62
    7
 10
124.81891870121723
 20
51.055772896948611
 11
125.45283870121744
 21
51.421772896948596
  0
LINE
  8
_0-0_
  6
CONTINUOUS
 62
    7
 10
125.70284870121719
 20
51.488762896948401
 11
126.36892870121716
 21
51.488762896948401
  0
LINE
  8
_0-0_
  6
CONTINUOUS
 62
    7
 10
125.56892870121743
 20
42.488762896948401
 11
126.06892870121743
 21
42.988762896948401
  0
LINE
  8
_0-0_
  6
CONTINUOUS
 62
    7
 10
123.06892870121743
 20
42.988762896948401
 11
123.56892870121743
 21
42.488762896948401
  0
LINE
  8
_0-0_
  6
CONTINUOUS
 62
    7
 10
123.56892870121743
 20
42.488762896948401
 11
125.56892870121743
 21
42.488762896948401
  0
LINE
  8
_0-0_
  6
CONTINUOUS
 62
    7
 10
126.86892870121761
 20
46.188762896948674
 11
126.86892870121761
 21
59.4888028969483
  0
LINE
  8
_0-0_
  6
CONTINUOUS
 62
    7
 10
127.36892870121761
 20
59.9888028969483
 11
129.96892870121775
 21
59.9888028969483
  0
LINE
  8
_0-0_
  6
CONTINUOUS
 62
    7
 10
145.36893870125556
 20
59.9888028969483
 11
141.2689287012177
 21
59.9888028969483
  0
LINE
  8
_0-0_
  6
CONTINUOUS
 62
    7
 10
140.96892870121775
 20
59.688802896948118
 11
140.96892870121775
 21
58.788802896948027
  0
LINE
  8
_0-0_
  6
CONTINUOUS
 62
    7
 10
141.2689287012177
 20
58.4888028969483
 11
141.86892870121761
 21
58.4888028969483
  0
LINE
  8
_0-0_
  6
CONTINUOUS
 62
    7
 10
142.16892870121779
 20
58.188802896948118
 11
142.16892870121779
 21
55.9888028969483
  0
LINE
  8
_0-0_
  6
CONTINUOUS
 62
    7
 10
141.86892870121761
 20
55.688802896948118
 11
141.2689287012177
 21
55.688802896948118
  0
LINE
  8
_0-0_
  6
CONTINUOUS
 62
    7
 10
140.96892870121775
 20
55.388802896947936
 11
140.96892870121775
 21
54.588802896948209
  0
LINE
  8
_0-0_
  6
CONTINUOUS
 62
    7
 10
140.66892870121779
 20
54.288802896948027
 11
138.06892870121789
 21
54.288802896948027
  0
LINE
  8
_0-0_
  6
CONTINUOUS
 62
    7
 10
137.7689287012177
 20
54.588802896948209
 11
137.7689287012177
 21
55.388802896947936
  0
LINE
  8
_0-0_
  6
CONTINUOUS
 62
    7
 10
137.46892870121775
 20
55.688802896948118
 11
136.86892870121761
 21
55.688802896948118
  0
LINE
  8
_0-0_
  6
CONTINUOUS
 62
    7
 10
136.56892870121789
 20
55.9888028969483
 11
136.56892870121789
 21
58.188802896948118
  0
LINE
  8
_0-0_
  6
CONTINUOUS
 62
    7
 10
136.86892870121761
 20
58.4888028969483
 11
137.46892870121775
 21
58.4888028969483
  0
LINE
  8
_0-0_
  6
CONTINUOUS
 62
    7
 10
137.7689287012177
 20
58.788802896948027
 11
137.7689287012177
 21
59.688802896948118
  0
LINE
  8
_0-0_
  6
CONTINUOUS
 62
    7
 10
137.46892870121775
 20
59.9888028969483
 11
133.7689287012177
 21
59.9888028969483
  0
LINE
  8
_0-0_
  6
CONTINUOUS
 62
    7
 10
133.46892870121775
 20
59.688802896948118
 11
133.46892870121775
 21
58.788802896948027
  0
LINE
  8
_0-0_
  6
CONTINUOUS
 62
    7
 10
133.7689287012177
 20
58.4888028969483
 11
134.36892870121761
 21
58.4888028969483
  0
LINE
  8
_0-0_
  6
CONTINUOUS
 62
    7
 10
134.66892870121779
 20
58.188802896948118
 11
134.66892870121779
 21
55.9888028969483
  0
LINE
  8
_0-0_
  6
CONTINUOUS
 62
    7
 10
134.36892870121761
 20
55.688802896948118
 11
133.7689287012177
 21
55.688802896948118
  0
LINE
  8
_0-0_
  6
CONTINUOUS
 62
    7
 10
133.46892870121775
 20
55.388802896947936
 11
133.46892870121775
 21
54.588802896948209
  0
LINE
  8
_0-0_
  6
CONTINUOUS
 62
    7
 10
133.16892870121779
 20
54.288802896948027
 11
130.56892870121789
 21
54.288802896948027
  0
LINE
  8
_0-0_
  6
CONTINUOUS
 62
    7
 10
130.2689287012177
 20
54.588802896948209
 11
130.2689287012177
 21
55.388802896947936
  0
LINE
  8
_0-0_
  6
CONTINUOUS
 62
    7
 10
129.96892870121775
 20
55.688802896948118
 11
129.36892870121761
 21
55.688802896948118
  0
LINE
  8
_0-0_
  6
CONTINUOUS
 62
    7
 10
129.06892870121789
 20
55.9888028969483
 11
129.06892870121789
 21
58.188802896948118
  0
LINE
  8
_0-0_
  6
CONTINUOUS
 62
    7
 10
129.36892870121761
 20
58.4888028969483
 11
129.96892870121775
 21
58.4888028969483
  0
LINE
  8
_0-0_
  6
CONTINUOUS
 62
    7
 10
130.2689287012177
 20
58.788802896948027
 11
130.2689287012177
 21
59.688802896948118
  0
LINE
  8
_0-0_
  6
CONTINUOUS
 62
    7
 10
131.96892870121775
 20
51.9888028969483
 11
131.96892870121775
 21
49.188802896948118
  0
LINE
  8
_0-0_
  6
CONTINUOUS
 62
    7
 10
132.46892870121775
 20
48.688802896948118
 11
133.16182192003117
 21
48.688802896948118
  0
LINE
  8
_0-0_
  6
CONTINUOUS
 62
    7
 10
133.51537531062451
 20
48.542356287541452
 11
134.72248209181095
 21
47.335249506354785
  0
LINE
  8
_0-0_
  6
CONTINUOUS
 62
    7
 10
134.86892870121761
 20
46.981696115761451
 11
134.86892870121761
 21
45.188802896948118
  0
LINE
  8
_0-0_
  6
CONTINUOUS
 62
    7
 10
134.36892870121761
 20
44.688802896948118
 11
129.07603548240428
 21
44.688802896948118
  0
LINE
  8
_0-0_
  6
CONTINUOUS
 62
    7
 10
128.72248209181095
 20
44.835249506354785
 11
127.01537531062451
 21
46.542356287541452
  0
LINE
  8
_0-0_
  6
CONTINUOUS
 62
    7
 10
123.06892870121743
 20
42.988762896948401
 11
123.06892870121743
 21
45.688762896948674
  0
LINE
  8
_0-0_
  6
CONTINUOUS
 62
    7
 10
132.46892870121775
 20
52.4888028969483
 11
158.86892870121761
 21
52.4888028969483
  0
LINE
  8
_0-0_
  6
CONTINUOUS
 62
    7
 10
159.36892870121761
 20
52.9888028969483
 11
159.36892870121761
 21
59.4888028969483
  0
LINE
  8
_0-0_
  6
CONTINUOUS
 62
    7
 10
158.86892870121761
 20
59.9888028969483
 11
156.2689287012177
 21
59.9888028969483
  0
LINE
  8
_0-0_
  6
CONTINUOUS
 62
    7
 10
155.96892870121775
 20
59.688802896948118
 11
155.96892870121775
 21
58.788802896948027
  0
LINE
  8
_0-0_
  6
CONTINUOUS
 62
    7
 10
156.2689287012177
 20
58.4888028969483
 11
156.86892870121761
 21
58.4888028969483
  0
LINE
  8
_0-0_
  6
CONTINUOUS
 62
    7
 10
157.16892870121779
 20
58.188802896948118
 11
157.16892870121779
 21
55.9888028969483
  0
LINE
  8
_0-0_
  6
CONTINUOUS
 62
    7
 10
156.86892870121761
 20
55.688802896948118
 11
156.2689287012177
 21
55.688802896948118
  0
LINE
  8
_0-0_
  6
CONTINUOUS
 62
    7
 10
155.96892870121775
 20
55.388802896947936
 11
155.96892870121775
 21
54.588802896948209
  0
LINE
  8
_0-0_
  6
CONTINUOUS
 62
    7
 10
155.66892870121779
 20
54.288802896948027
 11
153.06892870121789
 21
54.288802896948027
  0
LINE
  8
_0-0_
  6
CONTINUOUS
 62
    7
 10
152.7689287012177
 20
54.588802896948209
 11
152.7689287012177
 21
55.388802896947936
  0
LINE
  8
_0-0_
  6
CONTINUOUS
 62
    7
 10
152.46892870121775
 20
55.688802896948118
 11
151.86892870121761
 21
55.688802896948118
  0
LINE
  8
_0-0_
  6
CONTINUOUS
 62
    7
 10
151.56892870121789
 20
55.9888028969483
 11
151.56892870121789
 21
58.188802896948118
  0
LINE
  8
_0-0_
  6
CONTINUOUS
 62
    7
 10
151.86892870121761
 20
58.4888028969483
 11
152.46892870121775
 21
58.4888028969483
  0
LINE
  8
_0-0_
  6
CONTINUOUS
 62
    7
 10
152.7689287012177
 20
58.788802896948027
 11
152.7689287012177
 21
59.688802896948118
  0
LINE
  8
_0-0_
  6
CONTINUOUS
 62
    7
 10
152.46892870121775
 20
59.9888028969483
 11
148.7689287012177
 21
59.9888028969483
  0
LINE
  8
_0-0_
  6
CONTINUOUS
 62
    7
 10
148.46892870121775
 20
59.688802896948118
 11
148.46892870121775
 21
58.788802896948027
  0
LINE
  8
_0-0_
  6
CONTINUOUS
 62
    7
 10
148.7689287012177
 20
58.4888028969483
 11
149.36892870121761
 21
58.4888028969483
  0
LINE
  8
_0-0_
  6
CONTINUOUS
 62
    7
 10
149.66892870121779
 20
58.188802896948118
 11
149.66892870121779
 21
55.9888028969483
  0
LINE
  8
_0-0_
  6
CONTINUOUS
 62
    7
 10
149.36892870121761
 20
55.688802896948118
 11
148.7689287012177
 21
55.688802896948118
  0
LINE
  8
_0-0_
  6
CONTINUOUS
 62
    7
 10
148.46892870121775
 20
55.388802896947936
 11
148.46892870121775
 21
54.588802896948209
  0
LINE
  8
_0-0_
  6
CONTINUOUS
 62
    7
 10
148.16892870121779
 20
54.288802896948027
 11
145.56892870121789
 21
54.288802896948027
  0
LINE
  8
_0-0_
  6
CONTINUOUS
 62
    7
 10
145.2689287012177
 20
54.588802896948209
 11
145.2689287012177
 21
55.388802896947936
  0
LINE
  8
_0-0_
  6
CONTINUOUS
 62
    7
 10
144.96892870121775
 20
55.688802896948118
 11
144.36892870121761
 21
55.688802896948118
  0
LINE
  8
_0-0_
  6
CONTINUOUS
 62
    7
 10
144.06892870121789
 20
55.9888028969483
 11
144.06892870121789
 21
58.188802896948118
  0
LINE
  8
_0-0_
  6
CONTINUOUS
 62
    7
 10
144.36892870121761
 20
58.4888028969483
 11
144.96892870121775
 21
58.4888028969483
  0
LINE
  8
_0-0_
  6
CONTINUOUS
 62
    7
 10
145.2689287012177
 20
58.788802896948027
 11
145.2689287012177
 21
59.688802896948118
  0
ARC
  8
_0-0_
  6
CONTINUOUS
 62
    7
 10
129.96892870121775
 20
59.688802896948118
 40
0.2999999999999998
 50
0
 51
90
  0
ARC
  8
_0-0_
  6
CONTINUOUS
 62
    7
 10
129.96892870121775
 20
58.788802896948027
 40
0.2999999999999998
 50
270
 51
0
  0
ARC
  8
_0-0_
  6
CONTINUOUS
 62
    7
 10
129.36892870121761
 20
58.188802896948118
 40
0.2999999999999998
 50
90
 51
180
  0
ARC
  8
_0-0_
  6
CONTINUOUS
 62
    7
 10
129.36892870121761
 20
55.9888028969483
 40
0.2999999999999998
 50
180
 51
270
  0
ARC
  8
_0-0_
  6
CONTINUOUS
 62
    7
 10
129.96892870121775
 20
55.388802896947936
 40
0.2999999999999998
 50
0
 51
90
  0
ARC
  8
_0-0_
  6
CONTINUOUS
 62
    7
 10
130.56892870121789
 20
54.588802896948209
 40
0.2999999999999998
 50
180
 51
270
  0
ARC
  8
_0-0_
  6
CONTINUOUS
 62
    7
 10
133.16892870121779
 20
54.588802896948209
 40
0.2999999999999998
 50
270
 51
0
  0
ARC
  8
_0-0_
  6
CONTINUOUS
 62
    7
 10
133.7689287012177
 20
55.388802896947936
 40
0.2999999999999998
 50
90
 51
180
  0
ARC
  8
_0-0_
  6
CONTINUOUS
 62
    7
 10
134.36892870121761
 20
55.9888028969483
 40
0.2999999999999998
 50
270
 51
0
  0
ARC
  8
_0-0_
  6
CONTINUOUS
 62
    7
 10
134.36892870121761
 20
58.188802896948118
 40
0.2999999999999998
 50
0
 51
90.000000000000028
  0
ARC
  8
_0-0_
  6
CONTINUOUS
 62
    7
 10
133.7689287012177
 20
58.788802896948027
 40
0.2999999999999998
 50
180
 51
270
  0
ARC
  8
_0-0_
  6
CONTINUOUS
 62
    7
 10
133.7689287012177
 20
59.688802896948118
 40
0.2999999999999998
 50
90
 51
180
  0
ARC
  8
_0-0_
  6
CONTINUOUS
 62
    7
 10
127.36892870121761
 20
59.4888028969483
 40
0.5
 50
90
 51
180
  0
ARC
  8
_0-0_
  6
CONTINUOUS
 62
    7
 10
137.46892870121775
 20
59.688802896948118
 40
0.2999999999999998
 50
0
 51
90
  0
ARC
  8
_0-0_
  6
CONTINUOUS
 62
    7
 10
137.46892870121775
 20
58.788802896948027
 40
0.2999999999999998
 50
270
 51
0
  0
ARC
  8
_0-0_
  6
CONTINUOUS
 62
    7
 10
136.86892870121761
 20
58.188802896948118
 40
0.2999999999999998
 50
90
 51
180
  0
ARC
  8
_0-0_
  6
CONTINUOUS
 62
    7
 10
136.86892870121761
 20
55.9888028969483
 40
0.2999999999999998
 50
180
 51
270
  0
ARC
  8
_0-0_
  6
CONTINUOUS
 62
    7
 10
137.46892870121775
 20
55.388802896947936
 40
0.2999999999999998
 50
0
 51
90
  0
ARC
  8
_0-0_
  6
CONTINUOUS
 62
    7
 10
138.06892870121789
 20
54.588802896948209
 40
0.2999999999999998
 50
180
 51
270
  0
ARC
  8
_0-0_
  6
CONTINUOUS
 62
    7
 10
140.66892870121779
 20
54.588802896948209
 40
0.2999999999999998
 50
270
 51
0
  0
ARC
  8
_0-0_
  6
CONTINUOUS
 62
    7
 10
141.2689287012177
 20
55.388802896947936
 40
0.2999999999999998
 50
90
 51
180
  0
ARC
  8
_0-0_
  6
CONTINUOUS
 62
    7
 10
141.86892870121761
 20
55.9888028969483
 40
0.2999999999999998
 50
270
 51
0
  0
ARC
  8
_0-0_
  6
CONTINUOUS
 62
    7
 10
141.86892870121761
 20
58.188802896948118
 40
0.2999999999999998
 50
0
 51
90.000000000000028
  0
ARC
  8
_0-0_
  6
CONTINUOUS
 62
    7
 10
141.2689287012177
 20
58.788802896948027
 40
0.2999999999999998
 50
180
 51
270
  0
ARC
  8
_0-0_
  6
CONTINUOUS
 62
    7
 10
141.2689287012177
 20
59.688802896948118
 40
0.2999999999999998
 50
90
 51
180
  0
ARC
  8
_0-0_
  6
CONTINUOUS
 62
    7
 10
144.96892870121775
 20
59.688802896948118
 40
0.2999999999999998
 50
0
 51
90
  0
ARC
  8
_0-0_
  6
CONTINUOUS
 62
    7
 10
144.96892870121775
 20
58.788802896948027
 40
0.2999999999999998
 50
270
 51
0
  0
ARC
  8
_0-0_
  6
CONTINUOUS
 62
    7
 10
144.36892870121761
 20
58.188802896948118
 40
0.2999999999999998
 50
90
 51
180
  0
ARC
  8
_0-0_
  6
CONTINUOUS
 62
    7
 10
144.36892870121761
 20
55.9888028969483
 40
0.2999999999999998
 50
180
 51
270
  0
ARC
  8
_0-0_
  6
CONTINUOUS
 62
    7
 10
144.96892870121775
 20
55.388802896947936
 40
0.2999999999999998
 50
0
 51
90
  0
ARC
  8
_0-0_
  6
CONTINUOUS
 62
    7
 10
145.56892870121789
 20
54.588802896948209
 40
0.2999999999999998
 50
180
 51
270
  0
ARC
  8
_0-0_
  6
CONTINUOUS
 62
    7
 10
148.16892870121779
 20
54.588802896948209
 40
0.2999999999999998
 50
270
 51
0
  0
ARC
  8
_0-0_
  6
CONTINUOUS
 62
    7
 10
148.7689287012177
 20
55.388802896947936
 40
0.2999999999999998
 50
90
 51
180
  0
ARC
  8
_0-0_
  6
CONTINUOUS
 62
    7
 10
149.36892870121761
 20
55.9888028969483
 40
0.2999999999999998
 50
270
 51
0
  0
ARC
  8
_0-0_
  6
CONTINUOUS
 62
    7
 10
149.36892870121761
 20
58.188802896948118
 40
0.2999999999999998
 50
0
 51
90.000000000000028
  0
ARC
  8
_0-0_
  6
CONTINUOUS
 62
    7
 10
148.7689287012177
 20
58.788802896948027
 40
0.2999999999999998
 50
180
 51
270
  0
ARC
  8
_0-0_
  6
CONTINUOUS
 62
    7
 10
148.7689287012177
 20
59.688802896948118
 40
0.2999999999999998
 50
90
 51
180
  0
ARC
  8
_0-0_
  6
CONTINUOUS
 62
    7
 10
152.46892870121775
 20
59.688802896948118
 40
0.2999999999999998
 50
0
 51
90
  0
ARC
  8
_0-0_
  6
CONTINUOUS
 62
    7
 10
152.46892870121775
 20
58.788802896948027
 40
0.2999999999999998
 50
270
 51
0
  0
ARC
  8
_0-0_
  6
CONTINUOUS
 62
    7
 10
151.86892870121761
 20
58.188802896948118
 40
0.2999999999999998
 50
90
 51
180
  0
ARC
  8
_0-0_
  6
CONTINUOUS
 62
    7
 10
151.86892870121761
 20
55.9888028969483
 40
0.2999999999999998
 50
180
 51
270
  0
ARC
  8
_0-0_
  6
CONTINUOUS
 62
    7
 10
152.46892870121775
 20
55.388802896947936
 40
0.2999999999999998
 50
0
 51
90
  0
ARC
  8
_0-0_
  6
CONTINUOUS
 62
    7
 10
153.06892870121789
 20
54.588802896948209
 40
0.2999999999999998
 50
180
 51
270
  0
ARC
  8
_0-0_
  6
CONTINUOUS
 62
    7
 10
155.66892870121779
 20
54.588802896948209
 40
0.2999999999999998
 50
270
 51
0
  0
ARC
  8
_0-0_
  6
CONTINUOUS
 62
    7
 10
156.2689287012177
 20
55.388802896947936
 40
0.2999999999999998
 50
90
 51
180
  0
ARC
  8
_0-0_
  6
CONTINUOUS
 62
    7
 10
156.86892870121761
 20
55.9888028969483
 40
0.2999999999999998
 50
270
 51
0
  0
ARC
  8
_0-0_
  6
CONTINUOUS
 62
    7
 10
156.86892870121761
 20
58.188802896948118
 40
0.2999999999999998
 50
0
 51
90.000000000000028
  0
ARC
  8
_0-0_
  6
CONTINUOUS
 62
    7
 10
156.2689287012177
 20
58.788802896948027
 40
0.2999999999999998
 50
180
 51
270
  0
ARC
  8
_0-0_
  6
CONTINUOUS
 62
    7
 10
156.2689287012177
 20
59.688802896948118
 40
0.2999999999999998
 50
90
 51
180
  0
ARC
  8
_0-0_
  6
CONTINUOUS
 62
    7
 10
127.36892870121761
 20
46.895909678134785
 40
0.5
 50
180
 51
225
  0
ARC
  8
_0-0_
  6
CONTINUOUS
 62
    7
 10
129.07603548240428
 20
45.188802896948118
 40
0.5
 50
225.00000000000006
 51
270
  0
ARC
  8
_0-0_
  6
CONTINUOUS
 62
    7
 10
134.36892870121761
 20
45.188802896948118
 40
0.5
 50
270
 51
0
  0
ARC
  8
_0-0_
  6
CONTINUOUS
 62
    7
 10
134.36892870121761
 20
46.981696115761451
 40
0.5
 50
0
 51
45
  0
ARC
  8
_0-0_
  6
CONTINUOUS
 62
    7
 10
133.16182192003117
 20
48.188802896948118
 40
0.5
 50
45.00000000000005
 51
90
  0
ARC
  8
_0-0_
  6
CONTINUOUS
 62
    7
 10
132.46892870121775
 20
49.188802896948118
 40
0.5
 50
180
 51
270
  0
ARC
  8
_0-0_
  6
CONTINUOUS
 62
    7
 10
132.46892870121775
 20
51.9888028969483
 40
0.5
 50
90
 51
180
  0
ARC
  8
_0-0_
  6
CONTINUOUS
 62
    7
 10
158.86892870121761
 20
59.4888028969483
 40
0.5
 50
0
 51
90
  0
ARC
  8
_0-0_
  6
CONTINUOUS
 62
    7
 10
158.86892870121761
 20
52.9888028969483
 40
0.5
 50
270
 51
0
  0
ARC
  8
_0-0_
  6
CONTINUOUS
 62
    7
 10
120.37794870121758
 20
46.188762896948674
 40
0.5
 50
153.43494799999996
 51
270
  0
ARC
  8
_0-0_
  6
CONTINUOUS
 62
    7
 10
126.36892870121716
 20
46.188762896948674
 40
0.5
 50
270
 51
0
  0
ARC
  8
_0-0_
  6
CONTINUOUS
 62
    7
 10
126.36892870121716
 20
50.988762896948401
 40
0.5
 50
0
 51
90
  0
ARC
  8
_0-0_
  6
CONTINUOUS
 62
    7
 10
125.70284870121719
 20
50.988762896948401
 40
0.5
 50
90
 51
120.00068399999999
  0
ARC
  8
_0-0_
  6
CONTINUOUS
 62
    7
 10
124.56890870121748
 20
51.488782896948351
 40
0.5
 50
240.00262000000001
 51
300.00067999999999
  0
ARC
  8
_0-0_
  6
CONTINUOUS
 62
    7
 10
123.43489870121726
 20
50.988762896948401
 40
0.5
 50
60.002620000000064
 51
90.000000000000142
  0
ARC
  8
_0-0_
  6
CONTINUOUS
 62
    7
 10
122.77794870121721
 20
50.988762896948401
 40
0.5
 50
90
 51
153.43494799999999
  0
LINE
  8
_0-0_
  6
CONTINUOUS
 62
    7
 10
276.29321481571429
 20
145.62236450247804
 11
276.29321481571429
 21
129.62236450247798
  0
LINE
  8
_0-0_
  6
CONTINUOUS
 62
    7
 10
276.29321481571429
 20
145.62236450247804
 11
305.29321481571429
 21
145.62236450247804
  0
LINE
  8
_0-0_
  6
CONTINUOUS
 62
    7
 10
305.29321481571429
 20
145.62236450247804
 11
305.29321481571429
 21
129.62236450247798
  0
LINE
  8
_0-0_
  6
CONTINUOUS
 62
    7
 10
276.29321481571429
 20
129.62236450247798
 11
305.29321481571429
 21
129.62236450247798
  0
LINE
  8
_0-0_
  6
CONTINUOUS
 62
    7
 10
330.36553631453734
 20
145.62236450247804
 11
332.36553631453734
 21
145.62236450247804
  0
LINE
  8
_0-0_
  6
CONTINUOUS
 62
    7
 10
332.36553631453734
 20
145.62236450247804
 11
332.36553631453734
 21
129.62236450247798
  0
LINE
  8
_0-0_
  6
CONTINUOUS
 62
    7
 10
330.36553631453734
 20
129.62236450247798
 11
332.36553631453734
 21
129.62236450247798
  0
LINE
  8
_0-0_
  6
CONTINUOUS
 62
    7
 10
330.36553631453734
 20
145.62236450247804
 11
330.36553631453734
 21
129.62236450247798
  0
CIRCLE
  8
_0-0_
  6
CONTINUOUS
 62
    7
 10
290.79321481571429
 20
137.62236450247804
 40
2.7999999999999998
  0
CIRCLE
  8
_0-0_
  6
CONTINUOUS
 62
    7
 10
290.79321481571429
 20
137.62236450247804
 40
2
  0
ARC
  8
_0-0_
  6
CONTINUOUS
 62
    7
 10
31.77699128858626
 20
105.07137353756571
 40
2.6000000000000227
 50
180
 51
0
  0
ARC
  8
_0-0_
  6
CONTINUOUS
 62
    7
 10
31.77699128858626
 20
111.87137353756577
 40
2.6000000000000227
 50
0
 51
180
  0
LINE
  8
_0-0_
  6
CONTINUOUS
 62
    7
 10
34.376991288586169
 20
111.87137353756577
 11
34.376991288586169
 21
105.07137353756571
  0
LINE
  8
_0-0_
  6
CONTINUOUS
 62
    7
 10
29.176991288586123
 20
111.87137353756577
 11
29.176991288586123
 21
105.07137353756571
  0
ARC
  8
_0-0_
  6
CONTINUOUS
 62
    7
 10
31.77699128858626
 20
111.87137353756566
 40
1.6000000000000227
 50
0.0000000000010177
 51
179.99999999999898
  0
LINE
  8
_0-0_
  6
CONTINUOUS
 62
    7
 10
30.176991288586123
 20
111.87137353756577
 11
30.176991288586123
 21
105.07137353756571
  0
LINE
  8
_0-0_
  6
CONTINUOUS
 62
    7
 10
33.376991288586169
 20
111.87137353756577
 11
33.376991288586169
 21
105.07137353756571
  0
ARC
  8
_0-0_
  6
CONTINUOUS
 62
    7
 10
31.77699128858626
 20
105.07137353756571
 40
1.6000000000000227
 50
270.28125895167864
 51
359.99999999999898
  0
ARC
  8
_0-0_
  6
CONTINUOUS
 62
    7
 10
31.77699128858626
 20
105.07137353756571
 40
1.6000000000000227
 50
180.00000000000105
 51
270.28125895167864
  0
ARC
  8
_0-0_
  6
CONTINUOUS
 62
    7
 10
66.77699128858626
 20
105.07137353756571
 40
2.6000000000000227
 50
180
 51
0
  0
ARC
  8
_0-0_
  6
CONTINUOUS
 62
    7
 10
66.77699128858626
 20
111.87137353756577
 40
2.6000000000000227
 50
0
 51
180
  0
ARC
  8
_0-0_
  6
CONTINUOUS
 62
    7
 10
66.77699128858626
 20
111.87137353756566
 40
1.6000000000000227
 50
0.0000000000010177
 51
179.99999999999898
  0
ARC
  8
_0-0_
  6
CONTINUOUS
 62
    7
 10
66.77699128858626
 20
105.07137353756571
 40
1.6000000000000227
 50
180.00000000000105
 51
269.71874104832131
  0
ARC
  8
_0-0_
  6
CONTINUOUS
 62
    7
 10
66.77699128858626
 20
105.07137353756571
 40
1.6000000000000227
 50
269.71874104832136
 51
359.99999999999903
  0
LINE
  8
_0-0_
  6
CONTINUOUS
 62
    7
 10
62.77699128858626
 20
117.47137353756568
 11
62.77699128858626
 21
99.471373537565682
  0
LINE
  8
_0-0_
  6
CONTINUOUS
 62
    7
 10
35.77699128858626
 20
117.47137353756568
 11
35.77699128858626
 21
99.471373537565682
  0
LINE
  8
_0-0_
  6
CONTINUOUS
 62
    7
 10
72.27699128858626
 20
100.47137353756568
 11
72.27699128858626
 21
116.47137353756568
  0
ARC
  8
_0-0_
  6
CONTINUOUS
 62
    7
 10
71.27699128858626
 20
116.47137353756568
 40
1
 50
0
 51
90
  0
LINE
  8
_0-0_
  6
CONTINUOUS
 62
    7
 10
71.27699128858626
 20
117.47137353756568
 11
27.27699128858626
 21
117.47137353756568
  0
LINE
  8
_0-0_
  6
CONTINUOUS
 62
    7
 10
26.27699128858626
 20
100.47137353756568
 11
26.27699128858626
 21
116.47137353756568
  0
ARC
  8
_0-0_
  6
CONTINUOUS
 62
    7
 10
27.27699128858626
 20
116.47137353756568
 40
1
 50
90
 51
180
  0
LINE
  8
_0-0_
  6
CONTINUOUS
 62
    7
 10
39.27699128858626
 20
97.471373537565682
 11
59.27699128858626
 21
97.471373537565682
  0
LINE
  8
_0-0_
  6
CONTINUOUS
 62
    7
 10
59.27699128858626
 20
99.471373537565682
 11
59.27699128858626
 21
97.471373537565682
  0
LINE
  8
_0-0_
  6
CONTINUOUS
 62
    7
 10
39.27699128858626
 20
99.471373537565682
 11
39.27699128858626
 21
97.471373537565682
  0
ARC
  8
_0-0_
  6
CONTINUOUS
 62
    7
 10
71.27699128858626
 20
100.47137353756568
 40
1
 50
270
 51
0
  0
LINE
  8
_0-0_
  6
CONTINUOUS
 62
    7
 10
71.27699128858626
 20
99.471373537565682
 11
27.27699128858626
 21
99.471373537565682
  0
ARC
  8
_0-0_
  6
CONTINUOUS
 62
    7
 10
27.27699128858626
 20
100.47137353756568
 40
1
 50
180
 51
270
  0
LINE
  8
_0-0_
  6
CONTINUOUS
 62
    7
 10
39.27699128858626
 20
61.98880289756562
 11
59.27699128858626
 21
61.98880289756562
  0
LINE
  8
_0-0_
  6
CONTINUOUS
 62
    7
 10
39.27699128858626
 20
69.98880289756562
 11
59.27699128858626
 21
69.98880289756562
  0
LINE
  8
_0-0_
  6
CONTINUOUS
 62
    7
 10
39.27699128858626
 20
62.98880289756562
 11
59.27699128858626
 21
62.98880289756562
  0
LINE
  8
_0-0_
  6
CONTINUOUS
 62
    7
 10
39.27699128858626
 20
63.98880289756562
 11
59.27699128858626
 21
63.98880289756562
  0
LINE
  8
_0-0_
  6
CONTINUOUS
 62
    7
 10
39.27699128858626
 20
67.98880289756562
 11
59.27699128858626
 21
67.98880289756562
  0
LINE
  8
_0-0_
  6
CONTINUOUS
 62
    7
 10
39.27699128858626
 20
68.98880289756562
 11
59.27699128858626
 21
68.98880289756562
  0
LINE
  8
_0-0_
  6
CONTINUOUS
 62
    7
 10
59.27699128858626
 20
63.98880289756562
 11
59.27699128858626
 21
61.98880289756562
  0
LINE
  8
_0-0_
  6
CONTINUOUS
 62
    7
 10
59.27699128858626
 20
69.98880289756562
 11
59.27699128858626
 21
67.98880289756562
  0
LINE
  8
_0-0_
  6
CONTINUOUS
 62
    7
 10
39.27699128858626
 20
63.98880289756562
 11
39.27699128858626
 21
61.98880289756562
  0
LINE
  8
_0-0_
  6
CONTINUOUS
 62
    7
 10
39.27699128858626
 20
69.98880289756562
 11
39.27699128858626
 21
67.98880289756562
  0
LINE
  8
_0-0_
  6
CONTINUOUS
 62
    7
 10
62.77699128858626
 20
64.188802897565665
 11
62.77699128858626
 21
72.788802897565688
  0
LINE
  8
_0-0_
  6
CONTINUOUS
 62
    7
 10
72.076991288586214
 20
63.98880289756562
 11
62.976991288586191
 21
63.98880289756562
  0
ARC
  8
_0-0_
  6
CONTINUOUS
 62
    7
 10
62.976991288586191
 20
64.188802897565665
 40
0.2
 50
180
 51
270
  0
ARC
  8
_0-0_
  6
CONTINUOUS
 62
    7
 10
72.076991288586214
 20
63.788802897565688
 40
0.2
 50
0
 51
90
  0
LINE
  8
_0-0_
  6
CONTINUOUS
 62
    7
 10
72.27699128858626
 20
63.788802897565688
 11
72.27699128858626
 21
59.98880289756562
  0
LINE
  8
_0-0_
  6
CONTINUOUS
 62
    7
 10
35.77699128858626
 20
64.188802897565665
 11
35.77699128858626
 21
72.788802897565688
  0
LINE
  8
_0-0_
  6
CONTINUOUS
 62
    7
 10
26.476991288586305
 20
63.98880289756562
 11
35.576991288586214
 21
63.98880289756562
  0
ARC
  8
_0-0_
  6
CONTINUOUS
 62
    7
 10
35.576991288586214
 20
64.188802897565665
 40
0.2
 50
270
 51
0
  0
ARC
  8
_0-0_
  6
CONTINUOUS
 62
    7
 10
26.476991288586305
 20
63.788802897565688
 40
0.2
 50
90
 51
180
  0
LINE
  8
_0-0_
  6
CONTINUOUS
 62
    7
 10
26.27699128858626
 20
63.788802897565688
 11
26.27699128858626
 21
59.98880289756562
  0
LINE
  8
_0-0_
  6
CONTINUOUS
 62
    7
 10
62.576991288586214
 20
72.98880289756562
 11
35.976991288586305
 21
72.98880289756562
  0
ARC
  8
_0-0_
  6
CONTINUOUS
 62
    7
 10
62.576991288586214
 20
72.788802897565688
 40
0.2
 50
0
 51
90
  0
ARC
  8
_0-0_
  6
CONTINUOUS
 62
    7
 10
35.976991288586305
 20
72.788802897565688
 40
0.2
 50
90
 51
180
  0
LINE
  8
_0-0_
  6
CONTINUOUS
 62
    7
 10
26.27699128858626
 20
59.98880289756562
 11
72.27699128858626
 21
59.98880289756562
  0
LINE
  8
_0-0_
  6
CONTINUOUS
 62
    7
 10
64.176991288586123
 20
111.87137353756577
 11
64.176991288586123
 21
108.86719718092411
  0
LINE
  8
_0-0_
  6
CONTINUOUS
 62
    7
 10
64.176991288586123
 20
107.07554989420737
 11
64.176991288586123
 21
105.07137353756571
  0
LINE
  8
_0-0_
  6
CONTINUOUS
 62
    7
 10
65.176991288586123
 20
111.87137353756577
 11
65.176991288586123
 21
110.20800046220023
  0
LINE
  8
_0-0_
  6
CONTINUOUS
 62
    7
 10
65.176991288586123
 20
105.73474661293125
 11
65.176991288586123
 21
105.07137353756571
  0
LINE
  8
_0-0_
  6
CONTINUOUS
 62
    7
 10
68.376991288586169
 20
111.87137353756577
 11
68.376991288586169
 21
110.20800046220023
  0
LINE
  8
_0-0_
  6
CONTINUOUS
 62
    7
 10
68.376991288586169
 20
105.73474661293125
 11
68.376991288586169
 21
105.07137353756571
  0
LINE
  8
_0-0_
  6
CONTINUOUS
 62
    7
 10
69.376991288586169
 20
111.87137353756577
 11
69.376991288586169
 21
108.86719718092411
  0
LINE
  8
_0-0_
  6
CONTINUOUS
 62
    7
 10
69.376991288586169
 20
107.07554989420737
 11
69.376991288586169
 21
105.07137353756571
  0
LINE
  8
_0-0_
  6
CONTINUOUS
 62
    7
 10
24.27699128858626
 20
91.071373537565364
 11
44.27699128858626
 21
91.071373537565364
  0
LINE
  8
_0-0_
  6
CONTINUOUS
 62
    7
 10
44.27699128858626
 20
90.37137353756566
 11
44.27699128858626
 21
95.471373537565682
  0
LINE
  8
_0-0_
  6
CONTINUOUS
 62
    7
 10
24.27699128858626
 20
90.37137353756566
 11
24.27699128858626
 21
95.471373537565682
  0
LINE
  8
_0-0_
  6
CONTINUOUS
 62
    7
 10
74.27699128858626
 20
91.071373537565364
 11
54.27699128858626
 21
91.071373537565364
  0
LINE
  8
_0-0_
  6
CONTINUOUS
 62
    7
 10
54.27699128858626
 20
90.37137353756566
 11
54.27699128858626
 21
95.471373537565682
  0
LINE
  8
_0-0_
  6
CONTINUOUS
 62
    7
 10
74.27699128858626
 20
90.37137353756566
 11
74.27699128858626
 21
95.471373537565682
  0
LINE
  8
_0-b_
  6
DASHED2
 62
  152
 10
311.09833139230784
 20
97.765128361525171
 11
313.09833139230784
 21
97.765128361525171
  0
LINE
  8
_0-b_
  6
DASHED2
 62
  152
 10
313.09833139230784
 20
86.765128361525058
 11
315.09833139230784
 21
86.765128361525058
  0
LINE
  8
_0-b_
  6
DASHED2
 62
  152
 10
311.09833139230784
 20
85.765128361525058
 11
313.09833139230784
 21
85.765128361525058
  0
LINE
  8
_0-b_
  6
DASHED2
 62
  152
 10
313.09833139230784
 20
85.765128361525058
 11
313.09833139230784
 21
97.765128361525171
  0
LINE
  8
_0-b_
  6
DASHED2
 62
  152
 10
313.09833139230784
 20
96.765128361525058
 11
315.09833139230784
 21
96.765128361525058
  0
LINE
  8
_0-b_
  6
CENTER1
 62
  152
 10
311.09833139230784
 20
88.36512836152508
 11
315.09833139230784
 21
88.36512836152508
  0
LINE
  8
_0-b_
  6
CENTER1
 62
  152
 10
311.09833139230784
 20
95.165128361525149
 11
315.09833139230784
 21
95.165128361525149
  0
LINE
  8
_0-b_
  6
CONTINUOUS
 62
  152
 10
311.09833139230784
 20
82.965128361525103
 11
311.09833139230784
 21
100.56512836152501
  0
ARC
  8
_0-b_
  6
CONTINUOUS
 62
  152
 10
311.29833139230777
 20
100.56512836152501
 40
0.2
 50
90
 51
180
  0
LINE
  8
_0-b_
  6
CONTINUOUS
 62
  152
 10
302.09833139230784
 20
82.965128361525103
 11
302.09833139230784
 21
100.56512836152501
  0
ARC
  8
_0-b_
  6
CONTINUOUS
 62
  152
 10
302.29833139230777
 20
100.56512836152501
 40
0.2
 50
90
 51
180
  0
LINE
  8
_0-b_
  6
CONTINUOUS
 62
  152
 10
302.29833139230777
 20
100.76512836152506
 11
315.09833139230784
 21
100.76512836152506
  0
LINE
  8
_0-b_
  6
CONTINUOUS
 62
  152
 10
315.09833139230784
 20
100.76512836152506
 11
315.09833139230784
 21
82.765128361525058
  0
LINE
  8
_0-b_
  6
CONTINUOUS
 62
  152
 10
307.09833139230778
 20
82.765128361525058
 11
307.09833139230778
 21
80.765128361525058
  0
LINE
  8
_0-b_
  6
CONTINUOUS
 62
  152
 10
307.09833139230778
 20
80.765128361525058
 11
306.09833139230778
 21
80.765128361525058
  0
LINE
  8
_0-b_
  6
CONTINUOUS
 62
  152
 10
306.09833139230778
 20
82.765128361525058
 11
306.09833139230778
 21
80.765128361525058
  0
LINE
  8
_0-b_
  6
CONTINUOUS
 62
  152
 10
312.09833139230778
 20
82.765128361525058
 11
312.09833139230778
 21
80.765128361525058
  0
LINE
  8
_0-b_
  6
CONTINUOUS
 62
  152
 10
311.09833139230778
 20
80.765128361525058
 11
312.09833139230778
 21
80.765128361525058
  0
LINE
  8
_0-b_
  6
CONTINUOUS
 62
  152
 10
311.09833139230778
 20
82.765128361525058
 11
311.09833139230778
 21
80.765128361525058
  0
ARC
  8
_0-b_
  6
CONTINUOUS
 62
  152
 10
311.29833139230777
 20
82.965128361525103
 40
0.2
 50
180
 51
270
  0
ARC
  8
_0-b_
  6
CONTINUOUS
 62
  152
 10
302.29833139230777
 20
82.965128361525103
 40
0.2
 50
180
 51
270
  0
LINE
  8
_0-b_
  6
CONTINUOUS
 62
  152
 10
302.29833139230777
 20
82.765128361525058
 11
315.09833139230784
 21
82.765128361525058
  0
LINE
  8
_0-1_
  6
CENTER1
 62
  152
 10
234.7786428891107
 20
97.765128361525171
 11
234.7786428891107
 21
85.765128361525058
  0
LINE
  8
_0-1_
  6
CENTER1
 62
  152
 10
269.77864288911059
 20
97.765128361525171
 11
269.77864288911059
 21
85.765128361525058
  0
LINE
  8
_0-1_
  6
CENTER1
 62
  152
 10
232.17864288911056
 20
88.36512836152508
 11
237.37864288911061
 21
88.36512836152508
  0
LINE
  8
_0-1_
  6
CENTER1
 62
  152
 10
232.17864288911056
 20
95.165128361525149
 11
237.37864288911061
 21
95.165128361525149
  0
LINE
  8
_0-1_
  6
CENTER1
 62
  152
 10
233.17864288911056
 20
91.765128361525058
 11
236.37864288911061
 21
91.765128361525058
  0
LINE
  8
_0-1_
  6
CENTER1
 62
  152
 10
272.37864288911061
 20
88.36512836152508
 11
267.17864288911056
 21
88.36512836152508
  0
LINE
  8
_0-1_
  6
CENTER1
 62
  152
 10
272.37864288911061
 20
95.165128361525149
 11
267.17864288911056
 21
95.165128361525149
  0
LINE
  8
_0-1_
  6
CENTER1
 62
  152
 10
271.37864288911061
 20
91.765128361525058
 11
268.17864288911056
 21
91.765128361525058
  0
LINE
  8
_0-1_
  6
CENTER1
 62
  152
 10
252.27864288911059
 20
100.76512836152506
 11
252.27864288911059
 21
80.765128361525058
  0
LINE
  8
_0-1_
  6
CENTER1
 62
  152
 10
242.48481308786876
 20
46.493097304917683
 11
261.99634315490636
 21
46.493097304917683
  0
LINE
  8
_0-1_
  6
CENTER1
 62
  152
 10
252.27864288911059
 20
53.493097304917683
 11
252.27864288911059
 21
40.493097304917683
  0
LINE
  8
_0-1_
  6
CONTINUOUS
 62
  152
 10
74.27699128858626
 20
121.37137353756577
 11
24.27699128858626
 21
121.37137353756577
  0
LINE
  8
_0-1_
  6
CONTINUOUS
 62
  152
 10
24.27699128858626
 20
124.57137353756559
 11
74.27699128858626
 21
124.57137353756559
  0
LINE
  8
_0-1_
  6
CONTINUOUS
 62
  152
 10
72.27699128858626
 20
106.37137353756577
 11
74.27699128858626
 21
106.37137353756577
  0
LINE
  8
_0-1_
  6
CONTINUOUS
 62
  152
 10
74.27699128858626
 20
102.07137353756559
 11
72.27699128858626
 21
102.07137353756559
  0
LINE
  8
_0-1_
  6
CONTINUOUS
 62
  152
 10
26.27699128858626
 20
102.07137353756559
 11
24.27699128858626
 21
102.07137353756559
  0
LINE
  8
_0-1_
  6
CONTINUOUS
 62
  152
 10
26.27699128858626
 20
106.37137353756555
 11
24.27699128858626
 21
106.37137353756555
  0
LINE
  8
_0-1_
  6
CONTINUOUS
 62
  152
 10
74.27699128858626
 20
109.57137353756559
 11
72.27699128858626
 21
109.57137353756559
  0
LINE
  8
_0-1_
  6
CONTINUOUS
 62
  152
 10
26.27699128858626
 20
109.57137353756559
 11
24.27699128858626
 21
109.57137353756559
  0
LINE
  8
_0-1_
  6
CENTER1
 62
  152
 10
64.27699128858626
 20
52.60878338788342
 11
64.27699128858626
 21
42.187794527804556
  0
LINE
  8
_0-1_
  6
CENTER1
 62
  152
 10
34.27699128858626
 20
52.60878338788342
 11
34.27699128858626
 21
42.187794527804556
  0
LINE
  8
_0-1_
  6
CONTINUOUS
 62
  152
 10
65.77699128858626
 20
42.988762896965341
 11
62.77699128858626
 21
42.988762896965341
  0
LINE
  8
_0-1_
  6
CONTINUOUS
 62
  152
 10
65.27699128858626
 20
42.488762896965341
 11
65.27699128858626
 21
45.688762896965613
  0
LINE
  8
_0-1_
  6
CONTINUOUS
 62
  152
 10
63.27699128858626
 20
45.688762896965613
 11
63.27699128858626
 21
42.488762896965341
  0
LINE
  8
_0-1_
  6
CONTINUOUS
 62
  152
 10
35.77699128858626
 20
42.988762896965341
 11
32.77699128858626
 21
42.988762896965341
  0
LINE
  8
_0-1_
  6
CONTINUOUS
 62
  152
 10
35.27699128858626
 20
42.488762896965341
 11
35.27699128858626
 21
45.688762896965613
  0
LINE
  8
_0-1_
  6
CONTINUOUS
 62
  152
 10
33.27699128858626
 20
45.688762896965613
 11
33.27699128858626
 21
42.488762896965341
  0
LINE
  8
_0-2_
  6
PHANTOM1
 62
  152
 10
92.055515801200102
 20
12.4888028969483
 11
20.272484375502245
 21
12.4888028969483
  0
LINE
  8
_0-2_
  6
PHANTOM1
 62
  152
 10
81.337548103955214
 20
52.4888028969483
 11
9.5545166782574142
 21
52.4888028969483
  0
LINE
  8
_0-1_
  6
CENTER2
 62
  152
 10
121.86890870121721
 20
32.488782896948351
 11
131.86895870121685
 21
32.488782896948351
  0
LINE
  8
_0-1_
  6
CENTER2
 62
  152
 10
126.86893870121736
 20
37.4888028969483
 11
126.86893870121736
 21
27.488762896948401
  0
LINE
  8
_0-1_
  6
CENTER2
 62
  152
 10
124.56892870121743
 20
51.488762896948401
 11
124.56892870121743
 21
42.488762896948401
  0
LINE
  8
_0-1_
  6
CONTINUOUS
 62
  152
 10
126.06892870121743
 20
42.988762896948401
 11
123.06892870121743
 21
42.988762896948401
  0
LINE
  8
_0-1_
  6
CONTINUOUS
 62
  152
 10
125.56892870121743
 20
42.488762896948401
 11
125.56892870121743
 21
45.688762896948674
  0
LINE
  8
_0-1_
  6
CENTER1
 62
  152
 10
131.86892870121761
 20
59.4888028969483
 11
131.86892870121761
 21
53.016496776475151
  0
LINE
  8
_0-1_
  6
CONTINUOUS
 62
  152
 10
123.56892870121743
 20
45.688762896948674
 11
123.56892870121743
 21
42.488762896948401
  0
LINE
  8
_0-1_
  6
CENTER1
 62
  152
 10
146.86892870121761
 20
59.4888028969483
 11
146.86892870121761
 21
53.016496776475151
  0
LINE
  8
_0-1_
  6
CENTER1
 62
  152
 10
154.36892870121761
 20
53.016496776475151
 11
154.36892870121761
 21
59.4888028969483
  0
LINE
  8
_0-1_
  6
CENTER1
 62
  152
 10
139.36892870121761
 20
66.9888028969483
 11
139.36892870121761
 21
53.016496776475151
  0
LINE
  8
_0-2_
  6
PHANTOM1
 62
  152
 10
106.86893870121736
 20
12.488782896948351
 11
146.86893870121736
 21
12.488782896948351
  0
LINE
  8
_0-2_
  6
PHANTOM1
 62
  152
 10
146.86893870121736
 20
12.488782896948351
 11
146.86893870121736
 21
52.488782896948351
  0
LINE
  8
_0-2_
  6
PHANTOM1
 62
  152
 10
146.86893870121736
 20
52.488782896948351
 11
106.86893870121736
 21
52.488782896948351
  0
LINE
  8
_0-2_
  6
PHANTOM1
 62
  152
 10
106.86893870121736
 20
52.488782896948351
 11
106.86893870121736
 21
12.488782896948351
  0
LINE
  8
_0-2_
  6
PHANTOM1
 62
  152
 10
8.6465724146905814
 20
55.877297019019863
 11
21.391301869366089
 21
8.3133191654516168
  0
LINE
  8
_0-2_
  6
PHANTOM1
 62
  152
 10
80.501454724783684
 20
55.609145867888117
 11
93.174333295063946
 21
8.3133191654516168
  0
LINE
  8
_0-1_
  6
CENTER1
 62
  152
 10
290.79321481571429
 20
145.62236450247804
 11
290.79321481571429
 21
129.62236450247798
  0
LINE
  8
_0-1_
  6
CENTER1
 62
  152
 10
276.29321481571429
 20
137.62236450247804
 11
305.29321481571429
 21
137.62236450247804
  0
LINE
  8
_0-2_
  6
DASHED2
 62
  152
 10
330.36553631453734
 20
140.42236450247799
 11
331.16553631453729
 21
139.62236450247804
  0
LINE
  8
_0-2_
  6
DASHED2
 62
  152
 10
330.36553631453734
 20
134.82236450247797
 11
331.16553631453729
 21
135.62236450247804
  0
LINE
  8
_0-2_
  6
DASHED2
 62
  152
 10
331.16553631453729
 20
135.62236450247804
 11
331.16553631453729
 21
139.62236450247804
  0
LINE
  8
_0-2_
  6
DASHED2
 62
  152
 10
331.16553631453729
 20
135.62236450247804
 11
332.36553631453734
 21
135.62236450247804
  0
LINE
  8
_0-2_
  6
DASHED2
 62
  152
 10
331.16553631453729
 20
139.62236450247804
 11
332.36553631453734
 21
139.62236450247804
  0
LINE
  8
_0-1_
  6
CENTER1
 62
  152
 10
330.36553631453734
 20
137.62236450247804
 11
332.36553631453734
 21
137.62236450247804
  0
LINE
  8
_0-1_
  6
CENTER1
 62
  152
 10
49.27699128858626
 20
127.97137353756568
 11
49.27699128858626
 21
95.471373537565682
  0
LINE
  8
_0-1_
  6
CENTER1
 62
  152
 10
31.77699128858626
 20
114.4713735375658
 11
31.77699128858626
 21
102.47137353756568
  0
LINE
  8
_0-1_
  6
CENTER1
 62
  152
 10
66.77699128858626
 20
114.4713735375658
 11
66.77699128858626
 21
102.47137353756568
  0
LINE
  8
_0-1_
  6
CENTER1
 62
  152
 10
29.176991288586123
 20
105.07137353756571
 11
34.376991288586169
 21
105.07137353756571
  0
LINE
  8
_0-1_
  6
CENTER1
 62
  152
 10
29.176991288586123
 20
111.87137353756577
 11
34.376991288586169
 21
111.87137353756577
  0
LINE
  8
_0-1_
  6
CENTER1
 62
  152
 10
30.176991288586123
 20
108.47137353756568
 11
33.376991288586169
 21
108.47137353756568
  0
LINE
  8
_0-1_
  6
CENTER1
 62
  152
 10
69.376991288586169
 20
105.07137353756571
 11
64.176991288586123
 21
105.07137353756571
  0
LINE
  8
_0-1_
  6
CENTER1
 62
  152
 10
69.376991288586169
 20
111.87137353756577
 11
64.176991288586123
 21
111.87137353756577
  0
LINE
  8
_0-1_
  6
CONTINUOUS
 62
  152
 10
74.27699128858626
 20
117.07137353756559
 11
72.076991288586214
 21
117.07137353756559
  0
LINE
  8
_0-1_
  6
CONTINUOUS
 62
  152
 10
26.476991288586078
 20
117.07137353756559
 11
24.27699128858626
 21
117.07137353756559
  0
LINE
  8
_0-1_
  6
CONTINUOUS
 62
  152
 10
24.27699128858626
 20
113.87137353756577
 11
26.27699128858626
 21
113.87137353756577
  0
LINE
  8
_0-1_
  6
CONTINUOUS
 62
  152
 10
72.27699128858626
 20
113.87137353756577
 11
74.27699128858626
 21
113.87137353756577
  0
LINE
  8
_0-1_
  6
CONTINUOUS
 62
  152
 10
59.27699128858626
 20
98.871373537565773
 11
74.27699128858626
 21
98.871373537565773
  0
LINE
  8
_0-1_
  6
CONTINUOUS
 62
  152
 10
39.27699128858626
 20
98.871373537565773
 11
24.27699128858626
 21
98.871373537565773
  0
LINE
  8
_0-1_
  6
CENTER1
 62
  152
 10
63.068882801146856
 20
107.97137353756574
 11
71.891064831159952
 21
107.97137353756574
  0
LINE
  8
_0-1_
  6
CONTINUOUS
 62
  152
 10
65.02699128858626
 20
107.6213735435262
 11
65.02699128858626
 21
108.32137353160527
  0
LINE
  8
_0-1_
  6
CONTINUOUS
 62
  152
 10
68.52699128858626
 20
107.6213735435262
 11
68.52699128858626
 21
108.32137353160527
  0
LINE
  8
_0-1_
  6
CONTINUOUS
 62
  152
 10
66.426991294546724
 20
109.72137353756574
 11
67.126991282625795
 21
109.72137353756574
  0
LINE
  8
_0-1_
  6
CONTINUOUS
 62
  152
 10
66.426991294546724
 20
106.22137353756574
 11
67.126991282625795
 21
106.22137353756574
  0
LINE
  8
_0-1_
  6
CONTINUOUS
 62
  152
 10
67.126991282625795
 20
109.02137348988202
 11
67.126991282625795
 21
109.72137353756574
  0
LINE
  8
_0-1_
  6
CONTINUOUS
 62
  152
 10
67.826991240902544
 20
108.32137353160527
 11
68.52699128858626
 21
108.32137353160527
  0
LINE
  8
_0-1_
  6
CONTINUOUS
 62
  152
 10
67.826991240902544
 20
107.6213735435262
 11
68.52699128858626
 21
107.6213735435262
  0
LINE
  8
_0-1_
  6
CONTINUOUS
 62
  152
 10
67.126991282625795
 20
106.92137358524946
 11
67.126991282625795
 21
106.22137353756574
  0
LINE
  8
_0-1_
  6
CONTINUOUS
 62
  152
 10
66.426991294546724
 20
106.92137358524946
 11
66.426991294546724
 21
106.22137353756574
  0
LINE
  8
_0-1_
  6
CONTINUOUS
 62
  152
 10
65.726991336269975
 20
107.6213735435262
 11
65.02699128858626
 21
107.6213735435262
  0
LINE
  8
_0-1_
  6
CONTINUOUS
 62
  152
 10
65.726991336269975
 20
108.32137353160527
 11
65.02699128858626
 21
108.32137353160527
  0
LINE
  8
_0-1_
  6
CONTINUOUS
 62
  152
 10
66.426991294546724
 20
109.02137348988202
 11
66.426991294546724
 21
109.72137353756574
  0
CIRCLE
  8
_0-1_
  6
CONTINUOUS
 62
  152
 10
66.77699128858626
 20
107.97137353756574
 40
2.75
  0
ARC
  8
_0-1_
  6
CONTINUOUS
 62
  152
 10
67.826991240902544
 20
109.02137348988202
 40
0.699999988079071
 50
180
 51
270
  0
ARC
  8
_0-1_
  6
CONTINUOUS
 62
  152
 10
67.826991240902544
 20
106.92137358524946
 40
0.699999988079071
 50
90
 51
180
  0
ARC
  8
_0-1_
  6
CONTINUOUS
 62
  152
 10
65.726991336269975
 20
106.92137358524946
 40
0.699999988079071
 50
0
 51
90
  0
ARC
  8
_0-1_
  6
CONTINUOUS
 62
  152
 10
65.726991336269975
 20
109.02137348988202
 40
0.699999988079071
 50
270
 51
0
  0
LINE
  8
_0-1_
  6
CENTER1
 62
  152
 10
39.483161487344432
 20
65.98880289756562
 11
58.994691554381916
 21
65.98880289756562
  0
LINE
  8
_0-1_
  6
CENTER1
 62
  152
 10
49.27699128858626
 20
72.98880289756562
 11
49.27699128858626
 21
59.98880289756562
  0
LINE
  8
_0-1_
  6
CENTER1
 62
  152
 10
234.77864288911059
 20
48.377380257459549
 11
234.77864288911059
 21
38.983604135714018
  0
LINE
  8
_0-1_
  6
CENTER1
 62
  152
 10
269.77864288911059
 20
48.905120489018316
 11
269.77864288911059
 21
38.561411950467061
  0
LINE
  8
_0-b_
  6
DASHED2
 62
  152
 10
145.86892870121773
 20
63.9888028969483
 11
145.86892870121773
 21
61.9888028969483
  0
LINE
  8
_0-b_
  6
DASHED2
 62
  152
 10
134.86892870121761
 20
61.9888028969483
 11
134.86892870121761
 21
59.9888028969483
  0
LINE
  8
_0-b_
  6
DASHED2
 62
  152
 10
133.86892870121761
 20
63.9888028969483
 11
133.86892870121761
 21
61.9888028969483
  0
LINE
  8
_0-b_
  6
DASHED2
 62
  152
 10
133.86892870121761
 20
61.9888028969483
 11
145.86892870121773
 21
61.9888028969483
  0
LINE
  8
_0-b_
  6
DASHED2
 62
  152
 10
144.86892870121761
 20
61.9888028969483
 11
144.86892870121761
 21
59.9888028969483
  0
LINE
  8
_0-b_
  6
CENTER1
 62
  152
 10
136.46892870121764
 20
63.9888028969483
 11
136.46892870121764
 21
59.9888028969483
  0
LINE
  8
_0-b_
  6
CENTER1
 62
  152
 10
143.2689287012177
 20
63.9888028969483
 11
143.2689287012177
 21
59.9888028969483
  0
LINE
  8
_0-b_
  6
CONTINUOUS
 62
  152
 10
131.06892870121766
 20
63.9888028969483
 11
148.66892870121757
 21
63.9888028969483
  0
ARC
  8
_0-b_
  6
CONTINUOUS
 62
  152
 10
148.66892870121757
 20
63.788802896948368
 40
0.2
 50
0
 51
90
  0
LINE
  8
_0-b_
  6
CONTINUOUS
 62
  152
 10
131.06892870121766
 20
72.9888028969483
 11
148.66892870121757
 21
72.9888028969483
  0
ARC
  8
_0-b_
  6
CONTINUOUS
 62
  152
 10
148.66892870121757
 20
72.788802896948368
 40
0.2
 50
0
 51
90
  0
LINE
  8
_0-b_
  6
CONTINUOUS
 62
  152
 10
148.86892870121761
 20
72.788802896948368
 11
148.86892870121761
 21
59.9888028969483
  0
LINE
  8
_0-b_
  6
CONTINUOUS
 62
  152
 10
148.86892870121761
 20
59.9888028969483
 11
130.86892870121761
 21
59.9888028969483
  0
LINE
  8
_0-b_
  6
CONTINUOUS
 62
  152
 10
130.86892870121761
 20
67.988802896948357
 11
128.86892870121761
 21
67.988802896948357
  0
LINE
  8
_0-b_
  6
CONTINUOUS
 62
  152
 10
128.86892870121761
 20
67.988802896948357
 11
128.86892870121761
 21
68.988802896948357
  0
LINE
  8
_0-b_
  6
CONTINUOUS
 62
  152
 10
130.86892870121761
 20
68.988802896948357
 11
128.86892870121761
 21
68.988802896948357
  0
LINE
  8
_0-b_
  6
CONTINUOUS
 62
  152
 10
130.86892870121761
 20
62.988802896948357
 11
128.86892870121761
 21
62.988802896948357
  0
LINE
  8
_0-b_
  6
CONTINUOUS
 62
  152
 10
128.86892870121761
 20
63.988802896948357
 11
128.86892870121761
 21
62.988802896948357
  0
LINE
  8
_0-b_
  6
CONTINUOUS
 62
  152
 10
130.86892870121761
 20
63.988802896948357
 11
128.86892870121761
 21
63.988802896948357
  0
ARC
  8
_0-b_
  6
CONTINUOUS
 62
  152
 10
131.06892870121766
 20
63.788802896948368
 40
0.2
 50
90
 51
180
  0
ARC
  8
_0-b_
  6
CONTINUOUS
 62
  152
 10
131.06892870121766
 20
72.788802896948368
 40
0.2
 50
90
 51
180
  0
LINE
  8
_0-b_
  6
CONTINUOUS
 62
  152
 10
130.86892870121761
 20
72.788802896948368
 11
130.86892870121761
 21
59.9888028969483
  0
LINE
  8
_0-1_
  6
CONTINUOUS
 62
  152
 10
64.02699128858626
 20
63.98880289756562
 11
64.101115863247514
 21
64.836051809423225
  0
LINE
  8
_0-1_
  6
CONTINUOUS
 62
  152
 10
69.52699128858626
 20
63.98880289756562
 11
69.452866713925005
 21
64.836051809423225
  0
ARC
  8
_0-1_
  6
CONTINUOUS
 62
  152
 10
65.097310702725053
 20
64.748896050088661
 40
1
 50
106.25701904296875
 51
175
  0
ARC
  8
_0-1_
  6
CONTINUOUS
 62
  152
 10
68.456671874447466
 20
64.748896050088661
 40
1
 50
4.9999847412109482
 51
73.742965698242187
  0
ARC
  8
_0-1_
  6
CONTINUOUS
 62
  152
 10
66.77699128858626
 20
58.98880289756562
 40
7
 50
73.742965698242187
 51
106.25701904296876
  0
LINE
  8
_0-1_
  6
CENTER1
 62
  152
 10
66.77699128858626
 20
67.426072676531817
 11
66.77699128858626
 21
56.878892115717917
  0
LINE
  8
_0-1_
  6
CONTINUOUS
 62
  152
 10
29.02699128858626
 20
63.98880289756562
 11
29.101115863247514
 21
64.836051809423225
  0
LINE
  8
_0-1_
  6
CONTINUOUS
 62
  152
 10
34.52699128858626
 20
63.98880289756562
 11
34.452866713925005
 21
64.836051809423225
  0
ARC
  8
_0-1_
  6
CONTINUOUS
 62
  152
 10
30.097310702725053
 20
64.748896050088661
 40
1
 50
106.25701904296875
 51
175
  0
ARC
  8
_0-1_
  6
CONTINUOUS
 62
  152
 10
33.456671874447466
 20
64.748896050088661
 40
1
 50
4.9999847412109482
 51
73.742965698242187
  0
ARC
  8
_0-1_
  6
CONTINUOUS
 62
  152
 10
31.77699128858626
 20
58.98880289756562
 40
7
 50
73.742965698242187
 51
106.25701904296876
  0
LINE
  8
_0-1_
  6
CENTER1
 62
  152
 10
31.77699128858626
 20
66.486224903786024
 11
31.77699128858626
 21
56.878892115717917
  0
TEXT
  8
_0-e_
 62
    7
 10
17.688554736956121
 20
132.28567458723853
 40
5
 41
1
 50
0
  1
MD4B-S
  0
TEXT
  8
_0-e_
 62
    7
 10
226.78833285599734
 20
111.86039474138715
 40
5
 41
1
 50
0
  1
MD4B-N
  0
LINE
  8
_0-1_
  6
CENTER1
 62
  152
 10
36.924055133199317
 20
93.17137353756533
 11
31.733801835501026
 21
93.17137353756533
  0
LINE
  8
_0-1_
  6
CENTER1
 62
  152
 10
34.27699128858626
 20
96.303019077223269
 11
34.27699128858626
 21
90.074715119985456
  0
CIRCLE
  8
_0-1_
  6
CONTINUOUS
 62
  152
 10
34.27699128858626
 20
93.17137353756533
 40
1.5
  0
CIRCLE
  8
_0-1_
  6
CONTINUOUS
 62
  152
 10
34.27699128858626
 20
93.17137353756533
 40
1.2999999523162842
  0
LINE
  8
_0-1_
  6
CONTINUOUS
 62
  152
 10
24.27699128858626
 20
94.171448641565348
 11
33.159024479436994
 21
94.171448641565348
  0
LINE
  8
_0-1_
  6
CONTINUOUS
 62
  152
 10
35.394958097735525
 20
94.171448641565348
 11
44.27699128858626
 21
94.171448641565348
  0
LINE
  8
_0-1_
  6
CONTINUOUS
 62
  152
 10
24.27699128858626
 20
93.17137353756533
 11
32.77699128858626
 21
93.17137353756533
  0
LINE
  8
_0-1_
  6
CONTINUOUS
 62
  152
 10
35.77699128858626
 20
93.17137353756533
 11
44.27699128858626
 21
93.17137353756533
  0
LINE
  8
_0-1_
  6
CONTINUOUS
 62
  152
 10
24.27699128858626
 20
92.171298433565312
 11
33.159024479436994
 21
92.171298433565312
  0
LINE
  8
_0-1_
  6
CONTINUOUS
 62
  152
 10
35.394958097735525
 20
92.171298433565312
 11
44.27699128858626
 21
92.171298433565312
  0
LINE
  8
_0-1_
  6
CENTER1
 62
  152
 10
61.629927443973202
 20
93.17137353756533
 11
66.820180741671265
 21
93.17137353756533
  0
LINE
  8
_0-1_
  6
CENTER1
 62
  152
 10
64.27699128858626
 20
96.303019077223269
 11
64.27699128858626
 21
90.074715119985456
  0
CIRCLE
  8
_0-1_
  6
CONTINUOUS
 62
  152
 10
64.27699128858626
 20
93.17137353756533
 40
1.5
  0
CIRCLE
  8
_0-1_
  6
CONTINUOUS
 62
  152
 10
64.27699128858626
 20
93.17137353756533
 40
1.2999999523162842
  0
LINE
  8
_0-1_
  6
CONTINUOUS
 62
  152
 10
74.27699128858626
 20
94.171448641565348
 11
65.394958097735525
 21
94.171448641565348
  0
LINE
  8
_0-1_
  6
CONTINUOUS
 62
  152
 10
63.159024479436994
 20
94.171448641565348
 11
54.27699128858626
 21
94.171448641565348
  0
LINE
  8
_0-1_
  6
CONTINUOUS
 62
  152
 10
74.27699128858626
 20
93.17137353756533
 11
65.77699128858626
 21
93.17137353756533
  0
LINE
  8
_0-1_
  6
CONTINUOUS
 62
  152
 10
62.77699128858626
 20
93.17137353756533
 11
54.27699128858626
 21
93.17137353756533
  0
LINE
  8
_0-1_
  6
CONTINUOUS
 62
  152
 10
74.27699128858626
 20
92.171298433565312
 11
65.394958097735525
 21
92.171298433565312
  0
LINE
  8
_0-1_
  6
CONTINUOUS
 62
  152
 10
63.159024479436994
 20
92.171298433565312
 11
54.27699128858626
 21
92.171298433565312
  0
ENDSEC
  0
EOF
