  0
SECTION
  2
HEADER
  9
$ACADVER
  1
AC1009
  9
$INSBASE
 10
0
 20
0
 30
0
  9
$EXTMIN
 10
0
 20
0
  9
$EXTMAX
 10
1189
 20
841
  9
$LIMMIN
 10
0
 20
0
  9
$LIMMAX
 10
1189
 20
841
  9
$LTSCALE
 40
1
  0
ENDSEC
  0
SECTION
  2
TABLES
  0
TABLE
  2
LTYPE
 70
     9
  0
LTYPE
  2
CONTINUOUS
 70
    64
  3
実線
 72
    65
 73
     0
 40
0.0
  0
LTYPE
  2
DASHED1
 70
    64
  3
--  --  --  --  --  --  --  --  
 72
    65
 73
     2
 40
2.5
 49
1.25
 49
-1.25
  0
LTYPE
  2
DASHED2
 70
    64
  3
----    ----    ----    ----    
 72
    65
 73
     2
 40
5.0
 49
2.5
 49
-2.5
  0
LTYPE
  2
DASHED3
 70
    64
  3
------  ------  ------  ------  
 72
    65
 73
     2
 40
5.0
 49
3.75
 49
-1.25
  0
LTYPE
  2
CENTER1
 70
    64
  3
----- - ----- - ----- - ----- - 
 72
    65
 73
     4
 40
10.0
 49
6.25
 49
-1.25
 49
1.25
 49
-1.25
  0
LTYPE
  2
CENTER2
 70
    64
  3
----------  --  ----------  --  
 72
    65
 73
     4
 40
20.0
 49
12.5
 49
-2.5
 49
2.5
 49
-2.5
  0
LTYPE
  2
PHANTOM1
 70
    64
  3
--- - - --- - - --- - - --- - - 
 72
    65
 73
     6
 40
10.0
 49
3.25
 49
-1.25
 49
1.25
 49
-1.25
 49
1.25
 49
-1.25
  0
LTYPE
  2
PHANTOM2
 70
    64
  3
--------  -  -  --------  -  -  
 72
    65
 73
     6
 40
20.0
 49
10.0
 49
-2.5
 49
1.25
 49
-2.5
 49
1.25
 49
-2.5
  0
LTYPE
  2
DOT
 70
    64
  3
-   -   -   -   -   -   -   -   
 72
    65
 73
     2
 40
2.5
 49
0.625
 49
-1.875
  0
LTYPE
  2
DUMMY
 70
    64
  3
ダミー
 72
    65
 73
     0
 40
0.0
  0
LTYPE
  2
RAND1
 70
    64
  3
ランダム線1
 72
    65
 73
     4
 40
10.0
 49
1.0
 49
-2.0
 49
3.0
 49
-4.0
  0
LTYPE
  2
RAND2
 70
    64
  3
ランダム線2
 72
    65
 73
     4
 40
14.0
 49
2.0
 49
-3.0
 49
4.0
 49
-5.0
  0
LTYPE
  2
RAND3
 70
    64
  3
ランダム線3
 72
    65
 73
     4
 40
18.0
 49
3.0
 49
-4.0
 49
5.0
 49
-6.0
  0
LTYPE
  2
RAND4
 70
    64
  3
ランダム線4
 72
    65
 73
     4
 40
22.0
 49
4.0
 49
-5.0
 49
6.0
 49
-7.0
  0
LTYPE
  2
RAND5
 70
    64
  3
ランダム線5
 72
    65
 73
     4
 40
26.0
 49
5.0
 49
-6.0
 49
7.0
 49
-8.0
  0
LTYPE
  2
LONG1
 70
    64
  3
----------  --  ----------  --  
 72
    65
 73
     4
 40
40.0
 49
32.5
 49
-2.5
 49
2.5
 49
-2.5
  0
LTYPE
  2
LONG2
 70
    64
  3
--------  -  -  --------  -  -  
 72
    65
 73
     6
 40
40.0
 49
30.0
 49
-2.5
 49
1.25
 49
-2.5
 49
1.25
 49
-2.5
  0
LTYPE
  2
LONG3
 70
    64
  3
+++++++++++++++..+++++++++++++++
 72
    65
 73
     2
 40
40.0
 49
37.5
 49
-2.5
  0
LTYPE
  2
LONG4
 70
    64
  3
+++++++++++++++..+++++++++++++++
 72
    65
 73
     2
 40
80.0
 49
75.0
 49
-5.0
  0
LTYPE
  2
LONG5
 70
    64
  3
----------  --  ----------  --  
 72
    65
 73
     4
 40
60.0
 49
37.5
 49
-7.5
 49
7.5
 49
-7.5
  0
LTYPE
  2
dashed
 70
   64
  3
-------   -------------   ------
 72
   65
 73
    2
 40
7.5
 49
6
 49
-1.5
  0
LTYPE
  2
dashed_spaced
 70
   64
  3
----        --------        ----
 72
   65
 73
    2
 40
12
 49
6
 49
-6
  0
LTYPE
  2
long_dashed_dotted
 70
   64
  3
------------- --- --------------
 72
   65
 73
    4
 40
15.25
 49
12
 49
-1.5
 49
0.25
 49
-1.5
  0
LTYPE
  2
long_dashed_double-dotted
 70
   64
  3
----------- --- --- ------------
 72
   65
 73
    6
 40
17
 49
12
 49
-1.5
 49
0.25
 49
-1.5
 49
0.25
 49
-1.5
  0
LTYPE
  2
long_dashed_triplicate-dotted
 70
   64
  3
--------- --- --- --- ----------
 72
   65
 73
    8
 40
18.75
 49
12
 49
-1.5
 49
0.25
 49
-1.5
 49
0.25
 49
-1.5
 49
0.25
 49
-1.5
  0
LTYPE
  2
dotted
 70
   64
  3
   -       -       -       -    
 72
   65
 73
    2
 40
1.75
 49
0.25
 49
-1.5
  0
LTYPE
  2
chain
 70
   64
  3
-------------- -- --------------
 72
   65
 73
    4
 40
18.5
 49
12
 49
-1.5
 49
3.5
 49
-1.5
  0
LTYPE
  2
chain_double_dash
 70
   64
  3
------------ -- -- -------------
 72
   65
 73
    6
 40
23.5
 49
12
 49
-1.5
 49
3.5
 49
-1.5
 49
3.5
 49
-1.5
  0
LTYPE
  2
dashed_dotted
 70
   64
  3
-----------     -     ----------
 72
   65
 73
    4
 40
9.25
 49
6
 49
-1.5
 49
0.25
 49
-1.5
  0
LTYPE
  2
double-dashed_dotted
 70
   64
  3
------   -----------   -   -----
 72
   65
 73
    6
 40
16.75
 49
6
 49
-1.5
 49
6
 49
-1.5
 49
0.25
 49
-1.5
  0
LTYPE
  2
dashed_double-dotted
 70
   64
  3
---------    -    -    ---------
 72
   65
 73
    6
 40
11
 49
6
 49
-1.5
 49
0.25
 49
-1.5
 49
0.25
 49
-1.5
  0
LTYPE
  2
double-dashed_double-dotted
 70
   64
  3
-----   ---------   -   -   ----
 72
   65
 73
    8
 40
18.5
 49
6
 49
-1.5
 49
6
 49
-1.5
 49
0.25
 49
-1.5
 49
0.25
 49
-1.5
  0
LTYPE
  2
dashed_triplicate-dotted
 70
   64
  3
-------    -    -    -    ------
 72
   65
 73
    8
 40
12.75
 49
6
 49
-1.5
 49
0.25
 49
-1.5
 49
0.25
 49
-1.5
 49
0.25
 49
-1.5
  0
LTYPE
  2
double-dashed_triplicate-dotted
 70
   64
  3
-----  ---------  -  -  -  -----
 72
   65
 73
   10
 40
20.25
 49
6
 49
-1.5
 49
6
 49
-1.5
 49
0.25
 49
-1.5
 49
0.25
 49
-1.5
 49
0.25
 49
-1.5
  0
LTYPE
  2
undefined
 70
   64
  3
--------------------------------
 72
   65
 73
    0
 40
0
  0
ENDTAB
  0
TABLE
  2
STYLE
  5
3
100
AcDbSymbolTable
 70
     1
  0
STYLE
  5
10
100
AcDbSymbolTableRecord
100
AcDbTextStyleTableRecord
  2
STANDARD
 70
     0
 40
0.0
 41
1.0
 50
0.0
 71
     0
 42
0.2
  3
txt
  4
bigfont.shx
  0
STYLE
  5
26
100
AcDbSymbolTableRecord
100
AcDbTextStyleTableRecord
  2
TATEGAKI
 70
    68
 40
0.0
 41
1.0
 50
0.0
 71
     0
 42
1.0
  3
txt
  4
bigfont.shx
  0
ENDTAB
  0
TABLE
  2
LAYER
 70
    4
  0
LAYER
  2
_0-0_
 70
   64
 62
    7
  6
CONTINUOUS
  0
LAYER
  2
_0-1_
 70
   64
 62
    7
  6
CONTINUOUS
  0
LAYER
  2
_0-2_
 70
   64
 62
    7
  6
CONTINUOUS
  0
LAYER
  2
ADD_LINE
 70
   64
 62
    7
  6
CONTINUOUS
  0
ENDTAB
  0
ENDSEC
  0
SECTION
  2
BLOCKS
  0
ENDSEC
  0
SECTION
  2
ENTITIES
  0
LINE
  8
_0-0_
  6
CONTINUOUS
 62
    7
 10
182.37904474335284
 20
111.4629064563178
 11
161.37904474335284
 21
111.4629064563178
  0
LINE
  8
_0-0_
  6
CONTINUOUS
 62
    7
 10
160.87904474335284
 20
111.9629064563178
 11
160.87904474335284
 21
113.4629064563178
  0
LINE
  8
_0-0_
  6
CONTINUOUS
 62
    7
 10
154.87904474335284
 20
113.4629064563178
 11
188.87904474335284
 21
113.4629064563178
  0
LINE
  8
_0-0_
  6
CONTINUOUS
 62
    7
 10
188.87904474335284
 20
130.4629064563178
 11
154.87904474335284
 21
130.4629064563178
  0
LINE
  8
_0-0_
  6
CONTINUOUS
 62
    7
 10
160.37904474335284
 20
114.9629064563178
 11
160.37904474335284
 21
128.9629064563178
  0
LINE
  8
_0-0_
  6
CONTINUOUS
 62
    7
 10
157.87904474335284
 20
123.9629064563178
 11
157.87904474335284
 21
119.9629064563178
  0
LINE
  8
_0-0_
  6
CONTINUOUS
 62
    7
 10
153.87904474335284
 20
119.9629064563178
 11
153.87904474335284
 21
123.9629064563178
  0
LINE
  8
_0-0_
  6
CONTINUOUS
 62
    7
 10
189.62904474335284
 20
122.76290646823873
 11
188.97904476719469
 21
122.76290646823873
  0
LINE
  8
_0-0_
  6
CONTINUOUS
 62
    7
 10
188.97904476719469
 20
122.16290644439687
 11
189.62904474335284
 21
122.16290644439687
  0
LINE
  8
_0-0_
  6
CONTINUOUS
 62
    7
 10
189.62904474335284
 20
122.16290644439687
 11
189.62904474335284
 21
122.76290646823873
  0
LINE
  8
_0-0_
  6
CONTINUOUS
 62
    7
 10
188.17904475527376
 20
123.56290648015965
 11
188.17904475527376
 21
124.2129064563178
  0
LINE
  8
_0-0_
  6
CONTINUOUS
 62
    7
 10
188.17904475527376
 20
124.2129064563178
 11
187.57904473143191
 21
124.2129064563178
  0
LINE
  8
_0-0_
  6
CONTINUOUS
 62
    7
 10
187.57904473143191
 20
124.2129064563178
 11
187.57904473143191
 21
123.56290648015965
  0
LINE
  8
_0-0_
  6
CONTINUOUS
 62
    7
 10
186.77904471951098
 20
122.76290646823873
 11
186.12904474335284
 21
122.76290646823873
  0
LINE
  8
_0-0_
  6
CONTINUOUS
 62
    7
 10
186.12904474335284
 20
122.76290646823873
 11
186.12904474335284
 21
122.16290644439687
  0
LINE
  8
_0-0_
  6
CONTINUOUS
 62
    7
 10
186.12904474335284
 20
122.16290644439687
 11
186.77904471951098
 21
122.16290644439687
  0
LINE
  8
_0-0_
  6
CONTINUOUS
 62
    7
 10
187.57904473143191
 20
121.36290643247594
 11
187.57904473143191
 21
120.7129064563178
  0
LINE
  8
_0-0_
  6
CONTINUOUS
 62
    7
 10
187.57904473143191
 20
120.7129064563178
 11
188.17904475527376
 21
120.7129064563178
  0
LINE
  8
_0-0_
  6
CONTINUOUS
 62
    7
 10
188.17904475527376
 20
120.7129064563178
 11
188.17904475527376
 21
121.36290643247594
  0
LINE
  8
_0-0_
  6
CONTINUOUS
 62
    7
 10
183.37904474335284
 20
114.9629064563178
 11
183.37904474335284
 21
128.9629064563178
  0
LINE
  8
_0-0_
  6
CONTINUOUS
 62
    7
 10
151.87904474335284
 20
142.4629064563178
 11
151.87904474335284
 21
109.9629064563178
  0
LINE
  8
_0-0_
  6
CONTINUOUS
 62
    7
 10
151.87904474335284
 20
109.9629064563178
 11
191.87904474335284
 21
109.9629064563178
  0
LINE
  8
_0-0_
  6
CONTINUOUS
 62
    7
 10
191.87904474335284
 20
109.9629064563178
 11
191.87904474335284
 21
142.4629064563178
  0
LINE
  8
_0-0_
  6
CONTINUOUS
 62
    7
 10
191.87904474335284
 20
142.4629064563178
 11
151.87904474335284
 21
142.4629064563178
  0
LINE
  8
_0-0_
  6
CONTINUOUS
 62
    7
 10
182.87904474335284
 20
111.9629064563178
 11
182.87904474335284
 21
113.4629064563178
  0
ARC
  8
_0-0_
  6
CONTINUOUS
 62
    7
 10
155.87904474335284
 20
123.9629064563178
 40
2
 50
0
 51
180
  0
ARC
  8
_0-0_
  6
CONTINUOUS
 62
    7
 10
155.87904474335284
 20
119.9629064563178
 40
2
 50
180
 51
0
  0
ARC
  8
_0-0_
  6
CONTINUOUS
 62
    7
 10
161.87904474335284
 20
128.9629064563178
 40
1.5
 50
90
 51
180
  0
ARC
  8
_0-0_
  6
CONTINUOUS
 62
    7
 10
181.87904474335284
 20
128.9629064563178
 40
1.5
 50
0
 51
90
  0
ARC
  8
_0-0_
  6
CONTINUOUS
 62
    7
 10
181.87904474335284
 20
114.9629064563178
 40
1.5
 50
270
 51
0
  0
ARC
  8
_0-0_
  6
CONTINUOUS
 62
    7
 10
161.87904474335284
 20
114.9629064563178
 40
1.5
 50
180
 51
270
  0
ARC
  8
_0-0_
  6
CONTINUOUS
 62
    7
 10
154.87904474335284
 20
127.4629064563178
 40
3
 50
90
 51
180
  0
ARC
  8
_0-0_
  6
CONTINUOUS
 62
    7
 10
188.87904474335284
 20
127.4629064563178
 40
3
 50
0
 51
90
  0
ARC
  8
_0-0_
  6
CONTINUOUS
 62
    7
 10
188.87904474335284
 20
116.4629064563178
 40
3
 50
270
 51
0
  0
ARC
  8
_0-0_
  6
CONTINUOUS
 62
    7
 10
154.87904474335284
 20
116.4629064563178
 40
3
 50
180
 51
270
  0
ARC
  8
_0-0_
  6
CONTINUOUS
 62
    7
 10
161.37904474335284
 20
111.9629064563178
 40
0.5
 50
180
 51
270
  0
ARC
  8
_0-0_
  6
CONTINUOUS
 62
    7
 10
182.37904474335284
 20
111.9629064563178
 40
0.5
 50
270
 51
0
  0
CIRCLE
  8
_0-0_
  6
CONTINUOUS
 62
    7
 10
187.87904474335284
 20
122.4629064563178
 40
2.75
  0
ARC
  8
_0-0_
  6
CONTINUOUS
 62
    7
 10
188.97904476719469
 20
123.56290648015965
 40
0.8000000119209289
 50
180
 51
270
  0
ARC
  8
_0-0_
  6
CONTINUOUS
 62
    7
 10
188.97904476719469
 20
121.36290643247594
 40
0.8000000119209289
 50
90
 51
180
  0
ARC
  8
_0-0_
  6
CONTINUOUS
 62
    7
 10
186.77904471951098
 20
121.36290643247594
 40
0.8000000119209289
 50
0
 51
90
  0
ARC
  8
_0-0_
  6
CONTINUOUS
 62
    7
 10
186.77904471951098
 20
123.56290648015965
 40
0.8000000119209289
 50
270
 51
0
  0
CIRCLE
  8
_0-0_
  6
CONTINUOUS
 62
    7
 10
187.87904474335284
 20
122.4629064563178
 40
3.880000114440918
  0
ARC
  8
_0-0_
  6
CONTINUOUS
 62
    7
 10
187.87904474335284
 20
119.9629064563178
 40
2
 50
208.71414885062586
 51
331.28585114937425
  0
LINE
  8
_0-0_
  6
CONTINUOUS
 62
    7
 10
151.87904474335284
 20
61.293495836317788
 11
191.87904474335284
 21
61.293495836317788
  0
LINE
  8
_0-0_
  6
CONTINUOUS
 62
    7
 10
151.87904474335284
 20
61.293495836317788
 11
151.87904474335284
 21
45.993495836317834
  0
LINE
  8
_0-0_
  6
CONTINUOUS
 62
    7
 10
191.87904474335284
 20
61.293495836317788
 11
191.87904474335284
 21
45.993495836317834
  0
LINE
  8
_0-0_
  6
CONTINUOUS
 62
    7
 10
151.87904474335284
 20
61.293495836317788
 11
151.87904474335284
 21
63.293495836317788
  0
LINE
  8
_0-0_
  6
CONTINUOUS
 62
    7
 10
151.87904474335284
 20
61.293495836317788
 11
191.87904474335284
 21
61.293495836317788
  0
LINE
  8
_0-0_
  6
CONTINUOUS
 62
    7
 10
191.87904474335284
 20
61.293495836317788
 11
191.87904474335284
 21
63.293495836317788
  0
LINE
  8
_0-0_
  6
CONTINUOUS
 62
    7
 10
190.37904474335284
 20
64.793495836317788
 11
183.37904474335284
 21
64.793495836317788
  0
LINE
  8
_0-0_
  6
CONTINUOUS
 62
    7
 10
183.37904474335284
 20
64.793495836317788
 11
183.37904474335284
 21
69.793495836317788
  0
LINE
  8
_0-0_
  6
CONTINUOUS
 62
    7
 10
182.87904474335284
 20
68.793495836317788
 11
160.87904474335284
 21
68.793495836317788
  0
LINE
  8
_0-0_
  6
CONTINUOUS
 62
    7
 10
160.87904474335284
 20
68.793495836317788
 11
160.87904474335284
 21
61.293495836317788
  0
LINE
  8
_0-0_
  6
CONTINUOUS
 62
    7
 10
160.87904474335284
 20
62.793495836317788
 11
182.87904474335284
 21
62.793495836317788
  0
LINE
  8
_0-0_
  6
CONTINUOUS
 62
    7
 10
182.12904474335284
 20
62.793495836317788
 11
182.12904474335284
 21
68.793495836317788
  0
LINE
  8
_0-0_
  6
CONTINUOUS
 62
    7
 10
182.87904474335284
 20
68.793495836317788
 11
182.87904474335284
 21
61.293495836317788
  0
LINE
  8
_0-0_
  6
CONTINUOUS
 62
    7
 10
182.12904474335284
 20
63.793495836317788
 11
161.62904474335284
 21
63.793495836317788
  0
LINE
  8
_0-0_
  6
CONTINUOUS
 62
    7
 10
161.62904474335284
 20
62.793495836317788
 11
161.62904474335284
 21
68.793495836317788
  0
LINE
  8
_0-0_
  6
CONTINUOUS
 62
    7
 10
161.62904474335284
 20
67.793495836317788
 11
182.12904474335284
 21
67.793495836317788
  0
LINE
  8
_0-0_
  6
CONTINUOUS
 62
    7
 10
181.87904474335284
 20
71.293495836317788
 11
161.87904474335284
 21
71.293495836317788
  0
LINE
  8
_0-0_
  6
CONTINUOUS
 62
    7
 10
160.37904474335284
 20
69.793495836317788
 11
160.37904474335284
 21
64.793495836317788
  0
LINE
  8
_0-0_
  6
CONTINUOUS
 62
    7
 10
160.37904474335284
 20
64.793495836317788
 11
153.37904474335284
 21
64.793495836317788
  0
ARC
  8
_0-0_
  6
CONTINUOUS
 62
    7
 10
161.87904474335284
 20
69.793495836317788
 40
1.5
 50
90
 51
180
  0
ARC
  8
_0-0_
  6
CONTINUOUS
 62
    7
 10
153.37904474335284
 20
63.293495836317788
 40
1.5
 50
90
 51
180
  0
ARC
  8
_0-0_
  6
CONTINUOUS
 62
    7
 10
181.87904474335284
 20
69.793495836317788
 40
1.5
 50
0
 51
90
  0
ARC
  8
_0-0_
  6
CONTINUOUS
 62
    7
 10
190.37904474335284
 20
63.293495836317788
 40
1.5
 50
0
 51
90
  0
LINE
  8
_0-0_
  6
CONTINUOUS
 62
    7
 10
93.758301329070946
 20
111.4629064563178
 11
72.758301329070946
 21
111.4629064563178
  0
LINE
  8
_0-0_
  6
CONTINUOUS
 62
    7
 10
72.258301329070946
 20
111.9629064563178
 11
72.258301329070946
 21
113.4629064563178
  0
LINE
  8
_0-0_
  6
CONTINUOUS
 62
    7
 10
66.258301329070946
 20
113.4629064563178
 11
100.25830132907095
 21
113.4629064563178
  0
LINE
  8
_0-0_
  6
CONTINUOUS
 62
    7
 10
100.25830132907095
 20
130.4629064563178
 11
66.258301329070946
 21
130.4629064563178
  0
LINE
  8
_0-0_
  6
CONTINUOUS
 62
    7
 10
71.758301329070946
 20
114.9629064563178
 11
71.758301329070946
 21
128.9629064563178
  0
LINE
  8
_0-0_
  6
CONTINUOUS
 62
    7
 10
69.258301329070946
 20
123.9629064563178
 11
69.258301329070946
 21
119.9629064563178
  0
LINE
  8
_0-0_
  6
CONTINUOUS
 62
    7
 10
65.258301329070946
 20
119.9629064563178
 11
65.258301329070946
 21
123.9629064563178
  0
LINE
  8
_0-0_
  6
CONTINUOUS
 62
    7
 10
101.00830132907095
 20
122.76290646823873
 11
100.3583013529128
 21
122.76290646823873
  0
LINE
  8
_0-0_
  6
CONTINUOUS
 62
    7
 10
100.3583013529128
 20
122.16290644439687
 11
101.00830132907095
 21
122.16290644439687
  0
LINE
  8
_0-0_
  6
CONTINUOUS
 62
    7
 10
101.00830132907095
 20
122.16290644439687
 11
101.00830132907095
 21
122.76290646823873
  0
LINE
  8
_0-0_
  6
CONTINUOUS
 62
    7
 10
99.558301340991875
 20
123.56290648015965
 11
99.558301340991875
 21
124.2129064563178
  0
LINE
  8
_0-0_
  6
CONTINUOUS
 62
    7
 10
99.558301340991875
 20
124.2129064563178
 11
98.958301317150017
 21
124.2129064563178
  0
LINE
  8
_0-0_
  6
CONTINUOUS
 62
    7
 10
98.958301317150017
 20
124.2129064563178
 11
98.958301317150017
 21
123.56290648015965
  0
LINE
  8
_0-0_
  6
CONTINUOUS
 62
    7
 10
98.158301305229088
 20
122.76290646823873
 11
97.508301329070946
 21
122.76290646823873
  0
LINE
  8
_0-0_
  6
CONTINUOUS
 62
    7
 10
97.508301329070946
 20
122.76290646823873
 11
97.508301329070946
 21
122.16290644439687
  0
LINE
  8
_0-0_
  6
CONTINUOUS
 62
    7
 10
97.508301329070946
 20
122.16290644439687
 11
98.158301305229088
 21
122.16290644439687
  0
LINE
  8
_0-0_
  6
CONTINUOUS
 62
    7
 10
98.958301317150017
 20
121.36290643247594
 11
98.958301317150017
 21
120.7129064563178
  0
LINE
  8
_0-0_
  6
CONTINUOUS
 62
    7
 10
98.958301317150017
 20
120.7129064563178
 11
99.558301340991875
 21
120.7129064563178
  0
LINE
  8
_0-0_
  6
CONTINUOUS
 62
    7
 10
99.558301340991875
 20
120.7129064563178
 11
99.558301340991875
 21
121.36290643247594
  0
LINE
  8
_0-0_
  6
CONTINUOUS
 62
    7
 10
94.758301329070946
 20
114.9629064563178
 11
94.758301329070946
 21
128.9629064563178
  0
LINE
  8
_0-0_
  6
CONTINUOUS
 62
    7
 10
63.258301329070946
 20
109.9629064563178
 11
103.25830132907095
 21
109.9629064563178
  0
LINE
  8
_0-0_
  6
CONTINUOUS
 62
    7
 10
103.25830132907095
 20
109.9629064563178
 11
103.25830132907095
 21
142.4629064563178
  0
LINE
  8
_0-0_
  6
CONTINUOUS
 62
    7
 10
103.25830132907095
 20
142.4629064563178
 11
63.258301329070946
 21
142.4629064563178
  0
LINE
  8
_0-0_
  6
CONTINUOUS
 62
    7
 10
94.258301329070946
 20
111.9629064563178
 11
94.258301329070946
 21
113.4629064563178
  0
ARC
  8
_0-0_
  6
CONTINUOUS
 62
    7
 10
67.258301329070946
 20
123.9629064563178
 40
2
 50
0
 51
180
  0
ARC
  8
_0-0_
  6
CONTINUOUS
 62
    7
 10
67.258301329070946
 20
119.9629064563178
 40
2
 50
180
 51
0
  0
ARC
  8
_0-0_
  6
CONTINUOUS
 62
    7
 10
73.258301329070946
 20
128.9629064563178
 40
1.5
 50
90
 51
180
  0
ARC
  8
_0-0_
  6
CONTINUOUS
 62
    7
 10
93.258301329070946
 20
128.9629064563178
 40
1.5
 50
0
 51
90
  0
ARC
  8
_0-0_
  6
CONTINUOUS
 62
    7
 10
93.258301329070946
 20
114.9629064563178
 40
1.5
 50
270
 51
0
  0
ARC
  8
_0-0_
  6
CONTINUOUS
 62
    7
 10
73.258301329070946
 20
114.9629064563178
 40
1.5
 50
180
 51
270
  0
ARC
  8
_0-0_
  6
CONTINUOUS
 62
    7
 10
66.258301329070946
 20
127.4629064563178
 40
3
 50
90
 51
180
  0
ARC
  8
_0-0_
  6
CONTINUOUS
 62
    7
 10
100.25830132907095
 20
127.4629064563178
 40
3
 50
0
 51
90
  0
ARC
  8
_0-0_
  6
CONTINUOUS
 62
    7
 10
100.25830132907095
 20
116.4629064563178
 40
3
 50
270
 51
0
  0
ARC
  8
_0-0_
  6
CONTINUOUS
 62
    7
 10
66.258301329070946
 20
116.4629064563178
 40
3
 50
180
 51
270
  0
ARC
  8
_0-0_
  6
CONTINUOUS
 62
    7
 10
72.758301329070946
 20
111.9629064563178
 40
0.5
 50
180
 51
270
  0
ARC
  8
_0-0_
  6
CONTINUOUS
 62
    7
 10
93.758301329070946
 20
111.9629064563178
 40
0.5
 50
270
 51
0
  0
CIRCLE
  8
_0-0_
  6
CONTINUOUS
 62
    7
 10
99.258301329070946
 20
122.4629064563178
 40
2.75
  0
ARC
  8
_0-0_
  6
CONTINUOUS
 62
    7
 10
100.3583013529128
 20
123.56290648015965
 40
0.8000000119209289
 50
180
 51
270
  0
ARC
  8
_0-0_
  6
CONTINUOUS
 62
    7
 10
100.3583013529128
 20
121.36290643247594
 40
0.8000000119209289
 50
90
 51
180
  0
ARC
  8
_0-0_
  6
CONTINUOUS
 62
    7
 10
98.158301305229088
 20
121.36290643247594
 40
0.8000000119209289
 50
0
 51
90
  0
ARC
  8
_0-0_
  6
CONTINUOUS
 62
    7
 10
98.158301305229088
 20
123.56290648015965
 40
0.8000000119209289
 50
270
 51
0
  0
CIRCLE
  8
_0-0_
  6
CONTINUOUS
 62
    7
 10
99.258301329070946
 20
122.4629064563178
 40
3.880000114440918
  0
ARC
  8
_0-0_
  6
CONTINUOUS
 62
    7
 10
99.258301329070946
 20
119.9629064563178
 40
2
 50
208.71414885062586
 51
331.28585114937425
  0
LINE
  8
_0-0_
  6
CONTINUOUS
 62
    7
 10
63.258301329070946
 20
61.293495836317788
 11
103.25830132907095
 21
61.293495836317788
  0
LINE
  8
_0-0_
  6
CONTINUOUS
 62
    7
 10
103.25830132907095
 20
61.293495836317788
 11
103.25830132907095
 21
45.993495836317834
  0
LINE
  8
_0-0_
  6
CONTINUOUS
 62
    7
 10
63.258301329070946
 20
61.293495836317788
 11
63.258301329070946
 21
63.293495836317788
  0
LINE
  8
_0-0_
  6
CONTINUOUS
 62
    7
 10
63.258301329070946
 20
61.293495836317788
 11
103.25830132907095
 21
61.293495836317788
  0
LINE
  8
_0-0_
  6
CONTINUOUS
 62
    7
 10
103.25830132907095
 20
61.293495836317788
 11
103.25830132907095
 21
63.293495836317788
  0
LINE
  8
_0-0_
  6
CONTINUOUS
 62
    7
 10
101.75830132907095
 20
64.793495836317788
 11
94.758301329070946
 21
64.793495836317788
  0
LINE
  8
_0-0_
  6
CONTINUOUS
 62
    7
 10
94.758301329070946
 20
64.793495836317788
 11
94.758301329070946
 21
69.793495836317788
  0
LINE
  8
_0-0_
  6
CONTINUOUS
 62
    7
 10
94.258301329070946
 20
68.793495836317788
 11
72.258301329070946
 21
68.793495836317788
  0
LINE
  8
_0-0_
  6
CONTINUOUS
 62
    7
 10
72.258301329070946
 20
68.793495836317788
 11
72.258301329070946
 21
61.293495836317788
  0
LINE
  8
_0-0_
  6
CONTINUOUS
 62
    7
 10
72.258301329070946
 20
62.793495836317788
 11
94.258301329070946
 21
62.793495836317788
  0
LINE
  8
_0-0_
  6
CONTINUOUS
 62
    7
 10
93.508301329070946
 20
62.793495836317788
 11
93.508301329070946
 21
68.793495836317788
  0
LINE
  8
_0-0_
  6
CONTINUOUS
 62
    7
 10
94.258301329070946
 20
68.793495836317788
 11
94.258301329070946
 21
61.293495836317788
  0
LINE
  8
_0-0_
  6
CONTINUOUS
 62
    7
 10
93.508301329070946
 20
63.793495836317788
 11
73.008301329070946
 21
63.793495836317788
  0
LINE
  8
_0-0_
  6
CONTINUOUS
 62
    7
 10
73.008301329070946
 20
62.793495836317788
 11
73.008301329070946
 21
68.793495836317788
  0
LINE
  8
_0-0_
  6
CONTINUOUS
 62
    7
 10
73.008301329070946
 20
67.793495836317788
 11
93.508301329070946
 21
67.793495836317788
  0
LINE
  8
_0-0_
  6
CONTINUOUS
 62
    7
 10
93.258301329070946
 20
71.293495836317788
 11
73.258301329070946
 21
71.293495836317788
  0
LINE
  8
_0-0_
  6
CONTINUOUS
 62
    7
 10
71.758301329070946
 20
69.793495836317788
 11
71.758301329070946
 21
64.793495836317788
  0
LINE
  8
_0-0_
  6
CONTINUOUS
 62
    7
 10
71.758301329070946
 20
64.793495836317788
 11
64.758301329070946
 21
64.793495836317788
  0
ARC
  8
_0-0_
  6
CONTINUOUS
 62
    7
 10
73.258301329070946
 20
69.793495836317788
 40
1.5
 50
90
 51
180
  0
ARC
  8
_0-0_
  6
CONTINUOUS
 62
    7
 10
64.758301329070946
 20
63.293495836317788
 40
1.5
 50
90
 51
180
  0
ARC
  8
_0-0_
  6
CONTINUOUS
 62
    7
 10
93.258301329070946
 20
69.793495836317788
 40
1.5
 50
0
 51
90
  0
ARC
  8
_0-0_
  6
CONTINUOUS
 62
    7
 10
101.75830132907095
 20
63.293495836317788
 40
1.5
 50
0
 51
90
  0
LINE
  8
_0-0_
  6
CONTINUOUS
 62
    7
 10
32.75830132907106
 20
111.4629064563178
 11
53.758301329070946
 21
111.4629064563178
  0
LINE
  8
_0-0_
  6
CONTINUOUS
 62
    7
 10
54.258301329070946
 20
111.9629064563178
 11
54.258301329070946
 21
113.4629064563178
  0
LINE
  8
_0-0_
  6
CONTINUOUS
 62
    7
 10
60.258301329070946
 20
113.4629064563178
 11
26.25830132907106
 21
113.4629064563178
  0
LINE
  8
_0-0_
  6
CONTINUOUS
 62
    7
 10
26.25830132907106
 20
130.4629064563178
 11
60.258301329070946
 21
130.4629064563178
  0
LINE
  8
_0-0_
  6
CONTINUOUS
 62
    7
 10
54.758301329070946
 20
114.9629064563178
 11
54.758301329070946
 21
128.9629064563178
  0
LINE
  8
_0-0_
  6
CONTINUOUS
 62
    7
 10
31.75830132907106
 20
114.9629064563178
 11
31.75830132907106
 21
128.9629064563178
  0
LINE
  8
_0-0_
  6
CONTINUOUS
 62
    7
 10
63.258301329070946
 20
109.9629064563178
 11
23.25830132907106
 21
109.9629064563178
  0
LINE
  8
_0-0_
  6
CONTINUOUS
 62
    7
 10
23.25830132907106
 20
109.9629064563178
 11
23.25830132907106
 21
142.4629064563178
  0
LINE
  8
_0-0_
  6
CONTINUOUS
 62
    7
 10
23.25830132907106
 20
142.4629064563178
 11
63.258301329070946
 21
142.4629064563178
  0
LINE
  8
_0-0_
  6
CONTINUOUS
 62
    7
 10
32.25830132907106
 20
111.9629064563178
 11
32.25830132907106
 21
113.4629064563178
  0
ARC
  8
_0-0_
  6
CONTINUOUS
 62
    7
 10
53.258301329070946
 20
128.9629064563178
 40
1.5
 50
0
 51
90
  0
ARC
  8
_0-0_
  6
CONTINUOUS
 62
    7
 10
33.25830132907106
 20
128.9629064563178
 40
1.5
 50
90
 51
180
  0
ARC
  8
_0-0_
  6
CONTINUOUS
 62
    7
 10
33.25830132907106
 20
114.9629064563178
 40
1.5
 50
180
 51
270
  0
ARC
  8
_0-0_
  6
CONTINUOUS
 62
    7
 10
53.258301329070946
 20
114.9629064563178
 40
1.5
 50
270
 51
0
  0
ARC
  8
_0-0_
  6
CONTINUOUS
 62
    7
 10
53.758301329070946
 20
111.9629064563178
 40
0.5
 50
270
 51
0
  0
ARC
  8
_0-0_
  6
CONTINUOUS
 62
    7
 10
32.75830132907106
 20
111.9629064563178
 40
0.5
 50
180
 51
270
  0
LINE
  8
_0-0_
  6
CONTINUOUS
 62
    7
 10
63.258301329070946
 20
61.293495836317788
 11
23.25830132907106
 21
61.293495836317788
  0
LINE
  8
_0-0_
  6
CONTINUOUS
 62
    7
 10
23.25830132907106
 20
61.293495836317788
 11
23.25830132907106
 21
45.993495836317834
  0
LINE
  8
_0-0_
  6
CONTINUOUS
 62
    7
 10
63.258301329070946
 20
61.293495836317788
 11
63.258301329070946
 21
63.293495836317788
  0
LINE
  8
_0-0_
  6
CONTINUOUS
 62
    7
 10
63.258301329070946
 20
61.293495836317788
 11
23.25830132907106
 21
61.293495836317788
  0
LINE
  8
_0-0_
  6
CONTINUOUS
 62
    7
 10
23.25830132907106
 20
61.293495836317788
 11
23.25830132907106
 21
63.293495836317788
  0
LINE
  8
_0-0_
  6
CONTINUOUS
 62
    7
 10
24.75830132907106
 20
64.793495836317788
 11
31.75830132907106
 21
64.793495836317788
  0
LINE
  8
_0-0_
  6
CONTINUOUS
 62
    7
 10
31.75830132907106
 20
64.793495836317788
 11
31.75830132907106
 21
69.793495836317788
  0
LINE
  8
_0-0_
  6
CONTINUOUS
 62
    7
 10
32.25830132907106
 20
68.793495836317788
 11
54.258301329070946
 21
68.793495836317788
  0
LINE
  8
_0-0_
  6
CONTINUOUS
 62
    7
 10
54.258301329070946
 20
68.793495836317788
 11
54.258301329070946
 21
61.293495836317788
  0
LINE
  8
_0-0_
  6
CONTINUOUS
 62
    7
 10
54.258301329070946
 20
62.793495836317788
 11
32.25830132907106
 21
62.793495836317788
  0
LINE
  8
_0-0_
  6
CONTINUOUS
 62
    7
 10
33.00830132907106
 20
62.793495836317788
 11
33.00830132907106
 21
68.793495836317788
  0
LINE
  8
_0-0_
  6
CONTINUOUS
 62
    7
 10
32.25830132907106
 20
68.793495836317788
 11
32.25830132907106
 21
61.293495836317788
  0
LINE
  8
_0-0_
  6
CONTINUOUS
 62
    7
 10
33.00830132907106
 20
63.793495836317788
 11
53.508301329070946
 21
63.793495836317788
  0
LINE
  8
_0-0_
  6
CONTINUOUS
 62
    7
 10
53.508301329070946
 20
62.793495836317788
 11
53.508301329070946
 21
68.793495836317788
  0
LINE
  8
_0-0_
  6
CONTINUOUS
 62
    7
 10
53.508301329070946
 20
67.793495836317788
 11
33.00830132907106
 21
67.793495836317788
  0
LINE
  8
_0-0_
  6
CONTINUOUS
 62
    7
 10
33.25830132907106
 20
71.293495836317788
 11
53.258301329070946
 21
71.293495836317788
  0
LINE
  8
_0-0_
  6
CONTINUOUS
 62
    7
 10
54.758301329070946
 20
69.793495836317788
 11
54.758301329070946
 21
64.793495836317788
  0
LINE
  8
_0-0_
  6
CONTINUOUS
 62
    7
 10
54.758301329070946
 20
64.793495836317788
 11
61.758301329070946
 21
64.793495836317788
  0
ARC
  8
_0-0_
  6
CONTINUOUS
 62
    7
 10
53.258301329070946
 20
69.793495836317788
 40
1.5
 50
0
 51
90
  0
ARC
  8
_0-0_
  6
CONTINUOUS
 62
    7
 10
61.758301329070946
 20
63.293495836317788
 40
1.5
 50
0
 51
90
  0
ARC
  8
_0-0_
  6
CONTINUOUS
 62
    7
 10
33.25830132907106
 20
69.793495836317788
 40
1.5
 50
90
 51
180
  0
ARC
  8
_0-0_
  6
CONTINUOUS
 62
    7
 10
24.75830132907106
 20
63.293495836317788
 40
1.5
 50
90
 51
180
  0
LINE
  8
_0-0_
  6
CONTINUOUS
 62
    7
 10
63.258301329070946
 20
52.793465838317843
 11
63.258301329070946
 21
45.993495836317834
  0
LINE
  8
_0-0_
  6
CONTINUOUS
 62
    7
 10
63.258301329070946
 20
127.4629064563178
 11
63.258301329070946
 21
116.4629064563178
  0
LINE
  8
_0-0_
  6
CONTINUOUS
 62
    7
 10
29.25830132907106
 20
123.9629064563178
 11
29.25830132907106
 21
119.9629064563178
  0
LINE
  8
_0-0_
  6
CONTINUOUS
 62
    7
 10
25.25830132907106
 20
119.9629064563178
 11
25.25830132907106
 21
123.9629064563178
  0
LINE
  8
_0-0_
  6
CONTINUOUS
 62
    7
 10
61.008301329070946
 20
122.76290646823873
 11
60.358301352912804
 21
122.76290646823873
  0
LINE
  8
_0-0_
  6
CONTINUOUS
 62
    7
 10
60.358301352912804
 20
122.16290644439687
 11
61.008301329070946
 21
122.16290644439687
  0
LINE
  8
_0-0_
  6
CONTINUOUS
 62
    7
 10
61.008301329070946
 20
122.16290644439687
 11
61.008301329070946
 21
122.76290646823873
  0
LINE
  8
_0-0_
  6
CONTINUOUS
 62
    7
 10
59.558301340991875
 20
123.56290648015965
 11
59.558301340991875
 21
124.2129064563178
  0
LINE
  8
_0-0_
  6
CONTINUOUS
 62
    7
 10
59.558301340991875
 20
124.2129064563178
 11
58.958301317150017
 21
124.2129064563178
  0
LINE
  8
_0-0_
  6
CONTINUOUS
 62
    7
 10
58.958301317150017
 20
124.2129064563178
 11
58.958301317150017
 21
123.56290648015965
  0
LINE
  8
_0-0_
  6
CONTINUOUS
 62
    7
 10
58.158301305229088
 20
122.76290646823873
 11
57.508301329070946
 21
122.76290646823873
  0
LINE
  8
_0-0_
  6
CONTINUOUS
 62
    7
 10
57.508301329070946
 20
122.76290646823873
 11
57.508301329070946
 21
122.16290644439687
  0
LINE
  8
_0-0_
  6
CONTINUOUS
 62
    7
 10
57.508301329070946
 20
122.16290644439687
 11
58.158301305229088
 21
122.16290644439687
  0
LINE
  8
_0-0_
  6
CONTINUOUS
 62
    7
 10
58.958301317150017
 20
121.36290643247594
 11
58.958301317150017
 21
120.7129064563178
  0
LINE
  8
_0-0_
  6
CONTINUOUS
 62
    7
 10
58.958301317150017
 20
120.7129064563178
 11
59.558301340991875
 21
120.7129064563178
  0
LINE
  8
_0-0_
  6
CONTINUOUS
 62
    7
 10
59.558301340991875
 20
120.7129064563178
 11
59.558301340991875
 21
121.36290643247594
  0
ARC
  8
_0-0_
  6
CONTINUOUS
 62
    7
 10
27.25830132907106
 20
123.9629064563178
 40
2
 50
0.0000000000000063
 51
180
  0
ARC
  8
_0-0_
  6
CONTINUOUS
 62
    7
 10
27.25830132907106
 20
119.9629064563178
 40
2
 50
180
 51
0
  0
ARC
  8
_0-0_
  6
CONTINUOUS
 62
    7
 10
26.25830132907106
 20
127.4629064563178
 40
3
 50
90
 51
180
  0
ARC
  8
_0-0_
  6
CONTINUOUS
 62
    7
 10
60.258301329070946
 20
127.4629064563178
 40
3
 50
0.0000000000000127
 51
90.000000000000014
  0
ARC
  8
_0-0_
  6
CONTINUOUS
 62
    7
 10
60.258301329070946
 20
116.4629064563178
 40
3
 50
270
 51
0
  0
ARC
  8
_0-0_
  6
CONTINUOUS
 62
    7
 10
26.25830132907106
 20
116.4629064563178
 40
3
 50
180
 51
270
  0
CIRCLE
  8
_0-0_
  6
CONTINUOUS
 62
    7
 10
59.258301329070946
 20
122.4629064563178
 40
2.75
  0
ARC
  8
_0-0_
  6
CONTINUOUS
 62
    7
 10
60.358301352912804
 20
123.56290648015965
 40
0.8000000119209289
 50
180
 51
270
  0
ARC
  8
_0-0_
  6
CONTINUOUS
 62
    7
 10
60.358301352912804
 20
121.36290643247594
 40
0.8000000119209289
 50
90
 51
180
  0
ARC
  8
_0-0_
  6
CONTINUOUS
 62
    7
 10
58.158301305229088
 20
121.36290643247594
 40
0.8000000119209289
 50
0.0000000000000127
 51
90.000000000000014
  0
ARC
  8
_0-0_
  6
CONTINUOUS
 62
    7
 10
58.158301305229088
 20
123.56290648015965
 40
0.8000000119209289
 50
270
 51
0
  0
CIRCLE
  8
_0-0_
  6
CONTINUOUS
 62
    7
 10
59.258301329070946
 20
122.4629064563178
 40
3.880000114440918
  0
ARC
  8
_0-0_
  6
CONTINUOUS
 62
    7
 10
59.258301329070946
 20
119.9629064563178
 40
2
 50
208.71414885062586
 51
331.28585114937425
  0
LINE
  8
_0-0_
  6
CONTINUOUS
 62
    7
 10
263.24748734527259
 20
71.293515838188796
 11
277.24748734527236
 21
71.293515838188796
  0
LINE
  8
_0-0_
  6
CONTINUOUS
 62
    7
 10
278.74748734527236
 20
69.793515838188796
 11
278.74748734527236
 21
61.293515838188341
  0
LINE
  8
_0-0_
  6
CONTINUOUS
 62
    7
 10
278.74748734527236
 20
61.293515838188341
 11
261.74748734527259
 21
61.293515838188341
  0
LINE
  8
_0-0_
  6
CONTINUOUS
 62
    7
 10
261.74748734527259
 20
61.293515838188341
 11
261.74748734527259
 21
69.793515838188796
  0
LINE
  8
_0-0_
  6
CONTINUOUS
 62
    7
 10
261.74748734527259
 20
68.793515838188341
 11
259.74748734527259
 21
68.793515838188341
  0
LINE
  8
_0-0_
  6
CONTINUOUS
 62
    7
 10
259.74748734527259
 20
68.793515838188341
 11
259.74748734527259
 21
62.793515838188341
  0
LINE
  8
_0-0_
  6
CONTINUOUS
 62
    7
 10
259.74748734527259
 20
62.793515838188341
 11
261.74748734527259
 21
62.793515838188341
  0
LINE
  8
_0-0_
  6
CONTINUOUS
 62
    7
 10
261.74748734527259
 20
63.793515838188341
 11
259.74748734527259
 21
63.793515838188341
  0
LINE
  8
_0-0_
  6
CONTINUOUS
 62
    7
 10
258.74748734527259
 20
61.293515838188341
 11
261.34748734527273
 21
61.293515838188341
  0
LINE
  8
_0-0_
  6
CONTINUOUS
 62
    7
 10
261.64748734527245
 20
60.993515838188614
 11
261.64748734527245
 21
60.093515838188523
  0
LINE
  8
_0-0_
  6
CONTINUOUS
 62
    7
 10
261.34748734527273
 20
59.793515838188341
 11
260.74748734527259
 21
59.793515838188341
  0
LINE
  8
_0-0_
  6
CONTINUOUS
 62
    7
 10
260.44748734527263
 20
59.493515838188614
 11
260.44748734527263
 21
57.293515838188341
  0
LINE
  8
_0-0_
  6
CONTINUOUS
 62
    7
 10
260.74748734527259
 20
56.993515838188614
 11
261.34748734527273
 21
56.993515838188614
  0
LINE
  8
_0-0_
  6
CONTINUOUS
 62
    7
 10
261.64748734527245
 20
56.693515838188432
 11
261.64748734527245
 21
55.893515838188705
  0
LINE
  8
_0-0_
  6
CONTINUOUS
 62
    7
 10
261.94748734527263
 20
55.593515838188523
 11
264.54748734527254
 21
55.593515838188523
  0
LINE
  8
_0-0_
  6
CONTINUOUS
 62
    7
 10
264.84748734527273
 20
55.893515838188705
 11
264.84748734527273
 21
56.693515838188432
  0
LINE
  8
_0-0_
  6
CONTINUOUS
 62
    7
 10
265.14748734527245
 20
56.993515838188614
 11
265.74748734527259
 21
56.993515838188614
  0
LINE
  8
_0-0_
  6
CONTINUOUS
 62
    7
 10
266.04748734527254
 20
57.293515838188341
 11
266.04748734527254
 21
59.493515838188614
  0
LINE
  8
_0-0_
  6
CONTINUOUS
 62
    7
 10
265.74748734527259
 20
59.793515838188341
 11
265.14748734527245
 21
59.793515838188341
  0
LINE
  8
_0-0_
  6
CONTINUOUS
 62
    7
 10
264.84748734527273
 20
60.093515838188523
 11
264.84748734527273
 21
60.993515838188159
  0
LINE
  8
_0-0_
  6
DASHED3
 62
    7
 10
266.24748734527236
 20
61.293515838188341
 11
266.24748734527236
 21
64.793515838188796
  0
LINE
  8
_0-0_
  6
DASHED3
 62
    7
 10
274.24748734527259
 20
64.793515838188796
 11
274.24748734527259
 21
61.293515838188341
  0
LINE
  8
_0-0_
  6
CONTINUOUS
 62
    7
 10
272.34748734527273
 20
60.993515838188159
 11
272.34748734527273
 21
60.093515838188523
  0
LINE
  8
_0-0_
  6
CONTINUOUS
 62
    7
 10
272.64748734527245
 20
59.793515838188341
 11
273.24748734527259
 21
59.793515838188341
  0
LINE
  8
_0-0_
  6
CONTINUOUS
 62
    7
 10
273.54748734527254
 20
59.493515838188159
 11
273.54748734527254
 21
57.293515838188341
  0
LINE
  8
_0-0_
  6
CONTINUOUS
 62
    7
 10
273.24748734527259
 20
56.993515838188159
 11
272.64748734527245
 21
56.993515838188159
  0
LINE
  8
_0-0_
  6
CONTINUOUS
 62
    7
 10
272.34748734527273
 20
56.693515838188432
 11
272.34748734527273
 21
55.893515838188705
  0
LINE
  8
_0-0_
  6
CONTINUOUS
 62
    7
 10
272.04748734527254
 20
55.593515838188523
 11
269.44748734527263
 21
55.593515838188523
  0
LINE
  8
_0-0_
  6
CONTINUOUS
 62
    7
 10
269.14748734527245
 20
55.893515838188705
 11
269.14748734527245
 21
56.693515838188432
  0
LINE
  8
_0-0_
  6
CONTINUOUS
 62
    7
 10
268.84748734527273
 20
56.993515838188614
 11
268.24748734527259
 21
56.993515838188614
  0
LINE
  8
_0-0_
  6
CONTINUOUS
 62
    7
 10
267.94748734527263
 20
57.293515838188341
 11
267.94748734527263
 21
59.493515838188159
  0
LINE
  8
_0-0_
  6
CONTINUOUS
 62
    7
 10
268.24748734527259
 20
59.793515838188341
 11
268.84748734527273
 21
59.793515838188341
  0
LINE
  8
_0-0_
  6
CONTINUOUS
 62
    7
 10
269.14748734527245
 20
60.093515838188523
 11
269.14748734527245
 21
60.993515838188159
  0
LINE
  8
_0-0_
  6
CONTINUOUS
 62
    7
 10
263.84748734527273
 20
53.793515838188341
 11
290.24748734527259
 21
53.793515838188341
  0
LINE
  8
_0-0_
  6
CONTINUOUS
 62
    7
 10
290.74748734527259
 20
54.293515838188341
 11
290.74748734527259
 21
60.793515838188341
  0
LINE
  8
_0-0_
  6
CONTINUOUS
 62
    7
 10
290.24748734527259
 20
61.293515838188341
 11
287.64748734527245
 21
61.293515838188341
  0
LINE
  8
_0-0_
  6
CONTINUOUS
 62
    7
 10
287.34748734527273
 20
60.993515838188159
 11
287.34748734527273
 21
60.093515838188523
  0
LINE
  8
_0-0_
  6
CONTINUOUS
 62
    7
 10
287.64748734527245
 20
59.793515838188341
 11
288.24748734527259
 21
59.793515838188341
  0
LINE
  8
_0-0_
  6
CONTINUOUS
 62
    7
 10
288.54748734527254
 20
59.493515838188159
 11
288.54748734527254
 21
57.293515838188341
  0
LINE
  8
_0-0_
  6
CONTINUOUS
 62
    7
 10
288.24748734527259
 20
56.993515838188159
 11
287.64748734527245
 21
56.993515838188159
  0
LINE
  8
_0-0_
  6
CONTINUOUS
 62
    7
 10
287.34748734527273
 20
56.693515838188432
 11
287.34748734527273
 21
55.893515838188705
  0
LINE
  8
_0-0_
  6
CONTINUOUS
 62
    7
 10
287.04748734527254
 20
55.593515838188523
 11
284.44748734527263
 21
55.593515838188523
  0
LINE
  8
_0-0_
  6
CONTINUOUS
 62
    7
 10
284.14748734527245
 20
55.893515838188705
 11
284.14748734527245
 21
56.693515838188432
  0
LINE
  8
_0-0_
  6
CONTINUOUS
 62
    7
 10
283.84748734527273
 20
56.993515838188159
 11
283.24748734527259
 21
56.993515838188159
  0
LINE
  8
_0-0_
  6
CONTINUOUS
 62
    7
 10
282.94748734527263
 20
57.293515838188341
 11
282.94748734527263
 21
59.493515838188159
  0
LINE
  8
_0-0_
  6
CONTINUOUS
 62
    7
 10
283.24748734527259
 20
59.793515838188341
 11
283.84748734527273
 21
59.793515838188341
  0
LINE
  8
_0-0_
  6
CONTINUOUS
 62
    7
 10
284.14748734527245
 20
60.093515838188523
 11
284.14748734527245
 21
60.993515838188159
  0
LINE
  8
_0-0_
  6
CONTINUOUS
 62
    7
 10
283.84748734527273
 20
61.293515838188341
 11
280.14748734527245
 21
61.293515838188341
  0
LINE
  8
_0-0_
  6
CONTINUOUS
 62
    7
 10
279.84748734527273
 20
60.993515838188159
 11
279.84748734527273
 21
60.093515838188523
  0
LINE
  8
_0-0_
  6
CONTINUOUS
 62
    7
 10
280.14748734527245
 20
59.793515838188341
 11
280.74748734527259
 21
59.793515838188341
  0
LINE
  8
_0-0_
  6
CONTINUOUS
 62
    7
 10
281.04748734527254
 20
59.493515838188159
 11
281.04748734527254
 21
57.293515838188341
  0
LINE
  8
_0-0_
  6
CONTINUOUS
 62
    7
 10
280.74748734527259
 20
56.993515838188159
 11
280.14748734527245
 21
56.993515838188159
  0
LINE
  8
_0-0_
  6
CONTINUOUS
 62
    7
 10
279.84748734527273
 20
56.693515838188432
 11
279.84748734527273
 21
55.893515838188705
  0
LINE
  8
_0-0_
  6
CONTINUOUS
 62
    7
 10
279.54748734527254
 20
55.593515838188523
 11
276.94748734527263
 21
55.593515838188523
  0
LINE
  8
_0-0_
  6
CONTINUOUS
 62
    7
 10
276.64748734527245
 20
55.893515838188705
 11
276.64748734527245
 21
56.693515838188432
  0
LINE
  8
_0-0_
  6
CONTINUOUS
 62
    7
 10
276.34748734527273
 20
56.993515838188159
 11
275.74748734527259
 21
56.993515838188159
  0
LINE
  8
_0-0_
  6
CONTINUOUS
 62
    7
 10
275.44748734527263
 20
57.293515838188341
 11
275.44748734527263
 21
59.493515838188159
  0
LINE
  8
_0-0_
  6
CONTINUOUS
 62
    7
 10
275.74748734527259
 20
59.793515838188341
 11
276.34748734527273
 21
59.793515838188341
  0
LINE
  8
_0-0_
  6
CONTINUOUS
 62
    7
 10
276.64748734527245
 20
60.093515838188523
 11
276.64748734527245
 21
60.993515838188159
  0
LINE
  8
_0-0_
  6
CONTINUOUS
 62
    7
 10
277.24748734527236
 20
64.793515838188796
 11
263.24748734527259
 21
64.793515838188796
  0
LINE
  8
_0-0_
  6
CONTINUOUS
 62
    7
 10
263.34748734527273
 20
53.293515838188341
 11
263.34748734527273
 21
50.493515838188614
  0
LINE
  8
_0-0_
  6
CONTINUOUS
 62
    7
 10
263.84748734527273
 20
49.993515838188159
 11
264.54038056408615
 21
49.993515838188159
  0
LINE
  8
_0-0_
  6
CONTINUOUS
 62
    7
 10
264.89393395467926
 20
49.847069228781493
 11
266.10104073586592
 21
48.639962447595281
  0
LINE
  8
_0-0_
  6
CONTINUOUS
 62
    7
 10
266.24748734527259
 20
48.286409057001947
 11
266.24748734527259
 21
46.493515838188159
  0
LINE
  8
_0-0_
  6
CONTINUOUS
 62
    7
 10
265.74748734527259
 20
45.993515838188159
 11
260.45459412645903
 21
45.993515838188159
  0
LINE
  8
_0-0_
  6
CONTINUOUS
 62
    7
 10
258.24748734527248
 20
47.493485838188917
 11
258.24748734527248
 21
60.793515838188341
  0
LINE
  8
_0-0_
  6
CONTINUOUS
 62
    7
 10
259.74748734527259
 20
67.793515838188341
 11
261.74748734527259
 21
67.793515838188341
  0
LINE
  8
_0-0_
  6
CONTINUOUS
 62
    7
 10
257.74748734527236
 20
52.79348583818819
 11
257.0814073452724
 21
52.79348583818819
  0
LINE
  8
_0-0_
  6
CONTINUOUS
 62
    7
 10
256.83139734527242
 20
52.726495838188839
 11
256.19747734527243
 21
52.360485838188197
  0
LINE
  8
_0-0_
  6
CONTINUOUS
 62
    7
 10
255.69748734527241
 20
52.360475838188449
 11
255.06343734527229
 21
52.726505838188586
  0
LINE
  8
_0-0_
  6
CONTINUOUS
 62
    7
 10
254.81345734527224
 20
52.79348583818819
 11
254.15650734527264
 21
52.79348583818819
  0
LINE
  8
_0-0_
  6
CONTINUOUS
 62
    7
 10
253.7092873452724
 20
52.51708583818845
 11
251.30928734527231
 21
47.717085838188268
  0
LINE
  8
_0-0_
  6
CONTINUOUS
 62
    7
 10
251.75650734527255
 20
46.993485838188917
 11
257.74748734527236
 21
46.993485838188917
  0
LINE
  8
_0-0_
  6
CONTINUOUS
 62
    7
 10
257.44748734527241
 20
46.993485838188917
 11
257.44748734527241
 21
44.29348583818819
  0
LINE
  8
_0-0_
  6
CONTINUOUS
 62
    7
 10
257.44748734527241
 20
44.29348583818819
 11
256.94748734527241
 21
43.79348583818819
  0
LINE
  8
_0-0_
  6
CONTINUOUS
 62
    7
 10
256.94748734527241
 20
43.79348583818819
 11
254.94748734527241
 21
43.79348583818819
  0
LINE
  8
_0-0_
  6
CONTINUOUS
 62
    7
 10
254.94748734527241
 20
43.79348583818819
 11
254.44748734527241
 21
44.29348583818819
  0
LINE
  8
_0-0_
  6
CONTINUOUS
 62
    7
 10
254.44748734527241
 20
44.29348583818819
 11
254.44748734527241
 21
46.993485838188917
  0
ARC
  8
_0-0_
  6
CONTINUOUS
 62
    7
 10
251.75650734527255
 20
47.493485838188917
 40
0.5
 50
153.43494000000001
 51
270
  0
ARC
  8
_0-0_
  6
CONTINUOUS
 62
    7
 10
257.74748734527236
 20
47.493485838188917
 40
0.5
 50
270
 51
0
  0
ARC
  8
_0-0_
  6
CONTINUOUS
 62
    7
 10
257.74748734527236
 20
52.29348583818819
 40
0.5
 50
0
 51
90
  0
ARC
  8
_0-0_
  6
CONTINUOUS
 62
    7
 10
257.0814073452724
 20
52.29348583818819
 40
0.5
 50
90
 51
120.00067999999999
  0
ARC
  8
_0-0_
  6
CONTINUOUS
 62
    7
 10
255.94746734527246
 20
52.793495838188846
 40
0.5
 50
240.00262000000015
 51
300.00068400000021
  0
ARC
  8
_0-0_
  6
CONTINUOUS
 62
    7
 10
254.81345734527224
 20
52.29348583818819
 40
0.5
 50
60.002620000000014
 51
90
  0
ARC
  8
_0-0_
  6
CONTINUOUS
 62
    7
 10
254.15650734527264
 20
52.29348583818819
 40
0.5
 50
90
 51
153.43494000000001
  0
ARC
  8
_0-0_
  6
CONTINUOUS
 62
    7
 10
261.34748734527273
 20
60.993515838188614
 40
0.2999999999999998
 50
0
 51
90
  0
ARC
  8
_0-0_
  6
CONTINUOUS
 62
    7
 10
261.34748734527273
 20
60.093515838188523
 40
0.2999999999999998
 50
270
 51
0
  0
ARC
  8
_0-0_
  6
CONTINUOUS
 62
    7
 10
260.74748734527259
 20
59.493515838188614
 40
0.2999999999999998
 50
90
 51
180
  0
ARC
  8
_0-0_
  6
CONTINUOUS
 62
    7
 10
260.74748734527259
 20
57.293515838188341
 40
0.2999999999999998
 50
180
 51
270
  0
ARC
  8
_0-0_
  6
CONTINUOUS
 62
    7
 10
261.34748734527273
 20
56.693515838188432
 40
0.2999999999999998
 50
0
 51
90
  0
ARC
  8
_0-0_
  6
CONTINUOUS
 62
    7
 10
261.94748734527263
 20
55.893515838188705
 40
0.2999999999999998
 50
180
 51
270
  0
ARC
  8
_0-0_
  6
CONTINUOUS
 62
    7
 10
264.54748734527254
 20
55.893515838188705
 40
0.2999999999999998
 50
270
 51
0
  0
ARC
  8
_0-0_
  6
CONTINUOUS
 62
    7
 10
265.14748734527245
 20
56.693515838188432
 40
0.2999999999999998
 50
90
 51
180
  0
ARC
  8
_0-0_
  6
CONTINUOUS
 62
    7
 10
265.74748734527259
 20
57.293515838188341
 40
0.2999999999999998
 50
270
 51
0
  0
ARC
  8
_0-0_
  6
CONTINUOUS
 62
    7
 10
265.74748734527259
 20
59.493515838188614
 40
0.2999999999999998
 50
0
 51
90
  0
ARC
  8
_0-0_
  6
CONTINUOUS
 62
    7
 10
265.14748734527245
 20
60.093515838188523
 40
0.2999999999999998
 50
180
 51
270
  0
ARC
  8
_0-0_
  6
CONTINUOUS
 62
    7
 10
265.14748734527245
 20
60.993515838188159
 40
0.2999999999999998
 50
90
 51
180
  0
ARC
  8
_0-0_
  6
CONTINUOUS
 62
    7
 10
258.74748734527259
 20
60.793515838188341
 40
0.5
 50
90
 51
180
  0
ARC
  8
_0-0_
  6
CONTINUOUS
 62
    7
 10
268.84748734527273
 20
60.993515838188159
 40
0.2999999999999998
 50
0
 51
90
  0
ARC
  8
_0-0_
  6
CONTINUOUS
 62
    7
 10
268.84748734527273
 20
60.093515838188523
 40
0.2999999999999998
 50
270
 51
0
  0
ARC
  8
_0-0_
  6
CONTINUOUS
 62
    7
 10
268.24748734527259
 20
59.493515838188159
 40
0.2999999999999998
 50
90
 51
180
  0
ARC
  8
_0-0_
  6
CONTINUOUS
 62
    7
 10
268.24748734527259
 20
57.293515838188341
 40
0.2999999999999998
 50
180
 51
270
  0
ARC
  8
_0-0_
  6
CONTINUOUS
 62
    7
 10
268.84748734527273
 20
56.693515838188432
 40
0.2999999999999998
 50
0
 51
90
  0
ARC
  8
_0-0_
  6
CONTINUOUS
 62
    7
 10
269.44748734527263
 20
55.893515838188705
 40
0.2999999999999998
 50
180
 51
270
  0
ARC
  8
_0-0_
  6
CONTINUOUS
 62
    7
 10
272.04748734527254
 20
55.893515838188705
 40
0.2999999999999998
 50
270
 51
0
  0
ARC
  8
_0-0_
  6
CONTINUOUS
 62
    7
 10
272.64748734527245
 20
56.693515838188432
 40
0.2999999999999998
 50
90
 51
180
  0
ARC
  8
_0-0_
  6
CONTINUOUS
 62
    7
 10
273.24748734527259
 20
57.293515838188341
 40
0.2999999999999998
 50
270
 51
0
  0
ARC
  8
_0-0_
  6
CONTINUOUS
 62
    7
 10
273.24748734527259
 20
59.493515838188159
 40
0.2999999999999998
 50
0
 51
90
  0
ARC
  8
_0-0_
  6
CONTINUOUS
 62
    7
 10
272.64748734527245
 20
60.093515838188523
 40
0.2999999999999998
 50
180
 51
270
  0
ARC
  8
_0-0_
  6
CONTINUOUS
 62
    7
 10
272.64748734527245
 20
60.993515838188159
 40
0.2999999999999998
 50
90
 51
180
  0
ARC
  8
_0-0_
  6
CONTINUOUS
 62
    7
 10
276.34748734527273
 20
60.993515838188159
 40
0.2999999999999998
 50
0
 51
90
  0
ARC
  8
_0-0_
  6
CONTINUOUS
 62
    7
 10
276.34748734527273
 20
60.093515838188523
 40
0.2999999999999998
 50
270
 51
0
  0
ARC
  8
_0-0_
  6
CONTINUOUS
 62
    7
 10
275.74748734527259
 20
59.493515838188159
 40
0.2999999999999998
 50
90
 51
180
  0
ARC
  8
_0-0_
  6
CONTINUOUS
 62
    7
 10
275.74748734527259
 20
57.293515838188341
 40
0.2999999999999998
 50
180
 51
270
  0
ARC
  8
_0-0_
  6
CONTINUOUS
 62
    7
 10
276.34748734527273
 20
56.693515838188432
 40
0.2999999999999998
 50
0
 51
90
  0
ARC
  8
_0-0_
  6
CONTINUOUS
 62
    7
 10
276.94748734527263
 20
55.893515838188705
 40
0.2999999999999998
 50
180
 51
270
  0
ARC
  8
_0-0_
  6
CONTINUOUS
 62
    7
 10
279.54748734527254
 20
55.893515838188705
 40
0.2999999999999998
 50
270
 51
0
  0
ARC
  8
_0-0_
  6
CONTINUOUS
 62
    7
 10
280.14748734527245
 20
56.693515838188432
 40
0.2999999999999998
 50
90
 51
180
  0
ARC
  8
_0-0_
  6
CONTINUOUS
 62
    7
 10
280.74748734527259
 20
57.293515838188341
 40
0.2999999999999998
 50
270
 51
0
  0
ARC
  8
_0-0_
  6
CONTINUOUS
 62
    7
 10
280.74748734527259
 20
59.493515838188159
 40
0.2999999999999998
 50
0
 51
90
  0
ARC
  8
_0-0_
  6
CONTINUOUS
 62
    7
 10
280.14748734527245
 20
60.093515838188523
 40
0.2999999999999998
 50
180
 51
270
  0
ARC
  8
_0-0_
  6
CONTINUOUS
 62
    7
 10
280.14748734527245
 20
60.993515838188159
 40
0.2999999999999998
 50
90
 51
180
  0
ARC
  8
_0-0_
  6
CONTINUOUS
 62
    7
 10
283.84748734527273
 20
60.993515838188159
 40
0.2999999999999998
 50
0
 51
90
  0
ARC
  8
_0-0_
  6
CONTINUOUS
 62
    7
 10
283.84748734527273
 20
60.093515838188523
 40
0.2999999999999998
 50
270
 51
0
  0
ARC
  8
_0-0_
  6
CONTINUOUS
 62
    7
 10
283.24748734527259
 20
59.493515838188159
 40
0.2999999999999998
 50
90
 51
180
  0
ARC
  8
_0-0_
  6
CONTINUOUS
 62
    7
 10
283.24748734527259
 20
57.293515838188341
 40
0.2999999999999998
 50
180
 51
270
  0
ARC
  8
_0-0_
  6
CONTINUOUS
 62
    7
 10
283.84748734527273
 20
56.693515838188432
 40
0.2999999999999998
 50
0
 51
90
  0
ARC
  8
_0-0_
  6
CONTINUOUS
 62
    7
 10
284.44748734527263
 20
55.893515838188705
 40
0.2999999999999998
 50
180
 51
270
  0
ARC
  8
_0-0_
  6
CONTINUOUS
 62
    7
 10
287.04748734527254
 20
55.893515838188705
 40
0.2999999999999998
 50
270
 51
0
  0
ARC
  8
_0-0_
  6
CONTINUOUS
 62
    7
 10
287.64748734527245
 20
56.693515838188432
 40
0.2999999999999998
 50
90
 51
180
  0
ARC
  8
_0-0_
  6
CONTINUOUS
 62
    7
 10
288.24748734527259
 20
57.293515838188341
 40
0.2999999999999998
 50
270
 51
0
  0
ARC
  8
_0-0_
  6
CONTINUOUS
 62
    7
 10
288.24748734527259
 20
59.493515838188159
 40
0.2999999999999998
 50
0
 51
90
  0
ARC
  8
_0-0_
  6
CONTINUOUS
 62
    7
 10
287.64748734527245
 20
60.093515838188523
 40
0.2999999999999998
 50
180
 51
270
  0
ARC
  8
_0-0_
  6
CONTINUOUS
 62
    7
 10
287.64748734527245
 20
60.993515838188159
 40
0.2999999999999998
 50
90
 51
180
  0
ARC
  8
_0-0_
  6
CONTINUOUS
 62
    7
 10
258.74748734527259
 20
48.200622619374826
 40
0.5
 50
180
 51
225
  0
ARC
  8
_0-0_
  6
CONTINUOUS
 62
    7
 10
260.45459412645903
 20
46.493515838188159
 40
0.5
 50
225.00000000000006
 51
270
  0
ARC
  8
_0-0_
  6
CONTINUOUS
 62
    7
 10
265.74748734527259
 20
46.493515838188159
 40
0.5
 50
270
 51
0
  0
ARC
  8
_0-0_
  6
CONTINUOUS
 62
    7
 10
265.74748734527259
 20
48.286409057001947
 40
0.5
 50
0
 51
45
  0
ARC
  8
_0-0_
  6
CONTINUOUS
 62
    7
 10
264.54038056408615
 20
49.493515838188159
 40
0.5
 50
45.00000000000005
 51
90
  0
ARC
  8
_0-0_
  6
CONTINUOUS
 62
    7
 10
263.84748734527273
 20
50.493515838188159
 40
0.5
 50
180
 51
270
  0
ARC
  8
_0-0_
  6
CONTINUOUS
 62
    7
 10
263.84748734527273
 20
53.293515838188341
 40
0.5
 50
90
 51
180
  0
ARC
  8
_0-0_
  6
CONTINUOUS
 62
    7
 10
290.24748734527259
 20
60.793515838188341
 40
0.5
 50
0
 51
90
  0
ARC
  8
_0-0_
  6
CONTINUOUS
 62
    7
 10
290.24748734527259
 20
54.293515838188341
 40
0.5
 50
270
 51
0
  0
ARC
  8
_0-0_
  6
CONTINUOUS
 62
    7
 10
277.24748734527236
 20
63.293515838188796
 40
1.5
 50
0
 51
90
  0
ARC
  8
_0-0_
  6
CONTINUOUS
 62
    7
 10
263.24748734527259
 20
63.293515838188796
 40
1.5
 50
90
 51
180
  0
ARC
  8
_0-0_
  6
CONTINUOUS
 62
    7
 10
277.24748734527236
 20
69.793515838188796
 40
1.5
 50
0
 51
90
  0
ARC
  8
_0-0_
  6
CONTINUOUS
 62
    7
 10
263.24748734527259
 20
69.793515838188796
 40
1.5
 50
90
 51
180
  0
LINE
  8
_0-0_
  6
CONTINUOUS
 62
    7
 10
250.39075660268742
 20
148.96317929945315
 11
250.39075660268742
 21
150.96317929945315
  0
LINE
  8
_0-0_
  6
CONTINUOUS
 62
    7
 10
250.39075660268742
 20
148.96317929945315
 11
290.39075660268742
 21
148.96317929945315
  0
LINE
  8
_0-0_
  6
CONTINUOUS
 62
    7
 10
290.39075660268742
 20
148.96317929945315
 11
290.39075660268742
 21
150.96317929945315
  0
LINE
  8
_0-0_
  6
CONTINUOUS
 62
    7
 10
288.89075660268742
 20
152.46317929945315
 11
281.89075660268742
 21
152.46317929945315
  0
LINE
  8
_0-0_
  6
CONTINUOUS
 62
    7
 10
281.89075660268742
 20
152.46317929945315
 11
281.89075660268742
 21
157.46317929945315
  0
LINE
  8
_0-0_
  6
CONTINUOUS
 62
    7
 10
281.39075660268742
 20
156.46317929945315
 11
259.39075660268742
 21
156.46317929945315
  0
LINE
  8
_0-0_
  6
CONTINUOUS
 62
    7
 10
259.39075660268742
 20
156.46317929945315
 11
259.39075660268742
 21
148.96317929945315
  0
LINE
  8
_0-0_
  6
CONTINUOUS
 62
    7
 10
259.39075660268742
 20
150.46317929945315
 11
281.39075660268742
 21
150.46317929945315
  0
LINE
  8
_0-0_
  6
CONTINUOUS
 62
    7
 10
280.64075660268742
 20
150.46317929945315
 11
280.64075660268742
 21
156.46317929945315
  0
LINE
  8
_0-0_
  6
CONTINUOUS
 62
    7
 10
281.39075660268742
 20
156.46317929945315
 11
281.39075660268742
 21
148.96317929945315
  0
LINE
  8
_0-0_
  6
CONTINUOUS
 62
    7
 10
280.64075660268742
 20
151.46317929945315
 11
260.14075660268742
 21
151.46317929945315
  0
LINE
  8
_0-0_
  6
CONTINUOUS
 62
    7
 10
260.14075660268742
 20
150.46317929945315
 11
260.14075660268742
 21
156.46317929945315
  0
LINE
  8
_0-0_
  6
CONTINUOUS
 62
    7
 10
260.14075660268742
 20
155.46317929945315
 11
280.64075660268742
 21
155.46317929945315
  0
LINE
  8
_0-0_
  6
CONTINUOUS
 62
    7
 10
280.39075660268742
 20
158.96317929945315
 11
260.39075660268742
 21
158.96317929945315
  0
LINE
  8
_0-0_
  6
CONTINUOUS
 62
    7
 10
258.89075660268742
 20
157.46317929945315
 11
258.89075660268742
 21
152.46317929945315
  0
LINE
  8
_0-0_
  6
CONTINUOUS
 62
    7
 10
258.89075660268742
 20
152.46317929945315
 11
251.89075660268742
 21
152.46317929945315
  0
LINE
  8
_0-0_
  6
CONTINUOUS
 62
    7
 10
258.89075660268742
 20
207.18416480413194
 11
258.89075660268742
 21
193.18416480413194
  0
LINE
  8
_0-0_
  6
CONTINUOUS
 62
    7
 10
259.39075660268742
 20
191.68416480413194
 11
259.39075660268742
 21
190.18416480413194
  0
LINE
  8
_0-0_
  6
CONTINUOUS
 62
    7
 10
259.89075660268742
 20
189.68416480413194
 11
280.89075660268742
 21
189.68416480413194
  0
LINE
  8
_0-0_
  6
CONTINUOUS
 62
    7
 10
281.39075660268742
 20
190.18416480413194
 11
281.39075660268742
 21
191.68416480413194
  0
LINE
  8
_0-0_
  6
CONTINUOUS
 62
    7
 10
281.89075660268742
 20
193.18416480413194
 11
281.89075660268742
 21
207.18416480413194
  0
LINE
  8
_0-0_
  6
CONTINUOUS
 62
    7
 10
287.39075660268742
 20
191.68416480413194
 11
253.39075660268742
 21
191.68416480413194
  0
LINE
  8
_0-0_
  6
CONTINUOUS
 62
    7
 10
253.39075660268742
 20
208.68416480413194
 11
287.39075660268742
 21
208.68416480413194
  0
LINE
  8
_0-0_
  6
CONTINUOUS
 62
    7
 10
290.39075660268742
 20
205.68416480413194
 11
290.39075660268742
 21
194.68416480413194
  0
LINE
  8
_0-0_
  6
CONTINUOUS
 62
    7
 10
288.39075660268742
 20
198.18416480413194
 11
288.39075660268742
 21
202.18416480413194
  0
LINE
  8
_0-0_
  6
CONTINUOUS
 62
    7
 10
252.39075660268742
 20
202.18416480413194
 11
252.39075660268742
 21
198.18416480413194
  0
LINE
  8
_0-0_
  6
CONTINUOUS
 62
    7
 10
256.39075660268742
 20
198.18416480413194
 11
256.39075660268742
 21
202.18416480413194
  0
LINE
  8
_0-0_
  6
CONTINUOUS
 62
    7
 10
250.39075660268742
 20
205.68416480413194
 11
250.39075660268742
 21
194.68416480413194
  0
LINE
  8
_0-0_
  6
CONTINUOUS
 62
    7
 10
284.39075660268742
 20
198.18416480413194
 11
284.39075660268742
 21
202.18416480413194
  0
LINE
  8
_0-0_
  6
CONTINUOUS
 62
    7
 10
329.23794702323409
 20
156.46317929945315
 11
329.23794702323409
 21
150.46317929945315
  0
LINE
  8
_0-0_
  6
CONTINUOUS
 62
    7
 10
329.23794702323409
 20
150.46317929945315
 11
331.23794702323409
 21
150.46317929945315
  0
LINE
  8
_0-0_
  6
CONTINUOUS
 62
    7
 10
331.23794702323409
 20
151.46317929945315
 11
329.23794702323409
 21
151.46317929945315
  0
LINE
  8
_0-0_
  6
CONTINUOUS
 62
    7
 10
329.23794702323409
 20
155.46317929945315
 11
331.23794702323409
 21
155.46317929945315
  0
LINE
  8
_0-0_
  6
CONTINUOUS
 62
    7
 10
331.23794702323409
 20
156.46317929945315
 11
329.23794702323409
 21
156.46317929945315
  0
LINE
  8
_0-0_
  6
CONTINUOUS
 62
    7
 10
331.23794702323409
 20
157.46317929945315
 11
331.23794702323409
 21
148.96317929945315
  0
LINE
  8
_0-0_
  6
CONTINUOUS
 62
    7
 10
331.23794702323409
 20
148.96317929945315
 11
348.23794702323409
 21
148.96317929945315
  0
LINE
  8
_0-0_
  6
CONTINUOUS
 62
    7
 10
348.23794702323409
 20
148.96317929945315
 11
348.23794702323409
 21
157.46317929945315
  0
LINE
  8
_0-0_
  6
CONTINUOUS
 62
    7
 10
346.73794702323409
 20
158.96317929945315
 11
332.73794702323409
 21
158.96317929945315
  0
LINE
  8
_0-0_
  6
CONTINUOUS
 62
    7
 10
332.73794702323409
 20
152.46317929945315
 11
346.73794702323409
 21
152.46317929945315
  0
ARC
  8
_0-0_
  6
CONTINUOUS
 62
    7
 10
286.39075660268742
 20
202.18416480413194
 40
2
 50
0
 51
180
  0
ARC
  8
_0-0_
  6
CONTINUOUS
 62
    7
 10
286.39075660268742
 20
198.18416480413194
 40
2
 50
180
 51
0
  0
ARC
  8
_0-0_
  6
CONTINUOUS
 62
    7
 10
254.39075660268742
 20
202.18416480413194
 40
2
 50
0
 51
180
  0
ARC
  8
_0-0_
  6
CONTINUOUS
 62
    7
 10
254.39075660268742
 20
198.18416480413194
 40
2
 50
180
 51
0
  0
ARC
  8
_0-0_
  6
CONTINUOUS
 62
    7
 10
260.39075660268742
 20
207.18416480413194
 40
1.5
 50
90
 51
180
  0
ARC
  8
_0-0_
  6
CONTINUOUS
 62
    7
 10
280.39075660268742
 20
207.18416480413194
 40
1.5
 50
0
 51
90
  0
ARC
  8
_0-0_
  6
CONTINUOUS
 62
    7
 10
280.39075660268742
 20
193.18416480413194
 40
1.5
 50
270
 51
0
  0
ARC
  8
_0-0_
  6
CONTINUOUS
 62
    7
 10
260.39075660268742
 20
193.18416480413194
 40
1.5
 50
180
 51
270
  0
ARC
  8
_0-0_
  6
CONTINUOUS
 62
    7
 10
253.39075660268742
 20
205.68416480413194
 40
3
 50
90
 51
180
  0
ARC
  8
_0-0_
  6
CONTINUOUS
 62
    7
 10
287.39075660268742
 20
205.68416480413194
 40
3
 50
0
 51
90
  0
ARC
  8
_0-0_
  6
CONTINUOUS
 62
    7
 10
287.39075660268742
 20
194.68416480413194
 40
3
 50
270
 51
0
  0
ARC
  8
_0-0_
  6
CONTINUOUS
 62
    7
 10
253.39075660268742
 20
194.68416480413194
 40
3
 50
180
 51
270
  0
ARC
  8
_0-0_
  6
CONTINUOUS
 62
    7
 10
259.89075660268742
 20
190.18416480413194
 40
0.5
 50
180
 51
270
  0
ARC
  8
_0-0_
  6
CONTINUOUS
 62
    7
 10
280.89075660268742
 20
190.18416480413194
 40
0.5
 50
270
 51
0
  0
ARC
  8
_0-0_
  6
CONTINUOUS
 62
    7
 10
260.39075660268742
 20
157.46317929945315
 40
1.5
 50
90
 51
180
  0
ARC
  8
_0-0_
  6
CONTINUOUS
 62
    7
 10
251.89075660268742
 20
150.96317929945315
 40
1.5
 50
90
 51
180
  0
ARC
  8
_0-0_
  6
CONTINUOUS
 62
    7
 10
280.39075660268742
 20
157.46317929945315
 40
1.5
 50
0
 51
90
  0
ARC
  8
_0-0_
  6
CONTINUOUS
 62
    7
 10
288.89075660268742
 20
150.96317929945315
 40
1.5
 50
0
 51
90
  0
ARC
  8
_0-0_
  6
CONTINUOUS
 62
    7
 10
332.73794702323409
 20
157.46317929945315
 40
1.5
 50
90
 51
180
  0
ARC
  8
_0-0_
  6
CONTINUOUS
 62
    7
 10
346.73794702323409
 20
157.46317929945315
 40
1.5
 50
0
 51
90
  0
ARC
  8
_0-0_
  6
CONTINUOUS
 62
    7
 10
332.73794702323409
 20
150.96317929945315
 40
1.5
 50
90
 51
180
  0
ARC
  8
_0-0_
  6
CONTINUOUS
 62
    7
 10
346.73794702323409
 20
150.96317929945315
 40
1.5
 50
0
 51
90
  0
LINE
  8
_0-0_
  6
CONTINUOUS
 62
    7
 10
324.86046485743185
 20
217.70491164112696
 11
324.86046485743185
 21
205.70491164112698
  0
LINE
  8
_0-0_
  6
CONTINUOUS
 62
    7
 10
324.86046485743185
 20
205.70491164112698
 11
347.86046485743185
 21
205.70491164112698
  0
LINE
  8
_0-0_
  6
CONTINUOUS
 62
    7
 10
347.86046485743185
 20
205.70491164112698
 11
347.86046485743185
 21
217.70491164112696
  0
LINE
  8
_0-0_
  6
CONTINUOUS
 62
    7
 10
347.86046485743185
 20
217.70491164112696
 11
324.86046485743185
 21
217.70491164112696
  0
LINE
  8
_0-0_
  6
CONTINUOUS
 62
    7
 10
361.10823743285977
 20
217.70491164112696
 11
359.60823743285977
 21
217.70491164112696
  0
LINE
  8
_0-0_
  6
CONTINUOUS
 62
    7
 10
359.60823743285977
 20
217.70491164112696
 11
359.60823743285977
 21
205.70491164112698
  0
LINE
  8
_0-0_
  6
CONTINUOUS
 62
    7
 10
359.60823743285977
 20
205.70491164112698
 11
361.10823743285977
 21
205.70491164112698
  0
LINE
  8
_0-0_
  6
CONTINUOUS
 62
    7
 10
361.10823743285977
 20
205.70491164112698
 11
361.10823743285977
 21
217.70491164112696
  0
CIRCLE
  8
_0-0_
  6
CONTINUOUS
 62
    7
 10
336.36046485743185
 20
211.70491164112693
 40
2.25
  0
CIRCLE
  8
_0-0_
  6
CONTINUOUS
 62
    7
 10
336.36046485743185
 20
211.70491164112693
 40
3.25
  0
LINE
  8
_0-0_
  6
CONTINUOUS
 62
    7
 10
260.10104073586592
 20
46.139962447595281
 11
258.24748734527248
 21
47.993515838188216
  0
LINE
  8
_0-0_
  6
CONTINUOUS
 62
    7
 10
151.87904474335284
 20
45.993495836317834
 11
160.37904474335284
 21
45.993495836317834
  0
LINE
  8
_0-0_
  6
CONTINUOUS
 62
    7
 10
163.37904474335284
 20
45.993495836317834
 11
180.37904474335284
 21
45.993495836317834
  0
LINE
  8
_0-0_
  6
CONTINUOUS
 62
    7
 10
183.37904474335284
 20
45.993495836317834
 11
191.87904474335284
 21
45.993495836317834
  0
LINE
  8
_0-0_
  6
CONTINUOUS
 62
    7
 10
23.25830132907106
 20
105.56290645631748
 11
43.25830132907106
 21
105.56290645631748
  0
LINE
  8
_0-0_
  6
CONTINUOUS
 62
    7
 10
43.25830132907106
 20
104.86290645631777
 11
43.25830132907106
 21
109.9629064563178
  0
LINE
  8
_0-0_
  6
CONTINUOUS
 62
    7
 10
23.25830132907106
 20
104.86290645631777
 11
23.25830132907106
 21
109.9629064563178
  0
LINE
  8
_0-0_
  6
CONTINUOUS
 62
    7
 10
43.25830132907106
 20
105.56290645631748
 11
63.25830132907106
 21
105.56290645631748
  0
LINE
  8
_0-0_
  6
CONTINUOUS
 62
    7
 10
63.25830132907106
 20
104.86290645631777
 11
63.25830132907106
 21
109.9629064563178
  0
LINE
  8
_0-0_
  6
CONTINUOUS
 62
    7
 10
63.25830132907106
 20
105.56290645631748
 11
83.25830132907106
 21
105.56290645631748
  0
LINE
  8
_0-0_
  6
CONTINUOUS
 62
    7
 10
83.25830132907106
 20
104.86290645631777
 11
83.25830132907106
 21
109.9629064563178
  0
LINE
  8
_0-0_
  6
CONTINUOUS
 62
    7
 10
83.25830132907106
 20
105.56290645631748
 11
103.25830132907106
 21
105.56290645631748
  0
LINE
  8
_0-0_
  6
CONTINUOUS
 62
    7
 10
103.25830132907106
 20
104.86290645631777
 11
103.25830132907106
 21
109.9629064563178
  0
LINE
  8
_0-0_
  6
CONTINUOUS
 62
    7
 10
151.87904474335284
 20
105.56290645631748
 11
171.87904474335284
 21
105.56290645631748
  0
LINE
  8
_0-0_
  6
CONTINUOUS
 62
    7
 10
171.87904474335284
 20
104.86290645631777
 11
171.87904474335284
 21
109.9629064563178
  0
LINE
  8
_0-0_
  6
CONTINUOUS
 62
    7
 10
151.87904474335284
 20
104.86290645631777
 11
151.87904474335284
 21
109.9629064563178
  0
LINE
  8
_0-0_
  6
CONTINUOUS
 62
    7
 10
191.87904474335284
 20
105.56290645631748
 11
171.87904474335284
 21
105.56290645631748
  0
LINE
  8
_0-0_
  6
CONTINUOUS
 62
    7
 10
191.87904474335284
 20
104.86290645631777
 11
191.87904474335284
 21
109.9629064563178
  0
LINE
  8
_0-0_
  6
CONTINUOUS
 62
    7
 10
183.37904474335284
 20
46.993485838188917
 11
183.37904474335284
 21
44.29348583818819
  0
LINE
  8
_0-0_
  6
CONTINUOUS
 62
    7
 10
183.37904474335284
 20
44.29348583818819
 11
182.87904474335284
 21
43.79348583818819
  0
LINE
  8
_0-0_
  6
CONTINUOUS
 62
    7
 10
182.87904474335284
 20
43.79348583818819
 11
180.87904474335284
 21
43.79348583818819
  0
LINE
  8
_0-0_
  6
CONTINUOUS
 62
    7
 10
180.87904474335284
 20
43.79348583818819
 11
180.37904474335284
 21
44.29348583818819
  0
LINE
  8
_0-0_
  6
CONTINUOUS
 62
    7
 10
180.37904474335284
 20
44.29348583818819
 11
180.37904474335284
 21
46.993485838188917
  0
LINE
  8
_0-0_
  6
CONTINUOUS
 62
    7
 10
163.37904474335284
 20
46.993485838188917
 11
163.37904474335284
 21
44.29348583818819
  0
LINE
  8
_0-0_
  6
CONTINUOUS
 62
    7
 10
163.37904474335284
 20
44.29348583818819
 11
162.87904474335284
 21
43.79348583818819
  0
LINE
  8
_0-0_
  6
CONTINUOUS
 62
    7
 10
162.87904474335284
 20
43.79348583818819
 11
160.87904474335284
 21
43.79348583818819
  0
LINE
  8
_0-0_
  6
CONTINUOUS
 62
    7
 10
160.87904474335284
 20
43.79348583818819
 11
160.37904474335284
 21
44.29348583818819
  0
LINE
  8
_0-0_
  6
CONTINUOUS
 62
    7
 10
160.37904474335284
 20
44.29348583818819
 11
160.37904474335284
 21
46.993485838188917
  0
LINE
  8
_0-0_
  6
CONTINUOUS
 62
    7
 10
94.758301329070946
 20
46.993485838188917
 11
94.758301329070946
 21
44.29348583818819
  0
LINE
  8
_0-0_
  6
CONTINUOUS
 62
    7
 10
94.758301329070946
 20
44.29348583818819
 11
94.258301329070946
 21
43.79348583818819
  0
LINE
  8
_0-0_
  6
CONTINUOUS
 62
    7
 10
94.258301329070946
 20
43.79348583818819
 11
92.258301329070946
 21
43.79348583818819
  0
LINE
  8
_0-0_
  6
CONTINUOUS
 62
    7
 10
92.258301329070946
 20
43.79348583818819
 11
91.758301329070946
 21
44.29348583818819
  0
LINE
  8
_0-0_
  6
CONTINUOUS
 62
    7
 10
91.758301329070946
 20
44.29348583818819
 11
91.758301329070946
 21
46.993485838188917
  0
LINE
  8
_0-0_
  6
CONTINUOUS
 62
    7
 10
74.758301329070946
 20
46.993485838188917
 11
74.758301329070946
 21
44.29348583818819
  0
LINE
  8
_0-0_
  6
CONTINUOUS
 62
    7
 10
74.758301329070946
 20
44.29348583818819
 11
74.258301329070946
 21
43.79348583818819
  0
LINE
  8
_0-0_
  6
CONTINUOUS
 62
    7
 10
74.258301329070946
 20
43.79348583818819
 11
72.258301329070946
 21
43.79348583818819
  0
LINE
  8
_0-0_
  6
CONTINUOUS
 62
    7
 10
72.258301329070946
 20
43.79348583818819
 11
71.758301329070946
 21
44.29348583818819
  0
LINE
  8
_0-0_
  6
CONTINUOUS
 62
    7
 10
71.758301329070946
 20
44.29348583818819
 11
71.758301329070946
 21
46.993485838188917
  0
LINE
  8
_0-0_
  6
CONTINUOUS
 62
    7
 10
31.75830132907106
 20
46.993485838188917
 11
31.75830132907106
 21
44.29348583818819
  0
LINE
  8
_0-0_
  6
CONTINUOUS
 62
    7
 10
31.75830132907106
 20
44.29348583818819
 11
32.25830132907106
 21
43.79348583818819
  0
LINE
  8
_0-0_
  6
CONTINUOUS
 62
    7
 10
32.25830132907106
 20
43.79348583818819
 11
34.25830132907106
 21
43.79348583818819
  0
LINE
  8
_0-0_
  6
CONTINUOUS
 62
    7
 10
34.25830132907106
 20
43.79348583818819
 11
34.75830132907106
 21
44.29348583818819
  0
LINE
  8
_0-0_
  6
CONTINUOUS
 62
    7
 10
34.75830132907106
 20
44.29348583818819
 11
34.75830132907106
 21
46.993485838188917
  0
LINE
  8
_0-0_
  6
CONTINUOUS
 62
    7
 10
51.758301329070946
 20
46.993485838188917
 11
51.758301329070946
 21
44.29348583818819
  0
LINE
  8
_0-0_
  6
CONTINUOUS
 62
    7
 10
51.758301329070946
 20
44.29348583818819
 11
52.258301329070946
 21
43.79348583818819
  0
LINE
  8
_0-0_
  6
CONTINUOUS
 62
    7
 10
52.258301329070946
 20
43.79348583818819
 11
54.258301329070946
 21
43.79348583818819
  0
LINE
  8
_0-0_
  6
CONTINUOUS
 62
    7
 10
54.258301329070946
 20
43.79348583818819
 11
54.758301329070946
 21
44.29348583818819
  0
LINE
  8
_0-0_
  6
CONTINUOUS
 62
    7
 10
54.758301329070946
 20
44.29348583818819
 11
54.758301329070946
 21
46.993485838188917
  0
LINE
  8
_0-0_
  6
CONTINUOUS
 62
    7
 10
160.87904474335284
 20
113.36290645631789
 11
151.87904474335284
 21
113.36290645631789
  0
LINE
  8
_0-0_
  6
CONTINUOUS
 62
    7
 10
191.87904474335284
 20
131.56290645631793
 11
151.87904474335284
 21
131.56290645631793
  0
LINE
  8
_0-0_
  6
CONTINUOUS
 62
    7
 10
151.87904474335284
 20
135.86290645631789
 11
191.87904474335284
 21
135.86290645631789
  0
LINE
  8
_0-0_
  6
CONTINUOUS
 62
    7
 10
191.87904474335284
 20
139.06290645631793
 11
151.87904474335284
 21
139.06290645631793
  0
LINE
  8
_0-0_
  6
CONTINUOUS
 62
    7
 10
182.87904474335284
 20
113.36290645631789
 11
191.87904474335284
 21
113.36290645631789
  0
LINE
  8
_0-0_
  6
CONTINUOUS
 62
    7
 10
184.05528103580383
 20
64.793495836317788
 11
184.05528103580383
 21
65.293495836317788
  0
LINE
  8
_0-0_
  6
CONTINUOUS
 62
    7
 10
184.05528103580383
 20
65.293495836317788
 11
191.75528084506897
 21
65.293495836317788
  0
LINE
  8
_0-0_
  6
CONTINUOUS
 62
    7
 10
191.75528084506897
 20
65.293495836317788
 11
191.75528084506897
 21
64.793495836317788
  0
LINE
  8
_0-0_
  6
CONTINUOUS
 62
    7
 10
185.1552809404364
 20
65.293495836317788
 11
185.22940551509765
 21
66.140744628966104
  0
LINE
  8
_0-0_
  6
CONTINUOUS
 62
    7
 10
187.60528092851547
 20
67.071216526091348
 11
188.20528095235733
 21
67.071216526091348
  0
LINE
  8
_0-0_
  6
CONTINUOUS
 62
    7
 10
188.20528095235733
 20
67.071216526091348
 11
188.20528095235733
 21
67.287064256727945
  0
LINE
  8
_0-0_
  6
CONTINUOUS
 62
    7
 10
187.60528092851547
 20
67.287064256727945
 11
187.60528092851547
 21
67.071216526091348
  0
LINE
  8
_0-0_
  6
CONTINUOUS
 62
    7
 10
190.58115636577514
 20
66.140744628966104
 11
190.6552809404364
 21
65.293495836317788
  0
ARC
  8
_0-0_
  6
CONTINUOUS
 62
    7
 10
186.22560035457519
 20
66.053588929236184
 40
1
 50
106.25701904296875
 51
175
  0
ARC
  8
_0-0_
  6
CONTINUOUS
 62
    7
 10
189.5849615262976
 20
66.053588929236184
 40
1
 50
4.9999847412109482
 51
73.742965698242187
  0
ARC
  8
_0-0_
  6
CONTINUOUS
 62
    7
 10
187.9052809404364
 20
60.293495836317334
 40
7
 50
73.742965698242187
 51
87.543701171874972
  0
ARC
  8
_0-0_
  6
CONTINUOUS
 62
    7
 10
187.9052809404364
 20
60.293495836317334
 40
7
 50
92.456283569335938
 51
106.25701904296875
  0
LINE
  8
_0-0_
  6
CONTINUOUS
 62
    7
 10
152.02904483808771
 20
64.793495836317788
 11
152.02904483808771
 21
65.293495836317788
  0
LINE
  8
_0-0_
  6
CONTINUOUS
 62
    7
 10
152.02904483808771
 20
65.293495836317788
 11
159.72904464735285
 21
65.293495836317788
  0
LINE
  8
_0-0_
  6
CONTINUOUS
 62
    7
 10
159.72904464735285
 20
65.293495836317788
 11
159.72904464735285
 21
64.793495836317788
  0
LINE
  8
_0-0_
  6
CONTINUOUS
 62
    7
 10
153.12904474272028
 20
65.293495836317788
 11
153.20316931738154
 21
66.140744628966104
  0
LINE
  8
_0-0_
  6
CONTINUOUS
 62
    7
 10
155.57904473079935
 20
67.071216526091348
 11
156.17904475464121
 21
67.071216526091348
  0
LINE
  8
_0-0_
  6
CONTINUOUS
 62
    7
 10
156.17904475464121
 20
67.071216526091348
 11
156.17904475464121
 21
67.287064256727945
  0
LINE
  8
_0-0_
  6
CONTINUOUS
 62
    7
 10
155.57904473079935
 20
67.287064256727945
 11
155.57904473079935
 21
67.071216526091348
  0
LINE
  8
_0-0_
  6
CONTINUOUS
 62
    7
 10
158.55492016805903
 20
66.140744628966104
 11
158.62904474272028
 21
65.293495836317788
  0
ARC
  8
_0-0_
  6
CONTINUOUS
 62
    7
 10
154.19936415685908
 20
66.053588929236184
 40
1
 50
106.25701904296875
 51
175
  0
ARC
  8
_0-0_
  6
CONTINUOUS
 62
    7
 10
157.55872532858149
 20
66.053588929236184
 40
1
 50
4.9999847412109482
 51
73.742965698242187
  0
ARC
  8
_0-0_
  6
CONTINUOUS
 62
    7
 10
155.87904474272028
 20
60.293495836317334
 40
7
 50
73.742965698242187
 51
87.543701171874972
  0
ARC
  8
_0-0_
  6
CONTINUOUS
 62
    7
 10
155.87904474272028
 20
60.293495836317334
 40
7
 50
92.456283569335938
 51
106.25701904296875
  0
LINE
  8
_0-0_
  6
CONTINUOUS
 62
    7
 10
152.02904483808771
 20
64.793495836317788
 11
159.72904464735285
 21
64.793495836317788
  0
LINE
  8
_0-0_
  6
CONTINUOUS
 62
    7
 10
184.05528103580383
 20
64.793495836317788
 11
191.75528084506897
 21
64.793495836317788
  0
LINE
  8
_0-0_
  6
CONTINUOUS
 62
    7
 10
151.87904474335284
 20
52.793465838317843
 11
191.87904474335284
 21
52.793465838317843
  0
LINE
  8
_0-0_
  6
CONTINUOUS
 62
    7
 10
171.87904474335284
 20
52.793465838317843
 11
171.87904474335284
 21
45.993495836317834
  0
LINE
  8
_0-0_
  6
CONTINUOUS
 62
    7
 10
72.258301329070946
 20
113.36290645631789
 11
63.258301329070946
 21
113.36290645631789
  0
LINE
  8
_0-0_
  6
CONTINUOUS
 62
    7
 10
103.25830132907095
 20
131.56290645631793
 11
63.258301329070946
 21
131.56290645631793
  0
LINE
  8
_0-0_
  6
CONTINUOUS
 62
    7
 10
63.258301329070946
 20
135.86290645631789
 11
103.25830132907095
 21
135.86290645631789
  0
LINE
  8
_0-0_
  6
CONTINUOUS
 62
    7
 10
103.25830132907095
 20
139.06290645631793
 11
63.258301329070946
 21
139.06290645631793
  0
LINE
  8
_0-0_
  6
CONTINUOUS
 62
    7
 10
94.258301329070946
 20
113.36290645631789
 11
103.25830132907095
 21
113.36290645631789
  0
LINE
  8
_0-0_
  6
CONTINUOUS
 62
    7
 10
95.43453762152194
 20
64.793495836317788
 11
95.43453762152194
 21
65.293495836317788
  0
LINE
  8
_0-0_
  6
CONTINUOUS
 62
    7
 10
95.43453762152194
 20
65.293495836317788
 11
103.13453743078708
 21
65.293495836317788
  0
LINE
  8
_0-0_
  6
CONTINUOUS
 62
    7
 10
103.13453743078708
 20
65.293495836317788
 11
103.13453743078708
 21
64.793495836317788
  0
LINE
  8
_0-0_
  6
CONTINUOUS
 62
    7
 10
96.534537526154509
 20
65.293495836317788
 11
96.608662100815764
 21
66.140744628966104
  0
LINE
  8
_0-0_
  6
CONTINUOUS
 62
    7
 10
98.98453751423358
 20
67.071216526091348
 11
99.584537538075438
 21
67.071216526091348
  0
LINE
  8
_0-0_
  6
CONTINUOUS
 62
    7
 10
99.584537538075438
 20
67.071216526091348
 11
99.584537538075438
 21
67.287064256727945
  0
LINE
  8
_0-0_
  6
CONTINUOUS
 62
    7
 10
98.98453751423358
 20
67.287064256727945
 11
98.98453751423358
 21
67.071216526091348
  0
LINE
  8
_0-0_
  6
CONTINUOUS
 62
    7
 10
101.96041295149325
 20
66.140744628966104
 11
102.03453752615451
 21
65.293495836317788
  0
ARC
  8
_0-0_
  6
CONTINUOUS
 62
    7
 10
97.604856940293303
 20
66.053588929236184
 40
1
 50
106.25701904296875
 51
175
  0
ARC
  8
_0-0_
  6
CONTINUOUS
 62
    7
 10
100.96421811201571
 20
66.053588929236184
 40
1
 50
4.9999847412109482
 51
73.742965698242187
  0
ARC
  8
_0-0_
  6
CONTINUOUS
 62
    7
 10
99.284537526154509
 20
60.293495836317334
 40
7
 50
73.742965698242187
 51
87.543701171874972
  0
ARC
  8
_0-0_
  6
CONTINUOUS
 62
    7
 10
99.284537526154509
 20
60.293495836317334
 40
7
 50
92.456283569335938
 51
106.25701904296875
  0
LINE
  8
_0-0_
  6
CONTINUOUS
 62
    7
 10
63.408301423805824
 20
64.793495836317788
 11
63.408301423805824
 21
65.293495836317788
  0
LINE
  8
_0-0_
  6
CONTINUOUS
 62
    7
 10
63.408301423805824
 20
65.293495836317788
 11
71.108301233070961
 21
65.293495836317788
  0
LINE
  8
_0-0_
  6
CONTINUOUS
 62
    7
 10
71.108301233070961
 20
65.293495836317788
 11
71.108301233070961
 21
64.793495836317788
  0
LINE
  8
_0-0_
  6
CONTINUOUS
 62
    7
 10
64.508301328438392
 20
65.293495836317788
 11
64.582425903099647
 21
66.140744628966104
  0
LINE
  8
_0-0_
  6
CONTINUOUS
 62
    7
 10
66.958301316517463
 20
67.071216526091348
 11
67.558301340359321
 21
67.071216526091348
  0
LINE
  8
_0-0_
  6
CONTINUOUS
 62
    7
 10
67.558301340359321
 20
67.071216526091348
 11
67.558301340359321
 21
67.287064256727945
  0
LINE
  8
_0-0_
  6
CONTINUOUS
 62
    7
 10
66.958301316517463
 20
67.287064256727945
 11
66.958301316517463
 21
67.071216526091348
  0
LINE
  8
_0-0_
  6
CONTINUOUS
 62
    7
 10
69.934176753777137
 20
66.140744628966104
 11
70.008301328438392
 21
65.293495836317788
  0
ARC
  8
_0-0_
  6
CONTINUOUS
 62
    7
 10
65.578620742577186
 20
66.053588929236184
 40
1
 50
106.25701904296875
 51
175
  0
ARC
  8
_0-0_
  6
CONTINUOUS
 62
    7
 10
68.937981914299598
 20
66.053588929236184
 40
1
 50
4.9999847412109482
 51
73.742965698242187
  0
ARC
  8
_0-0_
  6
CONTINUOUS
 62
    7
 10
67.258301328438392
 20
60.293495836317334
 40
7
 50
73.742965698242187
 51
87.543701171874972
  0
ARC
  8
_0-0_
  6
CONTINUOUS
 62
    7
 10
67.258301328438392
 20
60.293495836317334
 40
7
 50
92.456283569335938
 51
106.25701904296875
  0
LINE
  8
_0-0_
  6
CONTINUOUS
 62
    7
 10
63.408301423805824
 20
64.793495836317788
 11
71.108301233070961
 21
64.793495836317788
  0
LINE
  8
_0-0_
  6
CONTINUOUS
 62
    7
 10
95.43453762152194
 20
64.793495836317788
 11
103.13453743078708
 21
64.793495836317788
  0
LINE
  8
_0-0_
  6
CONTINUOUS
 62
    7
 10
63.258301329070946
 20
52.793465838317843
 11
103.25830132907095
 21
52.793465838317843
  0
LINE
  8
_0-0_
  6
CONTINUOUS
 62
    7
 10
83.258301329070946
 20
52.793465838317843
 11
83.258301329070946
 21
45.993495836317834
  0
LINE
  8
_0-0_
  6
CONTINUOUS
 62
    7
 10
54.258301329070946
 20
113.36290645631789
 11
63.258301329070946
 21
113.36290645631789
  0
LINE
  8
_0-0_
  6
CONTINUOUS
 62
    7
 10
23.25830132907106
 20
131.56290645631793
 11
63.258301329070946
 21
131.56290645631793
  0
LINE
  8
_0-0_
  6
CONTINUOUS
 62
    7
 10
63.258301329070946
 20
135.86290645631789
 11
23.25830132907106
 21
135.86290645631789
  0
LINE
  8
_0-0_
  6
CONTINUOUS
 62
    7
 10
23.25830132907106
 20
139.06290645631793
 11
63.258301329070946
 21
139.06290645631793
  0
LINE
  8
_0-0_
  6
CONTINUOUS
 62
    7
 10
32.25830132907106
 20
113.36290645631789
 11
23.25830132907106
 21
113.36290645631789
  0
LINE
  8
_0-0_
  6
CONTINUOUS
 62
    7
 10
31.082065036620065
 20
64.793495836317788
 11
31.082065036620065
 21
65.293495836317788
  0
LINE
  8
_0-0_
  6
CONTINUOUS
 62
    7
 10
31.082065036620065
 20
65.293495836317788
 11
23.382065227354929
 21
65.293495836317788
  0
LINE
  8
_0-0_
  6
CONTINUOUS
 62
    7
 10
23.382065227354929
 20
65.293495836317788
 11
23.382065227354929
 21
64.793495836317788
  0
LINE
  8
_0-0_
  6
CONTINUOUS
 62
    7
 10
29.982065131987497
 20
65.293495836317788
 11
29.907940557326242
 21
66.140744628966104
  0
LINE
  8
_0-0_
  6
CONTINUOUS
 62
    7
 10
27.532065143908426
 20
67.071216526091348
 11
26.932065120066568
 21
67.071216526091348
  0
LINE
  8
_0-0_
  6
CONTINUOUS
 62
    7
 10
26.932065120066568
 20
67.071216526091348
 11
26.932065120066568
 21
67.287064256727945
  0
LINE
  8
_0-0_
  6
CONTINUOUS
 62
    7
 10
27.532065143908426
 20
67.287064256727945
 11
27.532065143908426
 21
67.071216526091348
  0
LINE
  8
_0-0_
  6
CONTINUOUS
 62
    7
 10
24.556189706648752
 20
66.140744628966104
 11
24.482065131987497
 21
65.293495836317788
  0
ARC
  8
_0-0_
  6
CONTINUOUS
 62
    7
 10
28.911745717848703
 20
66.053588929236184
 40
1
 50
4.9999999999999947
 51
73.742980957031222
  0
ARC
  8
_0-0_
  6
CONTINUOUS
 62
    7
 10
25.552384546126291
 20
66.053588929236184
 40
1
 50
106.2570343017578
 51
175.00001525878906
  0
ARC
  8
_0-0_
  6
CONTINUOUS
 62
    7
 10
27.232065131987497
 20
60.293495836317334
 40
7
 50
92.456298828125014
 51
106.2570343017578
  0
ARC
  8
_0-0_
  6
CONTINUOUS
 62
    7
 10
27.232065131987497
 20
60.293495836317334
 40
7
 50
73.74298095703125
 51
87.543716430664063
  0
LINE
  8
_0-0_
  6
CONTINUOUS
 62
    7
 10
63.108301234336068
 20
64.793495836317788
 11
63.108301234336068
 21
65.293495836317788
  0
LINE
  8
_0-0_
  6
CONTINUOUS
 62
    7
 10
63.108301234336068
 20
65.293495836317788
 11
55.408301425070931
 21
65.293495836317788
  0
LINE
  8
_0-0_
  6
CONTINUOUS
 62
    7
 10
55.408301425070931
 20
65.293495836317788
 11
55.408301425070931
 21
64.793495836317788
  0
LINE
  8
_0-0_
  6
CONTINUOUS
 62
    7
 10
62.0083013297035
 20
65.293495836317788
 11
61.934176755042245
 21
66.140744628966104
  0
LINE
  8
_0-0_
  6
CONTINUOUS
 62
    7
 10
59.558301341624428
 20
67.071216526091348
 11
58.958301317782571
 21
67.071216526091348
  0
LINE
  8
_0-0_
  6
CONTINUOUS
 62
    7
 10
58.958301317782571
 20
67.071216526091348
 11
58.958301317782571
 21
67.287064256727945
  0
LINE
  8
_0-0_
  6
CONTINUOUS
 62
    7
 10
59.558301341624428
 20
67.287064256727945
 11
59.558301341624428
 21
67.071216526091348
  0
LINE
  8
_0-0_
  6
CONTINUOUS
 62
    7
 10
56.582425904364754
 20
66.140744628966104
 11
56.5083013297035
 21
65.293495836317788
  0
ARC
  8
_0-0_
  6
CONTINUOUS
 62
    7
 10
60.937981915564706
 20
66.053588929236184
 40
1
 50
4.9999999999999947
 51
73.742980957031222
  0
ARC
  8
_0-0_
  6
CONTINUOUS
 62
    7
 10
57.578620743842293
 20
66.053588929236184
 40
1
 50
106.2570343017578
 51
175.00001525878906
  0
ARC
  8
_0-0_
  6
CONTINUOUS
 62
    7
 10
59.2583013297035
 20
60.293495836317334
 40
7
 50
92.456298828125014
 51
106.2570343017578
  0
ARC
  8
_0-0_
  6
CONTINUOUS
 62
    7
 10
59.2583013297035
 20
60.293495836317334
 40
7
 50
73.74298095703125
 51
87.543716430664063
  0
LINE
  8
_0-0_
  6
CONTINUOUS
 62
    7
 10
63.108301234336068
 20
64.793495836317788
 11
55.408301425070931
 21
64.793495836317788
  0
LINE
  8
_0-0_
  6
CONTINUOUS
 62
    7
 10
31.082065036620065
 20
64.793495836317788
 11
23.382065227354929
 21
64.793495836317788
  0
LINE
  8
_0-0_
  6
CONTINUOUS
 62
    7
 10
63.258301329070946
 20
52.793465838317843
 11
23.25830132907106
 21
52.793465838317843
  0
LINE
  8
_0-0_
  6
CONTINUOUS
 62
    7
 10
266.89748744000747
 20
64.793515838188796
 11
266.89748744000747
 21
65.293515838188796
  0
LINE
  8
_0-0_
  6
CONTINUOUS
 62
    7
 10
266.89748744000747
 20
65.293515838188796
 11
274.5974872492726
 21
65.293515838188796
  0
LINE
  8
_0-0_
  6
CONTINUOUS
 62
    7
 10
274.5974872492726
 20
65.293515838188796
 11
274.5974872492726
 21
64.793515838188796
  0
LINE
  8
_0-0_
  6
CONTINUOUS
 62
    7
 10
267.99748734464004
 20
65.293515838188796
 11
268.07161191930129
 21
66.140764630837111
  0
LINE
  8
_0-0_
  6
CONTINUOUS
 62
    7
 10
270.44748733271911
 20
67.071236527962355
 11
271.04748735656096
 21
67.071236527962355
  0
LINE
  8
_0-0_
  6
CONTINUOUS
 62
    7
 10
271.04748735656096
 20
67.071236527962355
 11
271.04748735656096
 21
67.287084258598952
  0
LINE
  8
_0-0_
  6
CONTINUOUS
 62
    7
 10
270.44748733271911
 20
67.287084258598952
 11
270.44748733271911
 21
67.071236527962355
  0
LINE
  8
_0-0_
  6
CONTINUOUS
 62
    7
 10
273.42336276997878
 20
66.140764630837111
 11
273.49748734464004
 21
65.293515838188796
  0
ARC
  8
_0-0_
  6
CONTINUOUS
 62
    7
 10
269.06780675877883
 20
66.053608931107192
 40
1
 50
106.25701904296869
 51
174.99999999999994
  0
ARC
  8
_0-0_
  6
CONTINUOUS
 62
    7
 10
272.42716793050124
 20
66.053608931107192
 40
1
 50
4.9999847412109482
 51
73.742965698242216
  0
ARC
  8
_0-0_
  6
CONTINUOUS
 62
    7
 10
270.74748734464004
 20
60.293515838188341
 40
7
 50
73.742965698242187
 51
87.543701171875014
  0
ARC
  8
_0-0_
  6
CONTINUOUS
 62
    7
 10
270.74748734464004
 20
60.293515838188341
 40
7
 50
92.456283569335938
 51
106.25701904296878
  0
LINE
  8
_0-0_
  6
CONTINUOUS
 62
    7
 10
43.25830132907106
 20
52.793465838317843
 11
43.25830132907106
 21
47.993515838317819
  0
LINE
  8
_0-0_
  6
CONTINUOUS
 62
    7
 10
23.25830132907106
 20
45.993495836317834
 11
31.75830132907106
 21
45.993495836317834
  0
LINE
  8
_0-0_
  6
CONTINUOUS
 62
    7
 10
34.75830132907106
 20
45.993495836317834
 11
51.758301329070946
 21
45.993495836317834
  0
LINE
  8
_0-0_
  6
CONTINUOUS
 62
    7
 10
54.758301329070946
 20
45.993495836317834
 11
71.758301329070946
 21
45.993495836317834
  0
LINE
  8
_0-0_
  6
CONTINUOUS
 62
    7
 10
74.758301329070946
 20
45.993495836317834
 11
91.758301329070946
 21
45.993495836317834
  0
LINE
  8
_0-0_
  6
CONTINUOUS
 62
    7
 10
94.758301329070946
 20
45.993495836317834
 11
103.25830132907095
 21
45.993495836317834
  0
CIRCLE
  8
_0-0_
  6
CONTINUOUS
 62
    7
 10
33.25830132907106
 20
107.6629064563175
 40
1.2999999523162842
  0
CIRCLE
  8
_0-0_
  6
CONTINUOUS
 62
    7
 10
53.25830132907106
 20
107.6629064563175
 40
1.2999999523162842
  0
CIRCLE
  8
_0-0_
  6
CONTINUOUS
 62
    7
 10
73.25830132907106
 20
107.6629064563175
 40
1.2999999523162842
  0
CIRCLE
  8
_0-0_
  6
CONTINUOUS
 62
    7
 10
93.25830132907106
 20
107.6629064563175
 40
1.2999999523162842
  0
CIRCLE
  8
_0-0_
  6
CONTINUOUS
 62
    7
 10
161.87904474335284
 20
107.6629064563175
 40
1.2999999523162842
  0
CIRCLE
  8
_0-0_
  6
CONTINUOUS
 62
    7
 10
181.87904474335284
 20
107.6629064563175
 40
1.2999999523162842
  0
LINE
  8
_0-0_
  6
CONTINUOUS
 62
    7
 10
151.87904474335284
 20
46.993485838188917
 11
191.87904474335284
 21
46.993485838188917
  0
LINE
  8
_0-0_
  6
CONTINUOUS
 62
    7
 10
63.258301329070946
 20
46.993485838188917
 11
103.25830132907095
 21
46.993485838188917
  0
LINE
  8
_0-0_
  6
CONTINUOUS
 62
    7
 10
63.258301329070946
 20
46.993485838188917
 11
23.25830132907106
 21
46.993485838188917
  0
LINE
  8
_0-1_
  6
CENTER1
 62
  152
 10
187.87904474335284
 20
113.4629064563178
 11
187.87904474335284
 21
130.4629064563178
  0
LINE
  8
_0-1_
  6
CENTER1
 62
  152
 10
155.87904474335284
 20
130.4629064563178
 11
155.87904474335284
 21
113.4629064563178
  0
LINE
  8
_0-1_
  6
CENTER1
 62
  152
 10
171.87904474335284
 20
130.4629064563178
 11
171.87904474335284
 21
112.49023261770094
  0
LINE
  8
_0-1_
  6
CENTER1
 62
  152
 10
155.87904474335284
 20
74.484894325378264
 11
155.87904474335284
 21
57.82354467681148
  0
LINE
  8
_0-1_
  6
CENTER1
 62
  152
 10
187.90528094106895
 20
58.204686662236099
 11
187.90528094106895
 21
74.484894325378264
  0
LINE
  8
_0-1_
  6
CENTER1
 62
  152
 10
171.87904474335284
 20
74.484894325378264
 11
171.87904474335284
 21
57.82354467681148
  0
LINE
  8
_0-2_
  6
PHANTOM1
 62
  152
 10
137.89348262073059
 20
135.44687027446309
 11
151.43590224630663
 21
84.905872174395995
  0
LINE
  8
_0-2_
  6
PHANTOM1
 62
  152
 10
139.36290629712408
 20
129.9629064563178
 11
151.87904474335284
 21
129.9629064563178
  0
TEXT
  8
_0-2_
 62
    7
 10
140.24896759620884
 20
142.72393159291482
 40
4.2999999999999998
 41
0.744186046511628
 50
0
  1
MD40-S
  0
LINE
  8
_0-2_
  6
PHANTOM1
 62
  152
 10
137.89348262073059
 20
59.277459656334031
 11
151.43590224630663
 21
8.7364615562669314
  0
LINE
  8
_0-2_
  6
PHANTOM1
 62
  152
 10
202.5847717924143
 20
58.72342635763323
 11
216.16661078657086
 21
8.0353131712205368
  0
LINE
  8
_0-2_
  6
PHANTOM1
 62
  152
 10
202.5847717924143
 20
134.89283697576229
 11
216.16661078657086
 21
84.2047237893496
  0
LINE
  8
_0-2_
  6
PHANTOM1
 62
  152
 10
191.87904474335284
 20
129.9629064563178
 11
203.90574269384098
 21
129.9629064563178
  0
LINE
  8
_0-2_
  6
PHANTOM1
 62
  152
 10
150.08087399436914
 20
89.962906456317796
 11
214.62371039108581
 21
89.962906456317796
  0
LINE
  8
_0-2_
  6
PHANTOM1
 62
  152
 10
150.08087399436914
 20
13.793495838188846
 11
214.62371039108581
 21
13.793495838188846
  0
LINE
  8
_0-2_
  6
PHANTOM1
 62
  152
 10
203.90574269384098
 20
53.793495838188846
 11
139.36290629712408
 21
53.793495838188846
  0
LINE
  8
_0-1_
  6
CENTER1
 62
  152
 10
99.258301329070946
 20
113.4629064563178
 11
99.258301329070946
 21
130.4629064563178
  0
LINE
  8
_0-1_
  6
CENTER1
 62
  152
 10
67.258301329070946
 20
130.4629064563178
 11
67.258301329070946
 21
113.4629064563178
  0
LINE
  8
_0-1_
  6
CENTER1
 62
  152
 10
83.258301329070946
 20
130.4629064563178
 11
83.258301329070946
 21
112.49023261770094
  0
LINE
  8
_0-1_
  6
CENTER1
 62
  152
 10
67.258301329070946
 20
74.484894325378264
 11
67.258301329070946
 21
57.82354467681148
  0
LINE
  8
_0-1_
  6
CENTER1
 62
  152
 10
99.284537526787062
 20
58.204686662236099
 11
99.284537526787062
 21
74.484894325378264
  0
LINE
  8
_0-1_
  6
CENTER1
 62
  152
 10
83.258301329070946
 20
74.484894325378264
 11
83.258301329070946
 21
57.82354467681148
  0
LINE
  8
_0-2_
  6
PHANTOM1
 62
  152
 10
113.96402837813241
 20
58.72342635763323
 11
127.54586737228902
 21
8.0353131712205368
  0
LINE
  8
_0-2_
  6
PHANTOM1
 62
  152
 10
113.96402837813241
 20
134.89283697576229
 11
127.54586737228902
 21
84.2047237893496
  0
LINE
  8
_0-2_
  6
PHANTOM1
 62
  152
 10
103.25830132907095
 20
129.9629064563178
 11
115.28499927955909
 21
129.9629064563178
  0
LINE
  8
_0-2_
  6
PHANTOM1
 62
  152
 10
9.2727392064488185
 20
135.44687027446309
 11
22.815158832024849
 21
84.905872174395995
  0
LINE
  8
_0-2_
  6
PHANTOM1
 62
  152
 10
10.742162882842308
 20
129.9629064563178
 11
23.25830132907106
 21
129.9629064563178
  0
LINE
  8
_0-2_
  6
PHANTOM1
 62
  152
 10
9.2727392064488185
 20
59.277459656334031
 11
22.815158832024849
 21
8.7364615562669314
  0
LINE
  8
_0-2_
  6
PHANTOM1
 62
  152
 10
21.460130580087366
 20
89.962906456317796
 11
126.00296697680392
 21
89.962906456317796
  0
LINE
  8
_0-2_
  6
PHANTOM1
 62
  152
 10
21.460130580087366
 20
13.793495838188846
 11
126.00296697680392
 21
13.793495838188846
  0
LINE
  8
_0-2_
  6
PHANTOM1
 62
  152
 10
115.28499927955909
 20
53.793495838188846
 11
103.25830132907095
 21
53.793495838188846
  0
LINE
  8
_0-2_
  6
PHANTOM1
 62
  152
 10
63.258301329070946
 20
53.793495838188846
 11
10.742162882842308
 21
53.793495838188846
  0
LINE
  8
_0-1_
  6
CENTER1
 62
  152
 10
43.25830132907106
 20
130.4629064563178
 11
43.25830132907106
 21
112.49023261770094
  0
LINE
  8
_0-1_
  6
CENTER1
 62
  152
 10
59.258301329070946
 20
74.484894325378264
 11
59.258301329070946
 21
57.82354467681148
  0
LINE
  8
_0-1_
  6
CENTER1
 62
  152
 10
27.232065131354943
 20
58.204686662236099
 11
27.232065131354943
 21
74.484894325378264
  0
LINE
  8
_0-1_
  6
CENTER1
 62
  152
 10
43.25830132907106
 20
74.484894325378264
 11
43.25830132907106
 21
57.82354467681148
  0
LINE
  8
_0-1_
  6
CENTER1
 62
  152
 10
53.258301329070946
 20
52.793465838317843
 11
53.258301329070946
 21
41.856282297632561
  0
LINE
  8
_0-1_
  6
CENTER1
 62
  152
 10
33.25830132907106
 20
52.793465838317843
 11
33.25830132907106
 21
41.93836130484749
  0
LINE
  8
_0-1_
  6
CENTER1
 62
  152
 10
59.258301329070946
 20
113.4629064563178
 11
59.258301329070946
 21
130.4629064563178
  0
LINE
  8
_0-1_
  6
CENTER1
 62
  152
 10
27.25830132907106
 20
130.4629064563178
 11
27.25830132907106
 21
113.4629064563178
  0
LINE
  8
_0-1_
  6
CENTER1
 62
  152
 10
55.298232380059858
 20
122.4629064563178
 11
63.258301329070946
 21
122.4629064563178
  0
LINE
  8
_0-1_
  6
CENTER1
 62
  152
 10
23.25830132907106
 20
121.9629064563178
 11
31.147393859219051
 21
121.9629064563178
  0
LINE
  8
_0-1_
  6
CENTER1
 62
  152
 10
63.258301329070946
 20
121.9629064563178
 11
70.934746376205226
 21
121.9629064563178
  0
LINE
  8
_0-1_
  6
CENTER1
 62
  152
 10
93.748595296495409
 20
122.4629064563178
 11
103.25830132907095
 21
122.4629064563178
  0
LINE
  8
_0-1_
  6
CENTER1
 62
  152
 10
151.87904474335284
 20
121.9629064563178
 11
159.63499097829362
 21
121.9629064563178
  0
LINE
  8
_0-1_
  6
CENTER1
 62
  152
 10
181.90130752449693
 20
122.4629064563178
 11
191.87904474335284
 21
122.4629064563178
  0
TEXT
  8
_0-2_
 62
    7
 10
11.628224181927067
 20
142.72393159291482
 40
4.2999999999999998
 41
0.744186046511628
 50
0
  1
MD40-W
  0
LINE
  8
_0-1_
  6
CENTER1
 62
  152
 10
270.74748734527259
 20
68.447330760623572
 11
270.74748734527259
 21
54.321209717715192
  0
LINE
  8
_0-1_
  6
CENTER1
 62
  152
 10
278.24748734527259
 20
60.793515838188341
 11
278.24748734527259
 21
54.321209717715192
  0
LINE
  8
_0-1_
  6
CENTER1
 62
  152
 10
285.74748734527259
 20
54.321209717715192
 11
285.74748734527259
 21
60.793515838188341
  0
LINE
  8
_0-1_
  6
CENTER1
 62
  152
 10
263.24748734527259
 20
60.793515838188341
 11
263.24748734527259
 21
54.321209717715192
  0
LINE
  8
_0-1_
  6
CONTINUOUS
 62
  152
 10
254.94748734527241
 20
46.993485838188917
 11
254.94748734527241
 21
43.79348583818819
  0
LINE
  8
_0-1_
  6
CONTINUOUS
 62
  152
 10
254.44748734527241
 20
44.29348583818819
 11
257.44748734527241
 21
44.29348583818819
  0
LINE
  8
_0-1_
  6
CONTINUOUS
 62
  152
 10
256.94748734527241
 20
43.79348583818819
 11
256.94748734527241
 21
46.993485838188917
  0
LINE
  8
_0-1_
  6
CENTER2
 62
  152
 10
258.24749734527256
 20
38.793515838188341
 11
258.24749734527256
 21
28.793475838188442
  0
LINE
  8
_0-1_
  6
CENTER2
 62
  152
 10
263.24751734527251
 20
33.793495838188846
 11
253.24746734527264
 21
33.793495838188846
  0
LINE
  8
_0-2_
  6
PHANTOM1
 62
  152
 10
238.24749734527256
 20
53.793495838188846
 11
238.24749734527256
 21
13.793495838188846
  0
LINE
  8
_0-2_
  6
PHANTOM1
 62
  152
 10
238.24749734527256
 20
13.793495838188846
 11
278.24749734527256
 21
13.793495838188846
  0
LINE
  8
_0-2_
  6
PHANTOM1
 62
  152
 10
278.24749734527256
 20
13.793495838188846
 11
278.24749734527256
 21
53.793495838188846
  0
LINE
  8
_0-2_
  6
PHANTOM1
 62
  152
 10
278.24749734527256
 20
53.793495838188846
 11
238.24749734527256
 21
53.793495838188846
  0
LINE
  8
_0-1_
  6
CENTER1
 62
  152
 10
254.39075660268742
 20
162.15457778851362
 11
254.39075660268742
 21
145.49322813994684
  0
LINE
  8
_0-1_
  6
CENTER1
 62
  152
 10
286.41699280040353
 20
145.87437012537146
 11
286.41699280040353
 21
162.15457778851362
  0
LINE
  8
_0-1_
  6
CENTER1
 62
  152
 10
270.39075660268742
 20
162.15457778851362
 11
270.39075660268742
 21
145.49322813994684
  0
LINE
  8
_0-1_
  6
CENTER1
 62
  152
 10
270.39075660268742
 20
187.45667367144884
 11
270.39075660268742
 21
208.68416480413194
  0
LINE
  8
_0-1_
  6
CENTER1
 62
  152
 10
286.39075660268742
 20
208.68416480413194
 11
286.39075660268742
 21
191.68416480413194
  0
LINE
  8
_0-1_
  6
CENTER1
 62
  152
 10
286.41699280040353
 20
191.68416480413194
 11
286.41699280040353
 21
187.45667367144884
  0
LINE
  8
_0-1_
  6
CENTER1
 62
  152
 10
254.39075660268742
 20
187.45667367144884
 11
254.39075660268742
 21
208.68416480413194
  0
LINE
  8
_0-1_
  6
CENTER1
 62
  152
 10
290.39075660268742
 20
200.68416480413194
 11
281.89075660268742
 21
200.68416480413194
  0
LINE
  8
_0-1_
  6
CENTER1
 62
  152
 10
283.11793698784192
 20
200.18416480413194
 11
257.41250897643073
 21
200.18416480413194
  0
LINE
  8
_0-1_
  6
CENTER1
 62
  152
 10
258.89075660268742
 20
200.68416480413194
 11
250.39075660268742
 21
200.68416480413194
  0
LINE
  8
_0-1_
  6
CENTER1
 62
  152
 10
358.17408993381838
 20
153.46317929945315
 11
322.85443786670891
 21
153.46317929945315
  0
LINE
  8
_0-1_
  6
CENTER1
 62
  152
 10
324.86046485743185
 20
211.70491164112693
 11
368.80888178854769
 21
211.70491164112693
  0
LINE
  8
_0-1_
  6
CENTER1
 62
  152
 10
336.36046485743185
 20
220.36277692209933
 11
336.36046485743185
 21
199.51859125581862
  0
TEXT
  8
_0-2_
 62
    7
 10
247.08125058882621
 20
215.36562052583233
 40
4.2999999999999998
 41
0.744186046511628
 50
0
  1
MD40-N
  0
LINE
  8
_0-1_
  6
CENTER1
 62
  152
 10
161.87904474335284
 20
52.793465838317843
 11
161.87904474335284
 21
43.856302299632546
  0
LINE
  8
_0-1_
  6
CENTER1
 62
  152
 10
181.87904474335284
 20
52.793465838317843
 11
181.87904474335284
 21
43.938381306847475
  0
LINE
  8
_0-1_
  6
CENTER1
 62
  152
 10
73.258301329070946
 20
52.793465838317843
 11
73.258301329070946
 21
43.856302299632546
  0
LINE
  8
_0-1_
  6
CENTER1
 62
  152
 10
93.258301329070946
 20
52.793465838317843
 11
93.258301329070946
 21
43.938381306847475
  0
LINE
  8
_0-1_
  6
CENTER1
 62
  152
 10
35.905365173684118
 20
107.6629064563175
 11
30.71511187598594
 21
107.6629064563175
  0
LINE
  8
_0-1_
  6
CENTER1
 62
  152
 10
33.25830132907106
 20
110.79455199597544
 11
33.25830132907106
 21
104.56624803873763
  0
CIRCLE
  8
_0-1_
  6
CONTINUOUS
 62
  152
 10
33.25830132907106
 20
107.6629064563175
 40
1.5
  0
LINE
  8
_0-1_
  6
CONTINUOUS
 62
  152
 10
23.25830132907106
 20
108.66298156031746
 11
32.140334519921794
 21
108.66298156031746
  0
LINE
  8
_0-1_
  6
CONTINUOUS
 62
  152
 10
34.376268138220325
 20
108.66298156031746
 11
43.25830132907106
 21
108.66298156031746
  0
LINE
  8
_0-1_
  6
CONTINUOUS
 62
  152
 10
23.25830132907106
 20
107.6629064563175
 11
31.75830132907106
 21
107.6629064563175
  0
LINE
  8
_0-1_
  6
CONTINUOUS
 62
  152
 10
34.75830132907106
 20
107.6629064563175
 11
43.25830132907106
 21
107.6629064563175
  0
LINE
  8
_0-1_
  6
CONTINUOUS
 62
  152
 10
23.25830132907106
 20
106.66283135231748
 11
32.140334519921794
 21
106.66283135231748
  0
LINE
  8
_0-1_
  6
CONTINUOUS
 62
  152
 10
34.376268138220325
 20
106.66283135231748
 11
43.25830132907106
 21
106.66283135231748
  0
LINE
  8
_0-1_
  6
CENTER1
 62
  152
 10
55.905365173684118
 20
107.6629064563175
 11
50.71511187598594
 21
107.6629064563175
  0
LINE
  8
_0-1_
  6
CENTER1
 62
  152
 10
53.25830132907106
 20
110.79455199597544
 11
53.25830132907106
 21
104.56624803873763
  0
CIRCLE
  8
_0-1_
  6
CONTINUOUS
 62
  152
 10
53.25830132907106
 20
107.6629064563175
 40
1.5
  0
LINE
  8
_0-1_
  6
CONTINUOUS
 62
  152
 10
43.25830132907106
 20
108.66298156031746
 11
52.140334519921794
 21
108.66298156031746
  0
LINE
  8
_0-1_
  6
CONTINUOUS
 62
  152
 10
54.376268138220325
 20
108.66298156031746
 11
63.25830132907106
 21
108.66298156031746
  0
LINE
  8
_0-1_
  6
CONTINUOUS
 62
  152
 10
43.25830132907106
 20
107.6629064563175
 11
51.75830132907106
 21
107.6629064563175
  0
LINE
  8
_0-1_
  6
CONTINUOUS
 62
  152
 10
54.75830132907106
 20
107.6629064563175
 11
63.25830132907106
 21
107.6629064563175
  0
LINE
  8
_0-1_
  6
CONTINUOUS
 62
  152
 10
43.25830132907106
 20
106.66283135231748
 11
52.140334519921794
 21
106.66283135231748
  0
LINE
  8
_0-1_
  6
CONTINUOUS
 62
  152
 10
54.376268138220325
 20
106.66283135231748
 11
63.25830132907106
 21
106.66283135231748
  0
LINE
  8
_0-1_
  6
CENTER1
 62
  152
 10
75.905365173684118
 20
107.6629064563175
 11
70.71511187598594
 21
107.6629064563175
  0
LINE
  8
_0-1_
  6
CENTER1
 62
  152
 10
73.25830132907106
 20
110.79455199597544
 11
73.25830132907106
 21
104.56624803873763
  0
CIRCLE
  8
_0-1_
  6
CONTINUOUS
 62
  152
 10
73.25830132907106
 20
107.6629064563175
 40
1.5
  0
LINE
  8
_0-1_
  6
CONTINUOUS
 62
  152
 10
63.25830132907106
 20
108.66298156031746
 11
72.140334519921794
 21
108.66298156031746
  0
LINE
  8
_0-1_
  6
CONTINUOUS
 62
  152
 10
74.376268138220325
 20
108.66298156031746
 11
83.25830132907106
 21
108.66298156031746
  0
LINE
  8
_0-1_
  6
CONTINUOUS
 62
  152
 10
63.25830132907106
 20
107.6629064563175
 11
71.75830132907106
 21
107.6629064563175
  0
LINE
  8
_0-1_
  6
CONTINUOUS
 62
  152
 10
74.75830132907106
 20
107.6629064563175
 11
83.25830132907106
 21
107.6629064563175
  0
LINE
  8
_0-1_
  6
CONTINUOUS
 62
  152
 10
63.25830132907106
 20
106.66283135231748
 11
72.140334519921794
 21
106.66283135231748
  0
LINE
  8
_0-1_
  6
CONTINUOUS
 62
  152
 10
74.376268138220325
 20
106.66283135231748
 11
83.25830132907106
 21
106.66283135231748
  0
LINE
  8
_0-1_
  6
CENTER1
 62
  152
 10
95.905365173684118
 20
107.6629064563175
 11
90.71511187598594
 21
107.6629064563175
  0
LINE
  8
_0-1_
  6
CENTER1
 62
  152
 10
93.25830132907106
 20
110.79455199597544
 11
93.25830132907106
 21
104.56624803873763
  0
CIRCLE
  8
_0-1_
  6
CONTINUOUS
 62
  152
 10
93.25830132907106
 20
107.6629064563175
 40
1.5
  0
LINE
  8
_0-1_
  6
CONTINUOUS
 62
  152
 10
83.25830132907106
 20
108.66298156031746
 11
92.140334519921794
 21
108.66298156031746
  0
LINE
  8
_0-1_
  6
CONTINUOUS
 62
  152
 10
94.376268138220325
 20
108.66298156031746
 11
103.25830132907106
 21
108.66298156031746
  0
LINE
  8
_0-1_
  6
CONTINUOUS
 62
  152
 10
83.25830132907106
 20
107.6629064563175
 11
91.75830132907106
 21
107.6629064563175
  0
LINE
  8
_0-1_
  6
CONTINUOUS
 62
  152
 10
94.75830132907106
 20
107.6629064563175
 11
103.25830132907106
 21
107.6629064563175
  0
LINE
  8
_0-1_
  6
CONTINUOUS
 62
  152
 10
83.25830132907106
 20
106.66283135231748
 11
92.140334519921794
 21
106.66283135231748
  0
LINE
  8
_0-1_
  6
CONTINUOUS
 62
  152
 10
94.376268138220325
 20
106.66283135231748
 11
103.25830132907106
 21
106.66283135231748
  0
LINE
  8
_0-1_
  6
CENTER1
 62
  152
 10
164.52610858796589
 20
107.6629064563175
 11
159.33585529026772
 21
107.6629064563175
  0
LINE
  8
_0-1_
  6
CENTER1
 62
  152
 10
161.87904474335284
 20
110.79455199597544
 11
161.87904474335284
 21
104.56624803873763
  0
CIRCLE
  8
_0-1_
  6
CONTINUOUS
 62
  152
 10
161.87904474335284
 20
107.6629064563175
 40
1.5
  0
LINE
  8
_0-1_
  6
CONTINUOUS
 62
  152
 10
151.87904474335284
 20
108.66298156031746
 11
160.76107793420357
 21
108.66298156031746
  0
LINE
  8
_0-1_
  6
CONTINUOUS
 62
  152
 10
162.9970115525021
 20
108.66298156031746
 11
171.87904474335284
 21
108.66298156031746
  0
LINE
  8
_0-1_
  6
CONTINUOUS
 62
  152
 10
151.87904474335284
 20
107.6629064563175
 11
160.37904474335284
 21
107.6629064563175
  0
LINE
  8
_0-1_
  6
CONTINUOUS
 62
  152
 10
163.37904474335284
 20
107.6629064563175
 11
171.87904474335284
 21
107.6629064563175
  0
LINE
  8
_0-1_
  6
CONTINUOUS
 62
  152
 10
151.87904474335284
 20
106.66283135231748
 11
160.76107793420357
 21
106.66283135231748
  0
LINE
  8
_0-1_
  6
CONTINUOUS
 62
  152
 10
162.9970115525021
 20
106.66283135231748
 11
171.87904474335284
 21
106.66283135231748
  0
LINE
  8
_0-1_
  6
CENTER1
 62
  152
 10
179.23198089873978
 20
107.6629064563175
 11
184.42223419643796
 21
107.6629064563175
  0
LINE
  8
_0-1_
  6
CENTER1
 62
  152
 10
181.87904474335284
 20
110.79455199597544
 11
181.87904474335284
 21
104.56624803873763
  0
CIRCLE
  8
_0-1_
  6
CONTINUOUS
 62
  152
 10
181.87904474335284
 20
107.6629064563175
 40
1.5
  0
LINE
  8
_0-1_
  6
CONTINUOUS
 62
  152
 10
191.87904474335284
 20
108.66298156031746
 11
182.9970115525021
 21
108.66298156031746
  0
LINE
  8
_0-1_
  6
CONTINUOUS
 62
  152
 10
180.76107793420357
 20
108.66298156031746
 11
171.87904474335284
 21
108.66298156031746
  0
LINE
  8
_0-1_
  6
CONTINUOUS
 62
  152
 10
191.87904474335284
 20
107.6629064563175
 11
183.37904474335284
 21
107.6629064563175
  0
LINE
  8
_0-1_
  6
CONTINUOUS
 62
  152
 10
180.37904474335284
 20
107.6629064563175
 11
171.87904474335284
 21
107.6629064563175
  0
LINE
  8
_0-1_
  6
CONTINUOUS
 62
  152
 10
191.87904474335284
 20
106.66283135231748
 11
182.9970115525021
 21
106.66283135231748
  0
LINE
  8
_0-1_
  6
CONTINUOUS
 62
  152
 10
180.76107793420357
 20
106.66283135231748
 11
171.87904474335284
 21
106.66283135231748
  0
LINE
  8
_0-1_
  6
CONTINUOUS
 62
  152
 10
180.87904474335284
 20
46.993485838188917
 11
180.87904474335284
 21
43.79348583818819
  0
LINE
  8
_0-1_
  6
CONTINUOUS
 62
  152
 10
180.37904474335284
 20
44.29348583818819
 11
183.37904474335284
 21
44.29348583818819
  0
LINE
  8
_0-1_
  6
CONTINUOUS
 62
  152
 10
182.87904474335284
 20
43.79348583818819
 11
182.87904474335284
 21
46.993485838188917
  0
LINE
  8
_0-1_
  6
CONTINUOUS
 62
  152
 10
160.87904474335284
 20
46.993485838188917
 11
160.87904474335284
 21
43.79348583818819
  0
LINE
  8
_0-1_
  6
CONTINUOUS
 62
  152
 10
160.37904474335284
 20
44.29348583818819
 11
163.37904474335284
 21
44.29348583818819
  0
LINE
  8
_0-1_
  6
CONTINUOUS
 62
  152
 10
162.87904474335284
 20
43.79348583818819
 11
162.87904474335284
 21
46.993485838188917
  0
LINE
  8
_0-1_
  6
CONTINUOUS
 62
  152
 10
92.258301329070946
 20
46.993485838188917
 11
92.258301329070946
 21
43.79348583818819
  0
LINE
  8
_0-1_
  6
CONTINUOUS
 62
  152
 10
91.758301329070946
 20
44.29348583818819
 11
94.758301329070946
 21
44.29348583818819
  0
LINE
  8
_0-1_
  6
CONTINUOUS
 62
  152
 10
94.258301329070946
 20
43.79348583818819
 11
94.258301329070946
 21
46.993485838188917
  0
LINE
  8
_0-1_
  6
CONTINUOUS
 62
  152
 10
72.258301329070946
 20
46.993485838188917
 11
72.258301329070946
 21
43.79348583818819
  0
LINE
  8
_0-1_
  6
CONTINUOUS
 62
  152
 10
71.758301329070946
 20
44.29348583818819
 11
74.758301329070946
 21
44.29348583818819
  0
LINE
  8
_0-1_
  6
CONTINUOUS
 62
  152
 10
74.258301329070946
 20
43.79348583818819
 11
74.258301329070946
 21
46.993485838188917
  0
LINE
  8
_0-1_
  6
CONTINUOUS
 62
  152
 10
34.25830132907106
 20
46.993485838188917
 11
34.25830132907106
 21
43.79348583818819
  0
LINE
  8
_0-1_
  6
CONTINUOUS
 62
  152
 10
34.75830132907106
 20
44.29348583818819
 11
31.75830132907106
 21
44.29348583818819
  0
LINE
  8
_0-1_
  6
CONTINUOUS
 62
  152
 10
32.25830132907106
 20
43.79348583818819
 11
32.25830132907106
 21
46.993485838188917
  0
LINE
  8
_0-1_
  6
CONTINUOUS
 62
  152
 10
54.258301329070946
 20
46.993485838188917
 11
54.258301329070946
 21
43.79348583818819
  0
LINE
  8
_0-1_
  6
CONTINUOUS
 62
  152
 10
54.758301329070946
 20
44.29348583818819
 11
51.758301329070946
 21
44.29348583818819
  0
LINE
  8
_0-1_
  6
CONTINUOUS
 62
  152
 10
52.258301329070946
 20
43.79348583818819
 11
52.258301329070946
 21
46.993485838188917
  0
LINE
  8
_0-1_
  6
CENTER1
 62
  152
 10
255.9474873433528
 20
52.793465838317843
 11
255.9474873433528
 21
43.42478527236733
  0
ENDSEC
  0
EOF
