  0
SECTION
  2
HEADER
  9
$ACADVER
  1
AC1009
  9
$INSBASE
 10
0
 20
0
 30
0
  9
$EXTMIN
 10
0
 20
0
  9
$EXTMAX
 10
1189
 20
841
  9
$LIMMIN
 10
0
 20
0
  9
$LIMMAX
 10
1189
 20
841
  9
$LTSCALE
 40
1
  0
ENDSEC
  0
SECTION
  2
TABLES
  0
TABLE
  2
LTYPE
 70
     9
  0
LTYPE
  2
CONTINUOUS
 70
    64
  3
実線
 72
    65
 73
     0
 40
0.0
  0
LTYPE
  2
DASHED1
 70
    64
  3
--  --  --  --  --  --  --  --  
 72
    65
 73
     2
 40
2.5
 49
1.25
 49
-1.25
  0
LTYPE
  2
DASHED2
 70
    64
  3
----    ----    ----    ----    
 72
    65
 73
     2
 40
5.0
 49
2.5
 49
-2.5
  0
LTYPE
  2
DASHED3
 70
    64
  3
------  ------  ------  ------  
 72
    65
 73
     2
 40
5.0
 49
3.75
 49
-1.25
  0
LTYPE
  2
CENTER1
 70
    64
  3
----- - ----- - ----- - ----- - 
 72
    65
 73
     4
 40
10.0
 49
6.25
 49
-1.25
 49
1.25
 49
-1.25
  0
LTYPE
  2
CENTER2
 70
    64
  3
----------  --  ----------  --  
 72
    65
 73
     4
 40
20.0
 49
12.5
 49
-2.5
 49
2.5
 49
-2.5
  0
LTYPE
  2
PHANTOM1
 70
    64
  3
--- - - --- - - --- - - --- - - 
 72
    65
 73
     6
 40
10.0
 49
3.25
 49
-1.25
 49
1.25
 49
-1.25
 49
1.25
 49
-1.25
  0
LTYPE
  2
PHANTOM2
 70
    64
  3
--------  -  -  --------  -  -  
 72
    65
 73
     6
 40
20.0
 49
10.0
 49
-2.5
 49
1.25
 49
-2.5
 49
1.25
 49
-2.5
  0
LTYPE
  2
DOT
 70
    64
  3
-   -   -   -   -   -   -   -   
 72
    65
 73
     2
 40
2.5
 49
0.625
 49
-1.875
  0
LTYPE
  2
DUMMY
 70
    64
  3
ダミー
 72
    65
 73
     0
 40
0.0
  0
LTYPE
  2
RAND1
 70
    64
  3
ランダム線1
 72
    65
 73
     4
 40
10.0
 49
1.0
 49
-2.0
 49
3.0
 49
-4.0
  0
LTYPE
  2
RAND2
 70
    64
  3
ランダム線2
 72
    65
 73
     4
 40
14.0
 49
2.0
 49
-3.0
 49
4.0
 49
-5.0
  0
LTYPE
  2
RAND3
 70
    64
  3
ランダム線3
 72
    65
 73
     4
 40
18.0
 49
3.0
 49
-4.0
 49
5.0
 49
-6.0
  0
LTYPE
  2
RAND4
 70
    64
  3
ランダム線4
 72
    65
 73
     4
 40
22.0
 49
4.0
 49
-5.0
 49
6.0
 49
-7.0
  0
LTYPE
  2
RAND5
 70
    64
  3
ランダム線5
 72
    65
 73
     4
 40
26.0
 49
5.0
 49
-6.0
 49
7.0
 49
-8.0
  0
LTYPE
  2
LONG1
 70
    64
  3
----------  --  ----------  --  
 72
    65
 73
     4
 40
40.0
 49
32.5
 49
-2.5
 49
2.5
 49
-2.5
  0
LTYPE
  2
LONG2
 70
    64
  3
--------  -  -  --------  -  -  
 72
    65
 73
     6
 40
40.0
 49
30.0
 49
-2.5
 49
1.25
 49
-2.5
 49
1.25
 49
-2.5
  0
LTYPE
  2
LONG3
 70
    64
  3
+++++++++++++++..+++++++++++++++
 72
    65
 73
     2
 40
40.0
 49
37.5
 49
-2.5
  0
LTYPE
  2
LONG4
 70
    64
  3
+++++++++++++++..+++++++++++++++
 72
    65
 73
     2
 40
80.0
 49
75.0
 49
-5.0
  0
LTYPE
  2
LONG5
 70
    64
  3
----------  --  ----------  --  
 72
    65
 73
     4
 40
60.0
 49
37.5
 49
-7.5
 49
7.5
 49
-7.5
  0
LTYPE
  2
dashed
 70
   64
  3
-------   -------------   ------
 72
   65
 73
    2
 40
7.5
 49
6
 49
-1.5
  0
LTYPE
  2
dashed_spaced
 70
   64
  3
----        --------        ----
 72
   65
 73
    2
 40
12
 49
6
 49
-6
  0
LTYPE
  2
long_dashed_dotted
 70
   64
  3
------------- --- --------------
 72
   65
 73
    4
 40
15.25
 49
12
 49
-1.5
 49
0.25
 49
-1.5
  0
LTYPE
  2
long_dashed_double-dotted
 70
   64
  3
----------- --- --- ------------
 72
   65
 73
    6
 40
17
 49
12
 49
-1.5
 49
0.25
 49
-1.5
 49
0.25
 49
-1.5
  0
LTYPE
  2
long_dashed_triplicate-dotted
 70
   64
  3
--------- --- --- --- ----------
 72
   65
 73
    8
 40
18.75
 49
12
 49
-1.5
 49
0.25
 49
-1.5
 49
0.25
 49
-1.5
 49
0.25
 49
-1.5
  0
LTYPE
  2
dotted
 70
   64
  3
   -       -       -       -    
 72
   65
 73
    2
 40
1.75
 49
0.25
 49
-1.5
  0
LTYPE
  2
chain
 70
   64
  3
-------------- -- --------------
 72
   65
 73
    4
 40
18.5
 49
12
 49
-1.5
 49
3.5
 49
-1.5
  0
LTYPE
  2
chain_double_dash
 70
   64
  3
------------ -- -- -------------
 72
   65
 73
    6
 40
23.5
 49
12
 49
-1.5
 49
3.5
 49
-1.5
 49
3.5
 49
-1.5
  0
LTYPE
  2
dashed_dotted
 70
   64
  3
-----------     -     ----------
 72
   65
 73
    4
 40
9.25
 49
6
 49
-1.5
 49
0.25
 49
-1.5
  0
LTYPE
  2
double-dashed_dotted
 70
   64
  3
------   -----------   -   -----
 72
   65
 73
    6
 40
16.75
 49
6
 49
-1.5
 49
6
 49
-1.5
 49
0.25
 49
-1.5
  0
LTYPE
  2
dashed_double-dotted
 70
   64
  3
---------    -    -    ---------
 72
   65
 73
    6
 40
11
 49
6
 49
-1.5
 49
0.25
 49
-1.5
 49
0.25
 49
-1.5
  0
LTYPE
  2
double-dashed_double-dotted
 70
   64
  3
-----   ---------   -   -   ----
 72
   65
 73
    8
 40
18.5
 49
6
 49
-1.5
 49
6
 49
-1.5
 49
0.25
 49
-1.5
 49
0.25
 49
-1.5
  0
LTYPE
  2
dashed_triplicate-dotted
 70
   64
  3
-------    -    -    -    ------
 72
   65
 73
    8
 40
12.75
 49
6
 49
-1.5
 49
0.25
 49
-1.5
 49
0.25
 49
-1.5
 49
0.25
 49
-1.5
  0
LTYPE
  2
double-dashed_triplicate-dotted
 70
   64
  3
-----  ---------  -  -  -  -----
 72
   65
 73
   10
 40
20.25
 49
6
 49
-1.5
 49
6
 49
-1.5
 49
0.25
 49
-1.5
 49
0.25
 49
-1.5
 49
0.25
 49
-1.5
  0
LTYPE
  2
undefined
 70
   64
  3
--------------------------------
 72
   65
 73
    0
 40
0
  0
ENDTAB
  0
TABLE
  2
STYLE
  5
3
100
AcDbSymbolTable
 70
     1
  0
STYLE
  5
10
100
AcDbSymbolTableRecord
100
AcDbTextStyleTableRecord
  2
STANDARD
 70
     0
 40
0.0
 41
1.0
 50
0.0
 71
     0
 42
0.2
  3
txt
  4
bigfont.shx
  0
STYLE
  5
26
100
AcDbSymbolTableRecord
100
AcDbTextStyleTableRecord
  2
TATEGAKI
 70
    68
 40
0.0
 41
1.0
 50
0.0
 71
     0
 42
1.0
  3
txt
  4
bigfont.shx
  0
ENDTAB
  0
TABLE
  2
LAYER
 70
    6
  0
LAYER
  2
_0-0_
 70
   64
 62
    7
  6
CONTINUOUS
  0
LAYER
  2
_0-1_
 70
   64
 62
    7
  6
CONTINUOUS
  0
LAYER
  2
_0-2_
 70
   64
 62
    7
  6
CONTINUOUS
  0
LAYER
  2
_0-8_
 70
   64
 62
    7
  6
CONTINUOUS
  0
LAYER
  2
_0-b_
 70
   64
 62
    7
  6
CONTINUOUS
  0
LAYER
  2
ADD_LINE
 70
   64
 62
    7
  6
CONTINUOUS
  0
ENDTAB
  0
ENDSEC
  0
SECTION
  2
BLOCKS
  0
ENDSEC
  0
SECTION
  2
ENTITIES
  0
LINE
  8
_0-0_
  6
CONTINUOUS
 62
    7
 10
220.05176015472233
 20
29.67230850902439
 11
240.05176015472233
 21
29.67230850902439
  0
LINE
  8
_0-0_
  6
CONTINUOUS
 62
    7
 10
220.05176015472233
 20
37.67230850902439
 11
240.05176015472233
 21
37.67230850902439
  0
LINE
  8
_0-0_
  6
CONTINUOUS
 62
    7
 10
220.05176015472233
 20
30.67230850902439
 11
240.05176015472233
 21
30.67230850902439
  0
LINE
  8
_0-0_
  6
CONTINUOUS
 62
    7
 10
220.05176015472233
 20
31.67230850902439
 11
240.05176015472233
 21
31.67230850902439
  0
LINE
  8
_0-0_
  6
CONTINUOUS
 62
    7
 10
220.05176015472233
 20
35.67230850902439
 11
240.05176015472233
 21
35.67230850902439
  0
LINE
  8
_0-0_
  6
CONTINUOUS
 62
    7
 10
220.05176015472233
 20
36.67230850902439
 11
240.05176015472233
 21
36.67230850902439
  0
LINE
  8
_0-0_
  6
CONTINUOUS
 62
    7
 10
240.05176015472233
 20
31.67230850902439
 11
240.05176015472233
 21
29.67230850902439
  0
LINE
  8
_0-0_
  6
CONTINUOUS
 62
    7
 10
240.05176015472233
 20
37.67230850902439
 11
240.05176015472233
 21
35.67230850902439
  0
LINE
  8
_0-0_
  6
CONTINUOUS
 62
    7
 10
220.05176015472233
 20
31.67230850902439
 11
220.05176015472233
 21
29.67230850902439
  0
LINE
  8
_0-0_
  6
CONTINUOUS
 62
    7
 10
220.05176015472233
 20
37.67230850902439
 11
220.05176015472233
 21
35.67230850902439
  0
LINE
  8
_0-0_
  6
CONTINUOUS
 62
    7
 10
243.55176015472233
 20
31.872308509024435
 11
243.55176015472233
 21
40.472308509024458
  0
LINE
  8
_0-0_
  6
CONTINUOUS
 62
    7
 10
252.85176015472234
 20
31.67230850902439
 11
243.75176015472232
 21
31.67230850902439
  0
ARC
  8
_0-0_
  6
CONTINUOUS
 62
    7
 10
243.75176015472232
 20
31.872308509024435
 40
0.2
 50
180
 51
270
  0
ARC
  8
_0-0_
  6
CONTINUOUS
 62
    7
 10
252.85176015472234
 20
31.472308509024458
 40
0.2
 50
0
 51
90
  0
LINE
  8
_0-0_
  6
CONTINUOUS
 62
    7
 10
253.05176015472233
 20
31.472308509024458
 11
253.05176015472233
 21
27.67230850902439
  0
LINE
  8
_0-0_
  6
CONTINUOUS
 62
    7
 10
216.55176015472233
 20
31.872308509024435
 11
216.55176015472233
 21
40.472308509024458
  0
LINE
  8
_0-0_
  6
CONTINUOUS
 62
    7
 10
207.25176015472238
 20
31.67230850902439
 11
216.35176015472229
 21
31.67230850902439
  0
ARC
  8
_0-0_
  6
CONTINUOUS
 62
    7
 10
216.35176015472229
 20
31.872308509024435
 40
0.2
 50
270
 51
0
  0
ARC
  8
_0-0_
  6
CONTINUOUS
 62
    7
 10
207.25176015472238
 20
31.472308509024458
 40
0.2
 50
90
 51
180
  0
LINE
  8
_0-0_
  6
CONTINUOUS
 62
    7
 10
207.05176015472233
 20
31.472308509024458
 11
207.05176015472233
 21
27.67230850902439
  0
LINE
  8
_0-0_
  6
CONTINUOUS
 62
    7
 10
243.35176015472234
 20
40.67230850902439
 11
216.75176015472238
 21
40.67230850902439
  0
ARC
  8
_0-0_
  6
CONTINUOUS
 62
    7
 10
243.35176015472234
 20
40.472308509024458
 40
0.2
 50
0
 51
90
  0
ARC
  8
_0-0_
  6
CONTINUOUS
 62
    7
 10
216.75176015472238
 20
40.472308509024458
 40
0.2
 50
90
 51
180
  0
LINE
  8
_0-0_
  6
CONTINUOUS
 62
    7
 10
207.05176015472233
 20
27.67230850902439
 11
253.05176015472233
 21
27.67230850902439
  0
LINE
  8
_0-0_
  6
CONTINUOUS
 62
    7
 10
21.705446536741192
 20
49.79147826468909
 11
71.705446536741192
 21
49.79147826468909
  0
LINE
  8
_0-0_
  6
CONTINUOUS
 62
    7
 10
71.705446536741192
 20
139.54738331818618
 11
21.705446536741192
 21
139.54738331818618
  0
LINE
  8
_0-0_
  6
CONTINUOUS
 62
    7
 10
21.705446536741192
 20
113.047383679186
 11
71.705446536741192
 21
113.047383679186
  0
LINE
  8
_0-0_
  6
CONTINUOUS
 62
    7
 10
71.705446536741192
 20
114.5473837981861
 11
21.705446536741192
 21
114.5473837981861
  0
LINE
  8
_0-0_
  6
CONTINUOUS
 62
    7
 10
51.705446536741192
 20
39.791477116270073
 11
51.705446536741192
 21
33.991477118270097
  0
LINE
  8
_0-0_
  6
CONTINUOUS
 62
    7
 10
41.705446536741192
 20
39.791477116270073
 11
41.705446536741192
 21
33.991477118270097
  0
LINE
  8
_0-0_
  6
CONTINUOUS
 62
    7
 10
21.705446536741192
 20
49.79147826468909
 11
21.705446536741192
 21
33.991477118270097
  0
LINE
  8
_0-0_
  6
CONTINUOUS
 62
    7
 10
41.705446536741192
 20
39.791477116270073
 11
21.705446536741192
 21
39.791477116270073
  0
LINE
  8
_0-0_
  6
CONTINUOUS
 62
    7
 10
41.705446536741192
 20
33.991477118270097
 11
21.705446536741192
 21
33.991477118270097
  0
LINE
  8
_0-0_
  6
CONTINUOUS
 62
    7
 10
71.705446536741192
 20
49.79147826468909
 11
71.705446536741192
 21
33.991477118270097
  0
LINE
  8
_0-0_
  6
CONTINUOUS
 62
    7
 10
51.705446536741192
 20
39.791477116270073
 11
71.705446536741192
 21
39.791477116270073
  0
LINE
  8
_0-0_
  6
CONTINUOUS
 62
    7
 10
51.705446536741192
 20
33.991477118270097
 11
71.705446536741192
 21
33.991477118270097
  0
LINE
  8
_0-0_
  6
CONTINUOUS
 62
    7
 10
62.705446536740965
 20
33.591477118269552
 11
60.705446536740965
 21
33.591477118269552
  0
LINE
  8
_0-0_
  6
CONTINUOUS
 62
    7
 10
32.705446536740965
 20
33.591477118269552
 11
30.705446536740965
 21
33.591477118269552
  0
LINE
  8
_0-0_
  6
CONTINUOUS
 62
    7
 10
30.705446536740965
 20
33.591477118269552
 11
30.305446536740419
 21
33.991477118270097
  0
LINE
  8
_0-0_
  6
CONTINUOUS
 62
    7
 10
33.10544653674151
 20
33.991477118270097
 11
32.705446536740965
 21
33.591477118269552
  0
LINE
  8
_0-0_
  6
CONTINUOUS
 62
    7
 10
60.705446536740965
 20
33.591477118269552
 11
60.305446536740419
 21
33.991477118270097
  0
LINE
  8
_0-0_
  6
CONTINUOUS
 62
    7
 10
63.10544653674151
 20
33.991477118270097
 11
62.705446536740965
 21
33.591477118269552
  0
LINE
  8
_0-0_
  6
CONTINUOUS
 62
    7
 10
21.705446536741192
 20
139.54738331818618
 11
21.705446536741192
 21
108.44738331818581
  0
LINE
  8
_0-0_
  6
CONTINUOUS
 62
    7
 10
71.705446536741192
 20
108.44738331818581
 11
71.705446536741192
 21
139.54738331818618
  0
LINE
  8
_0-0_
  6
CONTINUOUS
 62
    7
 10
129.45644918147406
 20
49.491467217446655
 11
129.45644918147406
 21
48.591467217446564
  0
LINE
  8
_0-0_
  6
CONTINUOUS
 62
    7
 10
129.1564491814741
 20
48.291467217446382
 11
128.55644918147419
 21
48.291467217446382
  0
LINE
  8
_0-0_
  6
CONTINUOUS
 62
    7
 10
128.25644918147424
 20
47.991467217446655
 11
128.25644918147424
 21
45.791467217446382
  0
LINE
  8
_0-0_
  6
CONTINUOUS
 62
    7
 10
128.55644918147419
 20
45.491467217446655
 11
129.1564491814741
 21
45.491467217446655
  0
LINE
  8
_0-0_
  6
CONTINUOUS
 62
    7
 10
129.45644918147406
 20
45.191467217446473
 11
129.45644918147406
 21
44.391467217446291
  0
LINE
  8
_0-0_
  6
CONTINUOUS
 62
    7
 10
129.75644918147424
 20
44.091467217446564
 11
132.35644918147415
 21
44.091467217446564
  0
LINE
  8
_0-0_
  6
CONTINUOUS
 62
    7
 10
132.6564491814741
 20
44.391467217446291
 11
132.6564491814741
 21
45.191467217446473
  0
LINE
  8
_0-0_
  6
CONTINUOUS
 62
    7
 10
132.95644918147406
 20
45.491467217446655
 11
133.55644918147419
 21
45.491467217446655
  0
LINE
  8
_0-0_
  6
CONTINUOUS
 62
    7
 10
133.85644918147415
 20
45.791467217446382
 11
133.85644918147415
 21
47.991467217446655
  0
LINE
  8
_0-0_
  6
CONTINUOUS
 62
    7
 10
133.55644918147419
 20
48.291467217446382
 11
132.95644918147406
 21
48.291467217446382
  0
LINE
  8
_0-0_
  6
CONTINUOUS
 62
    7
 10
132.6564491814741
 20
48.591467217446564
 11
132.6564491814741
 21
49.491467217446655
  0
LINE
  8
_0-0_
  6
CONTINUOUS
 62
    7
 10
136.95644918147406
 20
49.491467217446655
 11
136.95644918147406
 21
48.591467217446564
  0
LINE
  8
_0-0_
  6
CONTINUOUS
 62
    7
 10
136.6564491814741
 20
48.291467217446382
 11
136.05644918147419
 21
48.291467217446382
  0
LINE
  8
_0-0_
  6
CONTINUOUS
 62
    7
 10
135.75644918147424
 20
47.991467217446655
 11
135.75644918147424
 21
45.791467217446382
  0
LINE
  8
_0-0_
  6
CONTINUOUS
 62
    7
 10
136.05644918147419
 20
45.491467217446655
 11
136.6564491814741
 21
45.491467217446655
  0
LINE
  8
_0-0_
  6
CONTINUOUS
 62
    7
 10
136.95644918147406
 20
45.191467217446473
 11
136.95644918147406
 21
44.391467217446291
  0
LINE
  8
_0-0_
  6
CONTINUOUS
 62
    7
 10
137.25644918147424
 20
44.091467217446564
 11
139.85644918147415
 21
44.091467217446564
  0
LINE
  8
_0-0_
  6
CONTINUOUS
 62
    7
 10
140.1564491814741
 20
44.391467217446291
 11
140.1564491814741
 21
45.191467217446473
  0
LINE
  8
_0-0_
  6
CONTINUOUS
 62
    7
 10
140.45644918147406
 20
45.491467217446655
 11
141.05644918147419
 21
45.491467217446655
  0
LINE
  8
_0-0_
  6
CONTINUOUS
 62
    7
 10
141.35644918147415
 20
45.791467217446382
 11
141.35644918147415
 21
47.991467217446655
  0
LINE
  8
_0-0_
  6
CONTINUOUS
 62
    7
 10
141.05644918147419
 20
48.291467217446382
 11
140.45644918147406
 21
48.291467217446382
  0
LINE
  8
_0-0_
  6
CONTINUOUS
 62
    7
 10
140.1564491814741
 20
48.591467217446564
 11
140.1564491814741
 21
49.491467217446655
  0
LINE
  8
_0-0_
  6
CONTINUOUS
 62
    7
 10
144.45644918147406
 20
49.491467217446655
 11
144.45644918147406
 21
48.591467217446564
  0
LINE
  8
_0-0_
  6
CONTINUOUS
 62
    7
 10
144.1564491814741
 20
48.291467217446382
 11
143.55644918147419
 21
48.291467217446382
  0
LINE
  8
_0-0_
  6
CONTINUOUS
 62
    7
 10
143.25644918147424
 20
47.991467217446655
 11
143.25644918147424
 21
45.791467217446382
  0
LINE
  8
_0-0_
  6
CONTINUOUS
 62
    7
 10
143.55644918147419
 20
45.491467217446655
 11
144.1564491814741
 21
45.491467217446655
  0
LINE
  8
_0-0_
  6
CONTINUOUS
 62
    7
 10
144.45644918147406
 20
45.191467217446473
 11
144.45644918147406
 21
44.391467217446291
  0
LINE
  8
_0-0_
  6
CONTINUOUS
 62
    7
 10
144.75644918147424
 20
44.091467217446564
 11
147.35644918147415
 21
44.091467217446564
  0
LINE
  8
_0-0_
  6
CONTINUOUS
 62
    7
 10
147.6564491814741
 20
44.391467217446291
 11
147.6564491814741
 21
45.191467217446473
  0
LINE
  8
_0-0_
  6
CONTINUOUS
 62
    7
 10
147.95644918147406
 20
45.491467217446655
 11
148.55644918147419
 21
45.491467217446655
  0
LINE
  8
_0-0_
  6
CONTINUOUS
 62
    7
 10
148.85644918147415
 20
45.791467217446382
 11
148.85644918147415
 21
47.991467217446655
  0
LINE
  8
_0-0_
  6
CONTINUOUS
 62
    7
 10
148.55644918147419
 20
48.291467217446382
 11
147.95644918147406
 21
48.291467217446382
  0
LINE
  8
_0-0_
  6
CONTINUOUS
 62
    7
 10
147.6564491814741
 20
48.591467217446564
 11
147.6564491814741
 21
49.491467217446655
  0
LINE
  8
_0-0_
  6
CONTINUOUS
 62
    7
 10
147.95644918147406
 20
49.791467217446382
 11
150.05644918147419
 21
49.791467217446382
  0
LINE
  8
_0-0_
  6
CONTINUOUS
 62
    7
 10
151.05644918147419
 20
48.791467217446382
 11
151.05644918147419
 21
43.291467217446382
  0
LINE
  8
_0-0_
  6
CONTINUOUS
 62
    7
 10
150.05644918147419
 20
42.291467217446382
 11
136.67302993520508
 21
42.291467217446382
  0
LINE
  8
_0-0_
  6
CONTINUOUS
 62
    7
 10
136.41322231406986
 20
42.141467217446291
 11
135.1430517218526
 21
39.941467217446473
  0
LINE
  8
_0-0_
  6
CONTINUOUS
 62
    7
 10
134.88324410071715
 20
39.791467217446382
 11
132.85644918147415
 21
39.791467217446382
  0
LINE
  8
_0-0_
  6
CONTINUOUS
 62
    7
 10
132.55644918147419
 20
40.091467217446564
 11
132.55644918147419
 21
40.991467217446655
  0
LINE
  8
_0-0_
  6
CONTINUOUS
 62
    7
 10
132.25644918147424
 20
41.291467217446382
 11
128.78071325018601
 21
41.291467217446382
  0
LINE
  8
_0-0_
  6
CONTINUOUS
 62
    7
 10
128.56858121583019
 20
41.203599251802473
 11
127.24431714711824
 21
39.879335183090291
  0
LINE
  8
_0-0_
  6
CONTINUOUS
 62
    7
 10
127.1564491814741
 20
39.667203148734473
 11
127.1564491814741
 21
38.291467217446382
  0
LINE
  8
_0-0_
  6
CONTINUOUS
 62
    7
 10
127.45644918147406
 20
37.991467217446655
 11
129.45644918147406
 21
37.991467217446655
  0
LINE
  8
_0-0_
  6
CONTINUOUS
 62
    7
 10
129.75644918147424
 20
37.691467217446473
 11
129.75644918147424
 21
36.291467217446382
  0
LINE
  8
_0-0_
  6
CONTINUOUS
 62
    7
 10
129.45644918147406
 20
35.991467217446655
 11
126.44185937809908
 21
35.991467217446655
  0
LINE
  8
_0-0_
  6
CONTINUOUS
 62
    7
 10
126.17353122079913
 20
36.157303138796408
 11
124.5881210241742
 21
39.328123532046277
  0
LINE
  8
_0-0_
  6
CONTINUOUS
 62
    7
 10
124.55644918147419
 20
39.462287610696251
 11
124.55644918147419
 21
40.167203148734473
  0
LINE
  8
_0-0_
  6
CONTINUOUS
 62
    7
 10
124.6443171471181
 20
40.379335183090291
 11
125.96858121583006
 21
41.703599251802473
  0
LINE
  8
_0-0_
  6
CONTINUOUS
 62
    7
 10
126.05644918147419
 20
41.915731286158291
 11
126.05644918147419
 21
48.791467217446382
  0
LINE
  8
_0-0_
  6
CONTINUOUS
 62
    7
 10
124.49464642768709
 20
39.51507711826963
 11
126.89464642768672
 21
34.715077118269903
  0
LINE
  8
_0-0_
  6
CONTINUOUS
 62
    7
 10
126.44743342768726
 20
33.991467118269895
 11
120.45645052768742
 21
33.991467118269895
  0
LINE
  8
_0-0_
  6
CONTINUOUS
 62
    7
 10
120.85645192768681
 20
33.991467118269895
 11
121.2564505276867
 21
33.591467118269804
  0
LINE
  8
_0-0_
  6
CONTINUOUS
 62
    7
 10
121.2564505276867
 20
33.591467118269804
 11
123.25645042768684
 21
33.591467118269804
  0
LINE
  8
_0-0_
  6
CONTINUOUS
 62
    7
 10
123.25645042768684
 20
33.591467118269804
 11
123.65644842768671
 21
33.991467118269895
  0
LINE
  8
_0-0_
  6
CONTINUOUS
 62
    7
 10
119.95645052768651
 20
34.491467118269895
 11
119.95645052768651
 21
39.291467118269622
  0
LINE
  8
_0-0_
  6
CONTINUOUS
 62
    7
 10
120.45645052768742
 20
39.791467118269622
 11
121.12253442768707
 21
39.791467118269622
  0
LINE
  8
_0-0_
  6
CONTINUOUS
 62
    7
 10
121.37253962768756
 20
39.724477118269817
 11
122.00646142768693
 21
39.358477118269832
  0
LINE
  8
_0-0_
  6
CONTINUOUS
 62
    7
 10
122.50644642768731
 20
39.358457118269882
 11
123.14050342768661
 21
39.724497118269767
  0
LINE
  8
_0-0_
  6
CONTINUOUS
 62
    7
 10
123.39048442768745
 20
39.791467118269622
 11
124.04743342768671
 21
39.791467118269622
  0
ARC
  8
_0-0_
  6
CONTINUOUS
 62
    7
 10
123.39048442768745
 20
39.291467118269622
 40
0.5
 50
90
 51
119.99737
  0
ARC
  8
_0-0_
  6
CONTINUOUS
 62
    7
 10
121.12253442768707
 20
39.291467118269622
 40
0.5
 50
59.99931500000001
 51
90
  0
ARC
  8
_0-0_
  6
CONTINUOUS
 62
    7
 10
122.2564664276868
 20
39.791487118270027
 40
0.5
 50
239.99931000000001
 51
299.99736999999999
  0
ARC
  8
_0-0_
  6
CONTINUOUS
 62
    7
 10
124.04743342768671
 20
39.291467118269622
 40
0.5
 50
26.565051
 51
90.000000000000014
  0
ARC
  8
_0-0_
  6
CONTINUOUS
 62
    7
 10
120.45645052768742
 20
39.291467118269622
 40
0.5
 50
90
 51
180
  0
ARC
  8
_0-0_
  6
CONTINUOUS
 62
    7
 10
120.45645052768742
 20
34.491467118269895
 40
0.5
 50
180
 51
270
  0
ARC
  8
_0-0_
  6
CONTINUOUS
 62
    7
 10
126.44743342768726
 20
34.491467118269895
 40
0.5
 50
270
 51
26.565051000000025
  0
ARC
  8
_0-0_
  6
CONTINUOUS
 62
    7
 10
150.05644918147419
 20
43.291467217446382
 40
1
 50
270
 51
0
  0
ARC
  8
_0-0_
  6
CONTINUOUS
 62
    7
 10
150.05644918147419
 20
48.791467217446382
 40
1
 50
0.0000000000000127
 51
90
  0
ARC
  8
_0-0_
  6
CONTINUOUS
 62
    7
 10
147.95644918147406
 20
49.491467217446655
 40
0.2999999999999998
 50
90
 51
180
  0
ARC
  8
_0-0_
  6
CONTINUOUS
 62
    7
 10
147.95644918147406
 20
48.591467217446564
 40
0.2999999999999998
 50
180
 51
270
  0
ARC
  8
_0-0_
  6
CONTINUOUS
 62
    7
 10
148.55644918147419
 20
47.991467217446655
 40
0.2999999999999998
 50
0
 51
90
  0
ARC
  8
_0-0_
  6
CONTINUOUS
 62
    7
 10
148.55644918147419
 20
45.791467217446382
 40
0.2999999999999998
 50
270
 51
0
  0
ARC
  8
_0-0_
  6
CONTINUOUS
 62
    7
 10
147.95644918147406
 20
45.191467217446473
 40
0.2999999999999998
 50
90
 51
180
  0
ARC
  8
_0-0_
  6
CONTINUOUS
 62
    7
 10
147.35644918147415
 20
44.391467217446291
 40
0.2999999999999998
 50
270
 51
0
  0
ARC
  8
_0-0_
  6
CONTINUOUS
 62
    7
 10
144.1564491814741
 20
49.491467217446655
 40
0.2999999999999998
 50
0
 51
90
  0
ARC
  8
_0-0_
  6
CONTINUOUS
 62
    7
 10
144.1564491814741
 20
48.591467217446564
 40
0.2999999999999998
 50
270
 51
0
  0
ARC
  8
_0-0_
  6
CONTINUOUS
 62
    7
 10
143.55644918147419
 20
47.991467217446655
 40
0.2999999999999998
 50
90
 51
180
  0
ARC
  8
_0-0_
  6
CONTINUOUS
 62
    7
 10
143.55644918147419
 20
45.791467217446382
 40
0.2999999999999998
 50
180
 51
270
  0
ARC
  8
_0-0_
  6
CONTINUOUS
 62
    7
 10
144.1564491814741
 20
45.191467217446473
 40
0.2999999999999998
 50
0
 51
90
  0
ARC
  8
_0-0_
  6
CONTINUOUS
 62
    7
 10
144.75644918147424
 20
44.391467217446291
 40
0.2999999999999998
 50
180
 51
270
  0
ARC
  8
_0-0_
  6
CONTINUOUS
 62
    7
 10
140.45644918147406
 20
49.491467217446655
 40
0.2999999999999998
 50
90
 51
180
  0
ARC
  8
_0-0_
  6
CONTINUOUS
 62
    7
 10
140.45644918147406
 20
48.591467217446564
 40
0.2999999999999998
 50
180
 51
270
  0
ARC
  8
_0-0_
  6
CONTINUOUS
 62
    7
 10
141.05644918147419
 20
47.991467217446655
 40
0.2999999999999998
 50
0
 51
90
  0
ARC
  8
_0-0_
  6
CONTINUOUS
 62
    7
 10
141.05644918147419
 20
45.791467217446382
 40
0.2999999999999998
 50
270
 51
0
  0
ARC
  8
_0-0_
  6
CONTINUOUS
 62
    7
 10
140.45644918147406
 20
45.191467217446473
 40
0.2999999999999998
 50
90
 51
180
  0
ARC
  8
_0-0_
  6
CONTINUOUS
 62
    7
 10
139.85644918147415
 20
44.391467217446291
 40
0.2999999999999998
 50
270
 51
0
  0
ARC
  8
_0-0_
  6
CONTINUOUS
 62
    7
 10
136.6564491814741
 20
49.491467217446655
 40
0.2999999999999998
 50
0
 51
90
  0
ARC
  8
_0-0_
  6
CONTINUOUS
 62
    7
 10
136.6564491814741
 20
48.591467217446564
 40
0.2999999999999998
 50
270
 51
0
  0
ARC
  8
_0-0_
  6
CONTINUOUS
 62
    7
 10
136.05644918147419
 20
47.991467217446655
 40
0.2999999999999998
 50
90
 51
180
  0
ARC
  8
_0-0_
  6
CONTINUOUS
 62
    7
 10
136.05644918147419
 20
45.791467217446382
 40
0.2999999999999998
 50
180
 51
270
  0
ARC
  8
_0-0_
  6
CONTINUOUS
 62
    7
 10
136.6564491814741
 20
45.191467217446473
 40
0.2999999999999998
 50
0
 51
90
  0
ARC
  8
_0-0_
  6
CONTINUOUS
 62
    7
 10
137.25644918147424
 20
44.391467217446291
 40
0.2999999999999998
 50
180
 51
270
  0
ARC
  8
_0-0_
  6
CONTINUOUS
 62
    7
 10
132.95644918147406
 20
49.491467217446655
 40
0.2999999999999998
 50
90
 51
180
  0
ARC
  8
_0-0_
  6
CONTINUOUS
 62
    7
 10
132.95644918147406
 20
48.591467217446564
 40
0.2999999999999998
 50
180
 51
270
  0
ARC
  8
_0-0_
  6
CONTINUOUS
 62
    7
 10
133.55644918147419
 20
47.991467217446655
 40
0.2999999999999998
 50
0
 51
90
  0
ARC
  8
_0-0_
  6
CONTINUOUS
 62
    7
 10
133.55644918147419
 20
45.791467217446382
 40
0.2999999999999998
 50
270
 51
0
  0
ARC
  8
_0-0_
  6
CONTINUOUS
 62
    7
 10
132.95644918147406
 20
45.191467217446473
 40
0.2999999999999998
 50
90
 51
180
  0
ARC
  8
_0-0_
  6
CONTINUOUS
 62
    7
 10
132.35644918147415
 20
44.391467217446291
 40
0.2999999999999998
 50
270
 51
0
  0
ARC
  8
_0-0_
  6
CONTINUOUS
 62
    7
 10
129.1564491814741
 20
49.491467217446655
 40
0.2999999999999998
 50
0
 51
90
  0
ARC
  8
_0-0_
  6
CONTINUOUS
 62
    7
 10
129.1564491814741
 20
48.591467217446564
 40
0.2999999999999998
 50
270
 51
0
  0
ARC
  8
_0-0_
  6
CONTINUOUS
 62
    7
 10
128.55644918147419
 20
47.991467217446655
 40
0.2999999999999998
 50
90
 51
180
  0
ARC
  8
_0-0_
  6
CONTINUOUS
 62
    7
 10
128.55644918147419
 20
45.791467217446382
 40
0.2999999999999998
 50
180
 51
270
  0
ARC
  8
_0-0_
  6
CONTINUOUS
 62
    7
 10
129.1564491814741
 20
45.191467217446473
 40
0.2999999999999998
 50
0
 51
90
  0
ARC
  8
_0-0_
  6
CONTINUOUS
 62
    7
 10
129.75644918147424
 20
44.391467217446291
 40
0.2999999999999998
 50
180
 51
270
  0
ARC
  8
_0-0_
  6
CONTINUOUS
 62
    7
 10
127.05644918147419
 20
48.791467217446382
 40
1
 50
90
 51
180
  0
ARC
  8
_0-0_
  6
CONTINUOUS
 62
    7
 10
125.75644918147424
 20
41.915731286158291
 40
0.2999999999999998
 50
315
 51
0
  0
ARC
  8
_0-0_
  6
CONTINUOUS
 62
    7
 10
124.85644918147415
 20
40.167203148734473
 40
0.2999999999999998
 50
135
 51
180
  0
ARC
  8
_0-0_
  6
CONTINUOUS
 62
    7
 10
124.85644918147415
 20
39.462287610696251
 40
0.2999999999999998
 50
180.00000000000006
 51
206.565051177078
  0
ARC
  8
_0-0_
  6
CONTINUOUS
 62
    7
 10
126.44185937809908
 20
36.291467217446382
 40
0.2999999999999998
 50
206.565051177078
 51
270
  0
ARC
  8
_0-0_
  6
CONTINUOUS
 62
    7
 10
129.45644918147406
 20
36.291467217446382
 40
0.2999999999999998
 50
270
 51
0
  0
ARC
  8
_0-0_
  6
CONTINUOUS
 62
    7
 10
129.45644918147406
 20
37.691467217446473
 40
0.2999999999999998
 50
0.0000000000000127
 51
90
  0
ARC
  8
_0-0_
  6
CONTINUOUS
 62
    7
 10
127.45644918147406
 20
38.291467217446382
 40
0.2999999999999998
 50
180
 51
270
  0
ARC
  8
_0-0_
  6
CONTINUOUS
 62
    7
 10
127.45644918147406
 20
39.667203148734473
 40
0.2999999999999998
 50
135
 51
180
  0
ARC
  8
_0-0_
  6
CONTINUOUS
 62
    7
 10
128.78071325018601
 20
40.991467217446655
 40
0.2999999999999998
 50
90.000000000000028
 51
135.00000000000006
  0
ARC
  8
_0-0_
  6
CONTINUOUS
 62
    7
 10
132.25644918147424
 20
40.991467217446655
 40
0.2999999999999998
 50
0
 51
90
  0
ARC
  8
_0-0_
  6
CONTINUOUS
 62
    7
 10
132.85644918147415
 20
40.091467217446564
 40
0.2999999999999998
 50
180
 51
270
  0
ARC
  8
_0-0_
  6
CONTINUOUS
 62
    7
 10
134.88324410071715
 20
40.091467217446564
 40
0.2999999999999998
 50
270
 51
330.00000000000006
  0
ARC
  8
_0-0_
  6
CONTINUOUS
 62
    7
 10
136.67302993520508
 20
41.991467217446655
 40
0.2999999999999998
 50
90.000000000000028
 51
150.00000000000003
  0
LINE
  8
_0-0_
  6
CONTINUOUS
 62
    7
 10
71.705446536741192
 20
136.14738331818614
 11
21.705446536741192
 21
136.14738331818614
  0
LINE
  8
_0-0_
  6
CONTINUOUS
 62
    7
 10
71.705446536741192
 20
128.64738331818614
 11
69.705446536741192
 21
128.64738331818614
  0
LINE
  8
_0-0_
  6
CONTINUOUS
 62
    7
 10
23.705446536741192
 20
128.64738331818614
 11
21.705446536741192
 21
128.64738331818614
  0
LINE
  8
_0-0_
  6
CONTINUOUS
 62
    7
 10
71.705446536741192
 20
125.44738331818621
 11
69.705446536741192
 21
125.44738331818621
  0
LINE
  8
_0-0_
  6
CONTINUOUS
 62
    7
 10
23.705446536741192
 20
125.44738331818621
 11
21.705446536741192
 21
125.44738331818621
  0
LINE
  8
_0-0_
  6
CONTINUOUS
 62
    7
 10
71.705446536741192
 20
121.14738331818614
 11
69.705446536741192
 21
121.14738331818614
  0
LINE
  8
_0-0_
  6
CONTINUOUS
 62
    7
 10
23.705446536741192
 20
121.14738331818614
 11
21.705446536741192
 21
121.14738331818614
  0
LINE
  8
_0-0_
  6
CONTINUOUS
 62
    7
 10
36.705446536741192
 20
51.79147826468909
 11
56.705446536741192
 21
51.79147826468909
  0
LINE
  8
_0-0_
  6
CONTINUOUS
 62
    7
 10
36.705446536741192
 20
59.79147826468909
 11
56.705446536741192
 21
59.79147826468909
  0
LINE
  8
_0-0_
  6
CONTINUOUS
 62
    7
 10
36.705446536741192
 20
52.79147826468909
 11
56.705446536741192
 21
52.79147826468909
  0
LINE
  8
_0-0_
  6
CONTINUOUS
 62
    7
 10
36.705446536741192
 20
53.79147826468909
 11
56.705446536741192
 21
53.79147826468909
  0
LINE
  8
_0-0_
  6
CONTINUOUS
 62
    7
 10
36.705446536741192
 20
57.79147826468909
 11
56.705446536741192
 21
57.79147826468909
  0
LINE
  8
_0-0_
  6
CONTINUOUS
 62
    7
 10
36.705446536741192
 20
58.79147826468909
 11
56.705446536741192
 21
58.79147826468909
  0
LINE
  8
_0-0_
  6
CONTINUOUS
 62
    7
 10
56.705446536741192
 20
53.79147826468909
 11
56.705446536741192
 21
51.79147826468909
  0
LINE
  8
_0-0_
  6
CONTINUOUS
 62
    7
 10
56.705446536741192
 20
59.79147826468909
 11
56.705446536741192
 21
57.79147826468909
  0
LINE
  8
_0-0_
  6
CONTINUOUS
 62
    7
 10
36.705446536741192
 20
53.79147826468909
 11
36.705446536741192
 21
51.79147826468909
  0
LINE
  8
_0-0_
  6
CONTINUOUS
 62
    7
 10
36.705446536741192
 20
59.79147826468909
 11
36.705446536741192
 21
57.79147826468909
  0
LINE
  8
_0-0_
  6
CONTINUOUS
 62
    7
 10
60.205446536741192
 20
53.991478264689135
 11
60.205446536741192
 21
62.591478264689158
  0
LINE
  8
_0-0_
  6
CONTINUOUS
 62
    7
 10
69.505446536741147
 20
53.79147826468909
 11
60.405446536741124
 21
53.79147826468909
  0
ARC
  8
_0-0_
  6
CONTINUOUS
 62
    7
 10
60.405446536741124
 20
53.991478264689135
 40
0.2
 50
180
 51
270
  0
ARC
  8
_0-0_
  6
CONTINUOUS
 62
    7
 10
69.505446536741147
 20
53.591478264689158
 40
0.2
 50
0
 51
90
  0
LINE
  8
_0-0_
  6
CONTINUOUS
 62
    7
 10
69.705446536741192
 20
53.591478264689158
 11
69.705446536741192
 21
49.79147826468909
  0
LINE
  8
_0-0_
  6
CONTINUOUS
 62
    7
 10
33.205446536741192
 20
53.991478264689135
 11
33.205446536741192
 21
62.591478264689158
  0
LINE
  8
_0-0_
  6
CONTINUOUS
 62
    7
 10
23.905446536741238
 20
53.79147826468909
 11
33.005446536741147
 21
53.79147826468909
  0
ARC
  8
_0-0_
  6
CONTINUOUS
 62
    7
 10
33.005446536741147
 20
53.991478264689135
 40
0.2
 50
270
 51
0
  0
ARC
  8
_0-0_
  6
CONTINUOUS
 62
    7
 10
23.905446536741238
 20
53.591478264689158
 40
0.2
 50
90
 51
180
  0
LINE
  8
_0-0_
  6
CONTINUOUS
 62
    7
 10
23.705446536741192
 20
53.591478264689158
 11
23.705446536741192
 21
49.79147826468909
  0
LINE
  8
_0-0_
  6
CONTINUOUS
 62
    7
 10
60.005446536741147
 20
62.79147826468909
 11
33.405446536741238
 21
62.79147826468909
  0
ARC
  8
_0-0_
  6
CONTINUOUS
 62
    7
 10
60.005446536741147
 20
62.591478264689158
 40
0.2
 50
0
 51
90
  0
ARC
  8
_0-0_
  6
CONTINUOUS
 62
    7
 10
33.405446536741238
 20
62.591478264689158
 40
0.2
 50
90
 51
180
  0
LINE
  8
_0-0_
  6
CONTINUOUS
 62
    7
 10
23.705446536741192
 20
49.79147826468909
 11
69.705446536741192
 21
49.79147826468909
  0
LINE
  8
_0-0_
  6
CONTINUOUS
 62
    7
 10
127.05644918147419
 20
49.791467217446382
 11
129.1564491814741
 21
49.791467217446666
  0
LINE
  8
_0-0_
  6
CONTINUOUS
 62
    7
 10
132.95644918147406
 20
49.791467217446666
 11
136.6564491814741
 21
49.791467217446666
  0
LINE
  8
_0-0_
  6
CONTINUOUS
 62
    7
 10
140.45644918147406
 20
49.791467217446666
 11
144.1564491814741
 21
49.791467217446666
  0
LINE
  8
_0-0_
  6
CONTINUOUS
 62
    7
 10
101.35644932851011
 20
117.94738331818604
 11
102.2564493285102
 21
117.94738331818604
  0
LINE
  8
_0-0_
  6
CONTINUOUS
 62
    7
 10
102.55644932851038
 20
117.64738331818609
 11
102.55644932851038
 21
117.04738331818618
  0
LINE
  8
_0-0_
  6
CONTINUOUS
 62
    7
 10
102.85644932851011
 20
116.74738331818622
 11
105.05644932851038
 21
116.74738331818622
  0
LINE
  8
_0-0_
  6
CONTINUOUS
 62
    7
 10
105.35644932851011
 20
117.04738331818618
 11
105.35644932851011
 21
117.64738331818609
  0
LINE
  8
_0-0_
  6
CONTINUOUS
 62
    7
 10
105.65644932851029
 20
117.94738331818604
 11
106.45644932851047
 21
117.94738331818604
  0
LINE
  8
_0-0_
  6
CONTINUOUS
 62
    7
 10
106.7564493285102
 20
118.24738331818622
 11
106.7564493285102
 21
120.84738331818613
  0
LINE
  8
_0-0_
  6
CONTINUOUS
 62
    7
 10
106.45644932851047
 20
121.14738331818609
 11
105.65644932851029
 21
121.14738331818609
  0
LINE
  8
_0-0_
  6
CONTINUOUS
 62
    7
 10
105.35644932851011
 20
121.44738331818604
 11
105.35644932851011
 21
122.04738331818618
  0
LINE
  8
_0-0_
  6
CONTINUOUS
 62
    7
 10
105.05644932851038
 20
122.34738331818613
 11
102.85644932851011
 21
122.34738331818613
  0
LINE
  8
_0-0_
  6
CONTINUOUS
 62
    7
 10
102.55644932851038
 20
122.04738331818618
 11
102.55644932851038
 21
121.44738331818604
  0
LINE
  8
_0-0_
  6
CONTINUOUS
 62
    7
 10
102.2564493285102
 20
121.14738331818609
 11
101.35644932851011
 21
121.14738331818609
  0
LINE
  8
_0-0_
  6
CONTINUOUS
 62
    7
 10
101.35644932851011
 20
125.44738331818604
 11
102.2564493285102
 21
125.44738331818604
  0
LINE
  8
_0-0_
  6
CONTINUOUS
 62
    7
 10
102.55644932851038
 20
125.14738331818609
 11
102.55644932851038
 21
124.54738331818618
  0
LINE
  8
_0-0_
  6
CONTINUOUS
 62
    7
 10
102.85644932851011
 20
124.24738331818622
 11
105.05644932851038
 21
124.24738331818622
  0
LINE
  8
_0-0_
  6
CONTINUOUS
 62
    7
 10
105.35644932851011
 20
124.54738331818618
 11
105.35644932851011
 21
125.14738331818609
  0
LINE
  8
_0-0_
  6
CONTINUOUS
 62
    7
 10
105.65644932851029
 20
125.44738331818604
 11
106.45644932851047
 21
125.44738331818604
  0
LINE
  8
_0-0_
  6
CONTINUOUS
 62
    7
 10
106.7564493285102
 20
125.74738331818622
 11
106.7564493285102
 21
128.34738331818613
  0
LINE
  8
_0-0_
  6
CONTINUOUS
 62
    7
 10
106.45644932851047
 20
128.64738331818609
 11
105.65644932851029
 21
128.64738331818609
  0
LINE
  8
_0-0_
  6
CONTINUOUS
 62
    7
 10
105.35644932851011
 20
128.94738331818604
 11
105.35644932851011
 21
129.54738331818618
  0
LINE
  8
_0-0_
  6
CONTINUOUS
 62
    7
 10
105.05644932851038
 20
129.84738331818613
 11
102.85644932851011
 21
129.84738331818613
  0
LINE
  8
_0-0_
  6
CONTINUOUS
 62
    7
 10
102.55644932851038
 20
129.54738331818618
 11
102.55644932851038
 21
128.94738331818604
  0
LINE
  8
_0-0_
  6
CONTINUOUS
 62
    7
 10
102.2564493285102
 20
128.64738331818609
 11
101.35644932851011
 21
128.64738331818609
  0
LINE
  8
_0-0_
  6
CONTINUOUS
 62
    7
 10
101.35644932851011
 20
132.94738331818604
 11
102.2564493285102
 21
132.94738331818604
  0
LINE
  8
_0-0_
  6
CONTINUOUS
 62
    7
 10
102.55644932851038
 20
132.64738331818609
 11
102.55644932851038
 21
132.04738331818618
  0
LINE
  8
_0-0_
  6
CONTINUOUS
 62
    7
 10
102.85644932851011
 20
131.74738331818622
 11
105.05644932851038
 21
131.74738331818622
  0
LINE
  8
_0-0_
  6
CONTINUOUS
 62
    7
 10
105.35644932851011
 20
132.04738331818618
 11
105.35644932851011
 21
132.64738331818609
  0
LINE
  8
_0-0_
  6
CONTINUOUS
 62
    7
 10
105.65644932851029
 20
132.94738331818604
 11
106.45644932851047
 21
132.94738331818604
  0
LINE
  8
_0-0_
  6
CONTINUOUS
 62
    7
 10
106.7564493285102
 20
133.24738331818622
 11
106.7564493285102
 21
135.84738331818613
  0
LINE
  8
_0-0_
  6
CONTINUOUS
 62
    7
 10
106.45644932851047
 20
136.14738331818609
 11
105.65644932851029
 21
136.14738331818609
  0
LINE
  8
_0-0_
  6
CONTINUOUS
 62
    7
 10
105.35644932851011
 20
136.44738331818604
 11
105.35644932851011
 21
137.04738331818618
  0
LINE
  8
_0-0_
  6
CONTINUOUS
 62
    7
 10
105.05644932851038
 20
137.34738331818613
 11
102.85644932851011
 21
137.34738331818613
  0
LINE
  8
_0-0_
  6
CONTINUOUS
 62
    7
 10
102.55644932851038
 20
137.04738331818618
 11
102.55644932851038
 21
136.44738331818604
  0
LINE
  8
_0-0_
  6
CONTINUOUS
 62
    7
 10
102.2564493285102
 20
136.14738331818609
 11
101.35644932851011
 21
136.14738331818609
  0
LINE
  8
_0-0_
  6
CONTINUOUS
 62
    7
 10
101.05644932851038
 20
136.44738331818604
 11
101.05644932851038
 21
138.54738331818618
  0
LINE
  8
_0-0_
  6
CONTINUOUS
 62
    7
 10
102.05644932851038
 20
139.54738331818618
 11
107.55644932851038
 21
139.54738331818618
  0
LINE
  8
_0-0_
  6
CONTINUOUS
 62
    7
 10
108.55644932851038
 20
138.54738331818618
 11
108.55644932851038
 21
125.16396407191706
  0
LINE
  8
_0-0_
  6
CONTINUOUS
 62
    7
 10
108.70644932851047
 20
124.90415645078184
 11
110.90644932851029
 21
123.63398585856459
  0
LINE
  8
_0-0_
  6
CONTINUOUS
 62
    7
 10
111.05644932851038
 20
123.37417823742913
 11
111.05644932851038
 21
121.34738331818613
  0
LINE
  8
_0-0_
  6
CONTINUOUS
 62
    7
 10
110.7564493285102
 20
121.04738331818618
 11
109.85644932851011
 21
121.04738331818618
  0
LINE
  8
_0-0_
  6
CONTINUOUS
 62
    7
 10
109.55644932851038
 20
120.74738331818622
 11
109.55644932851038
 21
117.271647386898
  0
LINE
  8
_0-0_
  6
CONTINUOUS
 62
    7
 10
109.64431729415429
 20
117.05951535254218
 11
110.96858136286647
 21
115.73525128383022
  0
LINE
  8
_0-0_
  6
CONTINUOUS
 62
    7
 10
111.18071339722229
 20
115.64738331818609
 11
112.55644932851038
 21
115.64738331818609
  0
LINE
  8
_0-0_
  6
CONTINUOUS
 62
    7
 10
112.85644932851011
 20
115.94738331818604
 11
112.85644932851011
 21
117.94738331818604
  0
LINE
  8
_0-0_
  6
CONTINUOUS
 62
    7
 10
113.15644932851029
 20
118.24738331818622
 11
114.55644932851038
 21
118.24738331818622
  0
LINE
  8
_0-0_
  6
CONTINUOUS
 62
    7
 10
114.85644932851011
 20
117.94738331818604
 11
114.85644932851011
 21
114.93279351481107
  0
LINE
  8
_0-0_
  6
CONTINUOUS
 62
    7
 10
114.69061340716036
 20
114.66446535751112
 11
111.51979301391049
 21
113.07905516088618
  0
LINE
  8
_0-0_
  6
CONTINUOUS
 62
    7
 10
111.38562893526051
 20
113.04738331818618
 11
110.68071339722229
 21
113.04738331818618
  0
LINE
  8
_0-0_
  6
CONTINUOUS
 62
    7
 10
110.46858136286647
 20
113.13525128383009
 11
109.14431729415429
 21
114.45951535254204
  0
LINE
  8
_0-0_
  6
CONTINUOUS
 62
    7
 10
108.93218525979847
 20
114.54738331818618
 11
102.05644932851038
 21
114.54738331818618
  0
LINE
  8
_0-0_
  6
CONTINUOUS
 62
    7
 10
111.33283942768713
 20
112.98558056439907
 11
116.13283942768686
 21
115.38558056439871
  0
LINE
  8
_0-0_
  6
CONTINUOUS
 62
    7
 10
116.85644942768687
 20
114.93836756439924
 11
116.85644942768687
 21
108.94738466439941
  0
LINE
  8
_0-0_
  6
CONTINUOUS
 62
    7
 10
116.85644942768687
 20
109.34738606439879
 11
117.25644942768696
 21
109.74738466439868
  0
LINE
  8
_0-0_
  6
CONTINUOUS
 62
    7
 10
117.25644942768696
 20
109.74738466439868
 11
117.25644942768696
 21
111.74738456439883
  0
LINE
  8
_0-0_
  6
CONTINUOUS
 62
    7
 10
117.25644942768696
 20
111.74738456439883
 11
116.85644942768687
 21
112.1473825643987
  0
LINE
  8
_0-0_
  6
CONTINUOUS
 62
    7
 10
116.35644942768687
 20
108.4473846643985
 11
111.55644942768714
 21
108.4473846643985
  0
LINE
  8
_0-0_
  6
CONTINUOUS
 62
    7
 10
111.05644942768714
 20
108.94738466439941
 11
111.05644942768714
 21
109.61346856439906
  0
LINE
  8
_0-0_
  6
CONTINUOUS
 62
    7
 10
111.12343942768695
 20
109.86347376439954
 11
111.48943942768693
 21
110.49739556439891
  0
LINE
  8
_0-0_
  6
CONTINUOUS
 62
    7
 10
111.48945942768688
 20
110.99738056439929
 11
111.123419427687
 21
111.6314375643986
  0
LINE
  8
_0-0_
  6
CONTINUOUS
 62
    7
 10
111.05644942768714
 20
111.88141856439944
 11
111.05644942768714
 21
112.5383675643987
  0
ARC
  8
_0-0_
  6
CONTINUOUS
 62
    7
 10
111.55644942768714
 20
111.88141856439944
 40
0.5
 50
180
 51
209.99736999999999
  0
ARC
  8
_0-0_
  6
CONTINUOUS
 62
    7
 10
111.55644942768714
 20
109.61346856439906
 40
0.5
 50
149.999315
 51
180
  0
ARC
  8
_0-0_
  6
CONTINUOUS
 62
    7
 10
111.05642942768674
 20
110.74740056439879
 40
0.5
 50
329.99930999999992
 51
29.997369999999961
  0
ARC
  8
_0-0_
  6
CONTINUOUS
 62
    7
 10
111.55644942768714
 20
112.5383675643987
 40
0.5
 50
116.565051
 51
180
  0
ARC
  8
_0-0_
  6
CONTINUOUS
 62
    7
 10
111.55644942768714
 20
108.94738466439941
 40
0.5
 50
180
 51
270
  0
ARC
  8
_0-0_
  6
CONTINUOUS
 62
    7
 10
116.35644942768687
 20
108.94738466439941
 40
0.5
 50
270
 51
0
  0
ARC
  8
_0-0_
  6
CONTINUOUS
 62
    7
 10
116.35644942768687
 20
114.93836756439924
 40
0.5
 50
0
 51
116.56505100000003
  0
ARC
  8
_0-0_
  6
CONTINUOUS
 62
    7
 10
107.55644932851038
 20
138.54738331818618
 40
1
 50
0
 51
90
  0
ARC
  8
_0-0_
  6
CONTINUOUS
 62
    7
 10
102.05644932851038
 20
138.54738331818618
 40
1
 50
90.000000000000028
 51
180
  0
ARC
  8
_0-0_
  6
CONTINUOUS
 62
    7
 10
101.35644932851011
 20
136.44738331818604
 40
0.2999999999999998
 50
180
 51
270
  0
ARC
  8
_0-0_
  6
CONTINUOUS
 62
    7
 10
102.2564493285102
 20
136.44738331818604
 40
0.2999999999999998
 50
270
 51
0
  0
ARC
  8
_0-0_
  6
CONTINUOUS
 62
    7
 10
102.85644932851011
 20
137.04738331818618
 40
0.2999999999999998
 50
90
 51
180
  0
ARC
  8
_0-0_
  6
CONTINUOUS
 62
    7
 10
105.05644932851038
 20
137.04738331818618
 40
0.2999999999999998
 50
0
 51
90
  0
ARC
  8
_0-0_
  6
CONTINUOUS
 62
    7
 10
105.65644932851029
 20
136.44738331818604
 40
0.2999999999999998
 50
180
 51
270
  0
ARC
  8
_0-0_
  6
CONTINUOUS
 62
    7
 10
106.45644932851047
 20
135.84738331818613
 40
0.2999999999999998
 50
0
 51
90
  0
ARC
  8
_0-0_
  6
CONTINUOUS
 62
    7
 10
101.35644932851011
 20
132.64738331818609
 40
0.2999999999999998
 50
90
 51
180
  0
ARC
  8
_0-0_
  6
CONTINUOUS
 62
    7
 10
102.2564493285102
 20
132.64738331818609
 40
0.2999999999999998
 50
0
 51
90
  0
ARC
  8
_0-0_
  6
CONTINUOUS
 62
    7
 10
102.85644932851011
 20
132.04738331818618
 40
0.2999999999999998
 50
180
 51
270
  0
ARC
  8
_0-0_
  6
CONTINUOUS
 62
    7
 10
105.05644932851038
 20
132.04738331818618
 40
0.2999999999999998
 50
270
 51
0
  0
ARC
  8
_0-0_
  6
CONTINUOUS
 62
    7
 10
105.65644932851029
 20
132.64738331818609
 40
0.2999999999999998
 50
90
 51
180
  0
ARC
  8
_0-0_
  6
CONTINUOUS
 62
    7
 10
106.45644932851047
 20
133.24738331818622
 40
0.2999999999999998
 50
270
 51
0
  0
ARC
  8
_0-0_
  6
CONTINUOUS
 62
    7
 10
101.35644932851011
 20
128.94738331818604
 40
0.2999999999999998
 50
180
 51
270
  0
ARC
  8
_0-0_
  6
CONTINUOUS
 62
    7
 10
102.2564493285102
 20
128.94738331818604
 40
0.2999999999999998
 50
270
 51
0
  0
ARC
  8
_0-0_
  6
CONTINUOUS
 62
    7
 10
102.85644932851011
 20
129.54738331818618
 40
0.2999999999999998
 50
90
 51
180
  0
ARC
  8
_0-0_
  6
CONTINUOUS
 62
    7
 10
105.05644932851038
 20
129.54738331818618
 40
0.2999999999999998
 50
0
 51
90
  0
ARC
  8
_0-0_
  6
CONTINUOUS
 62
    7
 10
105.65644932851029
 20
128.94738331818604
 40
0.2999999999999998
 50
180
 51
270
  0
ARC
  8
_0-0_
  6
CONTINUOUS
 62
    7
 10
106.45644932851047
 20
128.34738331818613
 40
0.2999999999999998
 50
0
 51
90
  0
ARC
  8
_0-0_
  6
CONTINUOUS
 62
    7
 10
101.35644932851011
 20
125.14738331818609
 40
0.2999999999999998
 50
90
 51
180
  0
ARC
  8
_0-0_
  6
CONTINUOUS
 62
    7
 10
102.2564493285102
 20
125.14738331818609
 40
0.2999999999999998
 50
0
 51
90
  0
ARC
  8
_0-0_
  6
CONTINUOUS
 62
    7
 10
102.85644932851011
 20
124.54738331818618
 40
0.2999999999999998
 50
180
 51
270
  0
ARC
  8
_0-0_
  6
CONTINUOUS
 62
    7
 10
105.05644932851038
 20
124.54738331818618
 40
0.2999999999999998
 50
270
 51
0
  0
ARC
  8
_0-0_
  6
CONTINUOUS
 62
    7
 10
105.65644932851029
 20
125.14738331818609
 40
0.2999999999999998
 50
90
 51
180
  0
ARC
  8
_0-0_
  6
CONTINUOUS
 62
    7
 10
106.45644932851047
 20
125.74738331818622
 40
0.2999999999999998
 50
270
 51
0
  0
ARC
  8
_0-0_
  6
CONTINUOUS
 62
    7
 10
101.35644932851011
 20
121.44738331818604
 40
0.2999999999999998
 50
180
 51
270
  0
ARC
  8
_0-0_
  6
CONTINUOUS
 62
    7
 10
102.2564493285102
 20
121.44738331818604
 40
0.2999999999999998
 50
270
 51
0
  0
ARC
  8
_0-0_
  6
CONTINUOUS
 62
    7
 10
102.85644932851011
 20
122.04738331818618
 40
0.2999999999999998
 50
90
 51
180
  0
ARC
  8
_0-0_
  6
CONTINUOUS
 62
    7
 10
105.05644932851038
 20
122.04738331818618
 40
0.2999999999999998
 50
0
 51
90
  0
ARC
  8
_0-0_
  6
CONTINUOUS
 62
    7
 10
105.65644932851029
 20
121.44738331818604
 40
0.2999999999999998
 50
180
 51
270
  0
ARC
  8
_0-0_
  6
CONTINUOUS
 62
    7
 10
106.45644932851047
 20
120.84738331818613
 40
0.2999999999999998
 50
0
 51
90
  0
ARC
  8
_0-0_
  6
CONTINUOUS
 62
    7
 10
101.35644932851011
 20
117.64738331818609
 40
0.2999999999999998
 50
90
 51
180
  0
ARC
  8
_0-0_
  6
CONTINUOUS
 62
    7
 10
102.2564493285102
 20
117.64738331818609
 40
0.2999999999999998
 50
0
 51
90
  0
ARC
  8
_0-0_
  6
CONTINUOUS
 62
    7
 10
102.85644932851011
 20
117.04738331818618
 40
0.2999999999999998
 50
180
 51
270
  0
ARC
  8
_0-0_
  6
CONTINUOUS
 62
    7
 10
105.05644932851038
 20
117.04738331818618
 40
0.2999999999999998
 50
270
 51
0
  0
ARC
  8
_0-0_
  6
CONTINUOUS
 62
    7
 10
105.65644932851029
 20
117.64738331818609
 40
0.2999999999999998
 50
90
 51
180
  0
ARC
  8
_0-0_
  6
CONTINUOUS
 62
    7
 10
106.45644932851047
 20
118.24738331818622
 40
0.2999999999999998
 50
270
 51
0
  0
ARC
  8
_0-0_
  6
CONTINUOUS
 62
    7
 10
102.05644932851038
 20
115.54738331818618
 40
1
 50
180
 51
270
  0
ARC
  8
_0-0_
  6
CONTINUOUS
 62
    7
 10
108.93218525979847
 20
114.24738331818622
 40
0.2999999999999998
 50
45
 51
90
  0
ARC
  8
_0-0_
  6
CONTINUOUS
 62
    7
 10
110.68071339722229
 20
113.34738331818613
 40
0.2999999999999998
 50
225
 51
270
  0
ARC
  8
_0-0_
  6
CONTINUOUS
 62
    7
 10
111.38562893526051
 20
113.34738331818613
 40
0.2999999999999998
 50
270.00000000000006
 51
296.56505117707803
  0
ARC
  8
_0-0_
  6
CONTINUOUS
 62
    7
 10
114.55644932851038
 20
114.93279351481107
 40
0.2999999999999998
 50
296.56505117707798
 51
0.0000000000000127
  0
ARC
  8
_0-0_
  6
CONTINUOUS
 62
    7
 10
114.55644932851038
 20
117.94738331818604
 40
0.2999999999999998
 50
0
 51
90
  0
ARC
  8
_0-0_
  6
CONTINUOUS
 62
    7
 10
113.15644932851029
 20
117.94738331818604
 40
0.2999999999999998
 50
90.000000000000028
 51
180
  0
ARC
  8
_0-0_
  6
CONTINUOUS
 62
    7
 10
112.55644932851038
 20
115.94738331818604
 40
0.2999999999999998
 50
270
 51
0
  0
ARC
  8
_0-0_
  6
CONTINUOUS
 62
    7
 10
111.18071339722229
 20
115.94738331818604
 40
0.2999999999999998
 50
225
 51
270
  0
ARC
  8
_0-0_
  6
CONTINUOUS
 62
    7
 10
109.85644932851011
 20
117.271647386898
 40
0.2999999999999998
 50
180.00000000000006
 51
225.00000000000009
  0
ARC
  8
_0-0_
  6
CONTINUOUS
 62
    7
 10
109.85644932851011
 20
120.74738331818622
 40
0.2999999999999998
 50
90
 51
180
  0
ARC
  8
_0-0_
  6
CONTINUOUS
 62
    7
 10
110.7564493285102
 20
121.34738331818613
 40
0.2999999999999998
 50
270
 51
0
  0
ARC
  8
_0-0_
  6
CONTINUOUS
 62
    7
 10
110.7564493285102
 20
123.37417823742913
 40
0.2999999999999998
 50
0
 51
60.000000000000057
  0
ARC
  8
_0-0_
  6
CONTINUOUS
 62
    7
 10
108.85644932851011
 20
125.16396407191706
 40
0.2999999999999998
 50
180.00000000000006
 51
240.00000000000003
  0
LINE
  8
_0-0_
  6
CONTINUOUS
 62
    7
 10
101.05644932851027
 20
115.54738331818618
 11
101.05644932851027
 21
117.64738331818609
  0
LINE
  8
_0-0_
  6
CONTINUOUS
 62
    7
 10
101.0564493285101
 20
121.44738331818604
 11
101.0564493285101
 21
125.14738331818609
  0
LINE
  8
_0-0_
  6
CONTINUOUS
 62
    7
 10
101.0564493285101
 20
128.94738331818604
 11
101.0564493285101
 21
132.64738331818609
  0
ARC
  8
_0-0_
  6
CONTINUOUS
 62
    7
 10
29.205446536741192
 20
123.64738331818614
 40
2.6000000000000227
 50
180
 51
0
  0
ARC
  8
_0-0_
  6
CONTINUOUS
 62
    7
 10
29.205446536741192
 20
130.44738331818621
 40
2.6000000000000227
 50
0
 51
180
  0
LINE
  8
_0-0_
  6
CONTINUOUS
 62
    7
 10
31.805446536741101
 20
130.44738331818621
 11
31.805446536741101
 21
123.64738331818614
  0
LINE
  8
_0-0_
  6
CONTINUOUS
 62
    7
 10
26.605446536741056
 20
130.44738331818621
 11
26.605446536741056
 21
123.64738331818614
  0
ARC
  8
_0-0_
  6
CONTINUOUS
 62
    7
 10
29.205446536741192
 20
130.4473833181861
 40
1.6000000000000227
 50
0.0000000000010177
 51
179.99999999999898
  0
LINE
  8
_0-0_
  6
CONTINUOUS
 62
    7
 10
27.605446536741056
 20
130.44738331818621
 11
27.605446536741056
 21
123.64738331818614
  0
LINE
  8
_0-0_
  6
CONTINUOUS
 62
    7
 10
30.805446536741101
 20
130.44738331818621
 11
30.805446536741101
 21
123.64738331818614
  0
ARC
  8
_0-0_
  6
CONTINUOUS
 62
    7
 10
29.205446536741192
 20
123.64738331818614
 40
1.6000000000000227
 50
270.28125895167864
 51
359.99999999999898
  0
ARC
  8
_0-0_
  6
CONTINUOUS
 62
    7
 10
29.205446536741192
 20
123.64738331818614
 40
1.6000000000000227
 50
180.00000000000105
 51
270.28125895167864
  0
ARC
  8
_0-0_
  6
CONTINUOUS
 62
    7
 10
64.205446536741192
 20
123.64738331818614
 40
2.6000000000000227
 50
180
 51
0
  0
ARC
  8
_0-0_
  6
CONTINUOUS
 62
    7
 10
64.205446536741192
 20
130.44738331818621
 40
2.6000000000000227
 50
0
 51
180
  0
ARC
  8
_0-0_
  6
CONTINUOUS
 62
    7
 10
64.205446536741192
 20
130.4473833181861
 40
1.6000000000000227
 50
0.0000000000010177
 51
179.99999999999898
  0
ARC
  8
_0-0_
  6
CONTINUOUS
 62
    7
 10
64.205446536741192
 20
123.64738331818614
 40
1.6000000000000227
 50
180.00000000000105
 51
269.71874104832131
  0
ARC
  8
_0-0_
  6
CONTINUOUS
 62
    7
 10
64.205446536741192
 20
123.64738331818614
 40
1.6000000000000227
 50
269.71874104832136
 51
359.99999999999903
  0
LINE
  8
_0-0_
  6
CONTINUOUS
 62
    7
 10
60.205446536741192
 20
136.04738331818612
 11
60.205446536741192
 21
118.04738331818612
  0
LINE
  8
_0-0_
  6
CONTINUOUS
 62
    7
 10
33.205446536741192
 20
136.04738331818612
 11
33.205446536741192
 21
118.04738331818612
  0
LINE
  8
_0-0_
  6
CONTINUOUS
 62
    7
 10
69.705446536741192
 20
119.04738331818612
 11
69.705446536741192
 21
135.04738331818612
  0
ARC
  8
_0-0_
  6
CONTINUOUS
 62
    7
 10
68.705446536741192
 20
135.04738331818612
 40
1
 50
0
 51
90
  0
LINE
  8
_0-0_
  6
CONTINUOUS
 62
    7
 10
68.705446536741192
 20
136.04738331818612
 11
24.705446536741192
 21
136.04738331818612
  0
LINE
  8
_0-0_
  6
CONTINUOUS
 62
    7
 10
23.705446536741192
 20
119.04738331818612
 11
23.705446536741192
 21
135.04738331818612
  0
ARC
  8
_0-0_
  6
CONTINUOUS
 62
    7
 10
24.705446536741192
 20
135.04738331818612
 40
1
 50
90
 51
180
  0
LINE
  8
_0-0_
  6
CONTINUOUS
 62
    7
 10
36.705446536741192
 20
116.04738331818612
 11
56.705446536741192
 21
116.04738331818612
  0
LINE
  8
_0-0_
  6
CONTINUOUS
 62
    7
 10
56.705446536741192
 20
118.04738331818612
 11
56.705446536741192
 21
116.04738331818612
  0
LINE
  8
_0-0_
  6
CONTINUOUS
 62
    7
 10
36.705446536741192
 20
118.04738331818612
 11
36.705446536741192
 21
116.04738331818612
  0
ARC
  8
_0-0_
  6
CONTINUOUS
 62
    7
 10
68.705446536741192
 20
119.04738331818612
 40
1
 50
270
 51
0
  0
LINE
  8
_0-0_
  6
CONTINUOUS
 62
    7
 10
68.705446536741192
 20
118.04738331818612
 11
24.705446536741192
 21
118.04738331818612
  0
ARC
  8
_0-0_
  6
CONTINUOUS
 62
    7
 10
24.705446536741192
 20
119.04738331818612
 40
1
 50
180
 51
270
  0
LINE
  8
_0-0_
  6
CONTINUOUS
 62
    7
 10
61.605446536741056
 20
130.44738331818621
 11
61.605446536741056
 21
127.44320696154455
  0
LINE
  8
_0-0_
  6
CONTINUOUS
 62
    7
 10
61.605446536741056
 20
125.65155967482781
 11
61.605446536741056
 21
123.64738331818614
  0
LINE
  8
_0-0_
  6
CONTINUOUS
 62
    7
 10
62.605446536741056
 20
130.44738331818621
 11
62.605446536741056
 21
128.78401024282067
  0
LINE
  8
_0-0_
  6
CONTINUOUS
 62
    7
 10
62.605446536741056
 20
124.31075639355169
 11
62.605446536741056
 21
123.64738331818614
  0
LINE
  8
_0-0_
  6
CONTINUOUS
 62
    7
 10
65.805446536741101
 20
130.44738331818621
 11
65.805446536741101
 21
128.78401024282067
  0
LINE
  8
_0-0_
  6
CONTINUOUS
 62
    7
 10
65.805446536741101
 20
124.31075639355169
 11
65.805446536741101
 21
123.64738331818614
  0
LINE
  8
_0-0_
  6
CONTINUOUS
 62
    7
 10
66.805446536741101
 20
130.44738331818621
 11
66.805446536741101
 21
127.44320696154455
  0
LINE
  8
_0-0_
  6
CONTINUOUS
 62
    7
 10
66.805446536741101
 20
125.65155967482781
 11
66.805446536741101
 21
123.64738331818614
  0
LINE
  8
_0-0_
  6
CONTINUOUS
 62
    7
 10
36.705446536741192
 20
117.94738331818621
 11
21.705446536741192
 21
117.94738331818621
  0
LINE
  8
_0-0_
  6
CONTINUOUS
 62
    7
 10
71.705446536741192
 20
117.94738331818621
 11
56.705446536741192
 21
117.94738331818621
  0
LINE
  8
_0-0_
  6
CONTINUOUS
 62
    7
 10
71.705446536741192
 20
132.94738331818621
 11
69.705446536741192
 21
132.94738331818621
  0
LINE
  8
_0-0_
  6
CONTINUOUS
 62
    7
 10
23.705446536741192
 20
132.94738331818621
 11
21.705446536741192
 21
132.94738331818621
  0
ARC
  8
_0-0_
  6
CONTINUOUS
 62
    7
 10
212.55176015472244
 20
75.544339565631788
 40
2.6000000000000227
 50
180
 51
0
  0
ARC
  8
_0-0_
  6
CONTINUOUS
 62
    7
 10
212.55176015472244
 20
82.344339565631856
 40
2.6000000000000227
 50
0
 51
180
  0
LINE
  8
_0-0_
  6
CONTINUOUS
 62
    7
 10
215.15176015472235
 20
82.344339565631856
 11
215.15176015472235
 21
75.544339565631788
  0
LINE
  8
_0-0_
  6
CONTINUOUS
 62
    7
 10
209.95176015472231
 20
82.344339565631856
 11
209.95176015472231
 21
75.544339565631788
  0
ARC
  8
_0-0_
  6
CONTINUOUS
 62
    7
 10
212.55176015472244
 20
82.344339565631742
 40
1.6000000000000227
 50
0.0000000000010177
 51
179.99999999999898
  0
LINE
  8
_0-0_
  6
CONTINUOUS
 62
    7
 10
210.95176015472231
 20
82.344339565631856
 11
210.95176015472231
 21
75.544339565631788
  0
LINE
  8
_0-0_
  6
CONTINUOUS
 62
    7
 10
214.15176015472235
 20
82.344339565631856
 11
214.15176015472235
 21
75.544339565631788
  0
ARC
  8
_0-0_
  6
CONTINUOUS
 62
    7
 10
212.55176015472244
 20
75.544339565631788
 40
1.6000000000000227
 50
270.28125895167864
 51
359.99999999999898
  0
ARC
  8
_0-0_
  6
CONTINUOUS
 62
    7
 10
212.55176015472244
 20
75.544339565631788
 40
1.6000000000000227
 50
180.00000000000105
 51
270.28125895167864
  0
ARC
  8
_0-0_
  6
CONTINUOUS
 62
    7
 10
247.55176015472233
 20
75.544339565631788
 40
2.6000000000000227
 50
180
 51
0
  0
ARC
  8
_0-0_
  6
CONTINUOUS
 62
    7
 10
247.55176015472233
 20
82.344339565631856
 40
2.6000000000000227
 50
0
 51
180
  0
LINE
  8
_0-0_
  6
CONTINUOUS
 62
    7
 10
244.95176015472231
 20
82.344339565631856
 11
244.95176015472231
 21
75.544339565631788
  0
LINE
  8
_0-0_
  6
CONTINUOUS
 62
    7
 10
250.15176015472235
 20
82.344339565631856
 11
250.15176015472235
 21
75.544339565631788
  0
ARC
  8
_0-0_
  6
CONTINUOUS
 62
    7
 10
247.55176015472233
 20
82.344339565631742
 40
1.6000000000000227
 50
0.0000000000010177
 51
179.99999999999898
  0
LINE
  8
_0-0_
  6
CONTINUOUS
 62
    7
 10
249.15176015472235
 20
82.344339565631856
 11
249.15176015472235
 21
75.544339565631788
  0
LINE
  8
_0-0_
  6
CONTINUOUS
 62
    7
 10
245.95176015472231
 20
82.344339565631856
 11
245.95176015472231
 21
75.544339565631788
  0
ARC
  8
_0-0_
  6
CONTINUOUS
 62
    7
 10
247.55176015472233
 20
75.544339565631788
 40
1.6000000000000227
 50
180.00000000000105
 51
269.71874104832131
  0
ARC
  8
_0-0_
  6
CONTINUOUS
 62
    7
 10
247.55176015472233
 20
75.544339565631788
 40
1.6000000000000227
 50
269.71874104832136
 51
359.99999999999903
  0
LINE
  8
_0-0_
  6
CONTINUOUS
 62
    7
 10
243.55176015472233
 20
87.944339565631765
 11
243.55176015472233
 21
69.944339565631765
  0
LINE
  8
_0-0_
  6
CONTINUOUS
 62
    7
 10
216.55176015472233
 20
87.944339565631765
 11
216.55176015472233
 21
69.944339565631765
  0
LINE
  8
_0-0_
  6
CONTINUOUS
 62
    7
 10
253.05176015472233
 20
70.944339565631765
 11
253.05176015472233
 21
86.944339565631765
  0
ARC
  8
_0-0_
  6
CONTINUOUS
 62
    7
 10
252.05176015472233
 20
86.944339565631765
 40
1
 50
0
 51
90
  0
LINE
  8
_0-0_
  6
CONTINUOUS
 62
    7
 10
252.05176015472233
 20
87.944339565631765
 11
208.05176015472233
 21
87.944339565631765
  0
LINE
  8
_0-0_
  6
CONTINUOUS
 62
    7
 10
207.05176015472233
 20
70.944339565631765
 11
207.05176015472233
 21
86.944339565631765
  0
ARC
  8
_0-0_
  6
CONTINUOUS
 62
    7
 10
208.05176015472233
 20
86.944339565631765
 40
1
 50
90
 51
180
  0
LINE
  8
_0-0_
  6
CONTINUOUS
 62
    7
 10
220.05176015472233
 20
67.944339565631765
 11
240.05176015472233
 21
67.944339565631765
  0
LINE
  8
_0-0_
  6
CONTINUOUS
 62
    7
 10
240.05176015472233
 20
69.944339565631765
 11
240.05176015472233
 21
67.944339565631765
  0
LINE
  8
_0-0_
  6
CONTINUOUS
 62
    7
 10
220.05176015472233
 20
69.944339565631765
 11
220.05176015472233
 21
67.944339565631765
  0
ARC
  8
_0-0_
  6
CONTINUOUS
 62
    7
 10
252.05176015472233
 20
70.944339565631765
 40
1
 50
270
 51
0
  0
LINE
  8
_0-0_
  6
CONTINUOUS
 62
    7
 10
252.05176015472233
 20
69.944339565631765
 11
208.05176015472233
 21
69.944339565631765
  0
ARC
  8
_0-0_
  6
CONTINUOUS
 62
    7
 10
208.05176015472233
 20
70.944339565631765
 40
1
 50
180
 51
270
  0
CIRCLE
  8
_0-0_
  6
CONTINUOUS
 62
    7
 10
268.56633208132604
 20
124.80157570658474
 40
2.7999999999999998
  0
CIRCLE
  8
_0-0_
  6
CONTINUOUS
 62
    7
 10
268.56633208132604
 20
124.80157570658474
 40
2
  0
LINE
  8
_0-0_
  6
CONTINUOUS
 62
    7
 10
255.56633208132604
 20
130.80157570658474
 11
255.56633208132604
 21
118.80157570658474
  0
LINE
  8
_0-0_
  6
CONTINUOUS
 62
    7
 10
255.56633208132604
 20
130.80157570658474
 11
281.56633208132604
 21
130.80157570658474
  0
LINE
  8
_0-0_
  6
CONTINUOUS
 62
    7
 10
281.56633208132604
 20
130.80157570658474
 11
281.56633208132604
 21
118.80157570658474
  0
LINE
  8
_0-0_
  6
CONTINUOUS
 62
    7
 10
255.56633208132604
 20
118.80157570658474
 11
281.56633208132604
 21
118.80157570658474
  0
LINE
  8
_0-0_
  6
CONTINUOUS
 62
    7
 10
308.13865358014908
 20
130.80157570658474
 11
309.63865358014908
 21
130.80157570658474
  0
LINE
  8
_0-0_
  6
CONTINUOUS
 62
    7
 10
308.13865358014908
 20
118.80157570658474
 11
309.63865358014908
 21
118.80157570658474
  0
LINE
  8
_0-0_
  6
CONTINUOUS
 62
    7
 10
308.13865358014908
 20
130.80157570658474
 11
308.13865358014908
 21
118.80157570658474
  0
LINE
  8
_0-0_
  6
CONTINUOUS
 62
    7
 10
309.63865358014908
 20
130.80157570658474
 11
309.63865358014908
 21
118.80157570658474
  0
LINE
  8
_0-1_
  6
CENTER1
 62
  152
 10
220.2579303534805
 20
33.67230850902439
 11
239.7694604205181
 21
33.67230850902439
  0
LINE
  8
_0-1_
  6
CENTER1
 62
  152
 10
230.05176015472233
 20
40.67230850902439
 11
230.05176015472233
 21
27.67230850902439
  0
LINE
  8
_0-1_
  6
CENTER1
 62
  152
 10
212.55176015472233
 20
35.556591461566256
 11
212.55176015472233
 21
26.162815339820725
  0
LINE
  8
_0-1_
  6
CENTER1
 62
  152
 10
247.55176015472233
 20
36.084331693125023
 11
247.55176015472233
 21
25.740623154573768
  0
LINE
  8
_0-1_
  6
CENTER2
 62
  152
 10
123.55643942768694
 20
31.541467118270077
 11
123.55643942768694
 21
23.041477118269768
  0
LINE
  8
_0-1_
  6
CENTER2
 62
  152
 10
119.30645942768689
 20
27.291477118269825
 11
127.80644942768669
 21
27.291477118269825
  0
LINE
  8
_0-1_
  6
CENTER2
 62
  152
 10
46.705446536741192
 20
139.54738331818618
 11
46.705446536741192
 21
113.047383679186
  0
LINE
  8
_0-1_
  6
CENTER1
 62
  152
 10
61.705446536741192
 20
41.462617402631054
 11
61.705446536741192
 21
30.320887895061844
  0
LINE
  8
_0-1_
  6
CENTER1
 62
  152
 10
31.705446536741192
 20
41.462617402631054
 11
31.705446536741192
 21
30.320887895061844
  0
LINE
  8
_0-8_
  6
CONTINUOUS
 62
  152
 10
21.705446536741192
 20
41.791477217689078
 11
71.705446536741192
 21
41.791477217689078
  0
LINE
  8
_0-8_
  6
CONTINUOUS
 62
  152
 10
21.705446536741192
 20
40.291477217689078
 11
71.705446536741192
 21
40.291477217689078
  0
LINE
  8
_0-8_
  6
CONTINUOUS
 62
  152
 10
41.705446536741192
 20
35.991477217689066
 11
51.705446536741192
 21
35.991477217689066
  0
LINE
  8
_0-1_
  6
CONTINUOUS
 62
  152
 10
30.705446536740965
 20
33.991477118270097
 11
30.705446536740965
 21
33.591477118269552
  0
LINE
  8
_0-1_
  6
CONTINUOUS
 62
  152
 10
32.705446536740965
 20
33.591477118269552
 11
32.705446536740965
 21
33.991477118270097
  0
LINE
  8
_0-1_
  6
CONTINUOUS
 62
  152
 10
60.705446536740965
 20
33.991477118270097
 11
60.705446536740965
 21
33.591477118269552
  0
LINE
  8
_0-1_
  6
CONTINUOUS
 62
  152
 10
62.705446536740965
 20
33.591477118269552
 11
62.705446536740965
 21
33.991477118270097
  0
LINE
  8
_0-8_
  6
CONTINUOUS
 62
  152
 10
41.705446536741192
 20
108.44738331818581
 11
21.705446536741192
 21
108.44738331818581
  0
LINE
  8
_0-8_
  6
CONTINUOUS
 62
  152
 10
41.705446536741192
 20
108.44738331818581
 11
41.705446536741192
 21
113.047383679186
  0
LINE
  8
_0-8_
  6
CONTINUOUS
 62
  152
 10
51.705446536741192
 20
108.44738331818581
 11
51.705446536741192
 21
113.047383679186
  0
LINE
  8
_0-8_
  6
CONTINUOUS
 62
  152
 10
71.705446536741192
 20
108.44738331818581
 11
51.705446536741192
 21
108.44738331818581
  0
LINE
  8
_0-1_
  6
CENTER2
 62
  152
 10
31.705446536741192
 20
114.06229975562206
 11
31.705446536741192
 21
106.67261469306709
  0
LINE
  8
_0-1_
  6
CENTER2
 62
  152
 10
61.705446536741192
 20
114.06229975562206
 11
61.705446536741192
 21
106.67261469306709
  0
LINE
  8
_0-1_
  6
CENTER2
 62
  152
 10
26.188764576869289
 20
110.74738331818628
 11
38.245619152616769
 21
110.74738331818628
  0
LINE
  8
_0-1_
  6
CENTER2
 62
  152
 10
55.553039430706008
 20
110.74738331818628
 11
66.83203242092145
 21
110.74738331818628
  0
CIRCLE
  8
_0-1_
  6
CONTINUOUS
 62
  152
 10
31.705446536741192
 20
110.74738331818628
 40
1.5
  0
CIRCLE
  8
_0-1_
  6
CONTINUOUS
 62
  152
 10
31.705446536741192
 20
110.74738331818628
 40
1.2999999523162842
  0
LINE
  8
_0-1_
  6
CONTINUOUS
 62
  152
 10
32.823413345890458
 20
109.74730821418626
 11
41.705446536741192
 21
109.74730821418626
  0
LINE
  8
_0-1_
  6
CONTINUOUS
 62
  152
 10
32.823413345890458
 20
111.7474584221863
 11
41.705446536741192
 21
111.7474584221863
  0
LINE
  8
_0-1_
  6
CONTINUOUS
 62
  152
 10
21.705446536741192
 20
111.7474584221863
 11
30.587479727591926
 21
111.7474584221863
  0
LINE
  8
_0-1_
  6
CONTINUOUS
 62
  152
 10
21.705446536741192
 20
109.74730821418626
 11
30.587479727591926
 21
109.74730821418626
  0
CIRCLE
  8
_0-1_
  6
CONTINUOUS
 62
  152
 10
61.705446536741192
 20
110.74738331818628
 40
1.5
  0
CIRCLE
  8
_0-1_
  6
CONTINUOUS
 62
  152
 10
61.705446536741192
 20
110.74738331818628
 40
1.2999999523162842
  0
LINE
  8
_0-1_
  6
CONTINUOUS
 62
  152
 10
62.823413345890458
 20
109.74730821418626
 11
71.705446536741192
 21
109.74730821418626
  0
LINE
  8
_0-1_
  6
CONTINUOUS
 62
  152
 10
62.823413345890458
 20
111.7474584221863
 11
71.705446536741192
 21
111.7474584221863
  0
LINE
  8
_0-1_
  6
CONTINUOUS
 62
  152
 10
51.705446536741192
 20
111.7474584221863
 11
60.587479727591926
 21
111.7474584221863
  0
LINE
  8
_0-1_
  6
CONTINUOUS
 62
  152
 10
51.705446536741192
 20
109.74730821418626
 11
60.587479727591926
 21
109.74730821418626
  0
LINE
  8
_0-1_
  6
CENTER2
 62
  152
 10
111.05643942768694
 20
14.791477118269825
 11
136.05643942768694
 21
14.791477118269825
  0
LINE
  8
_0-1_
  6
CENTER2
 62
  152
 10
136.05643942768694
 20
14.791477118269825
 11
136.05643942768694
 21
39.791477118269825
  0
LINE
  8
_0-1_
  6
CENTER2
 62
  152
 10
136.05643942768694
 20
39.791477118269825
 11
111.05643942768694
 21
39.791477118269825
  0
LINE
  8
_0-1_
  6
CENTER2
 62
  152
 10
111.05643942768694
 20
39.791477118269825
 11
111.05643942768694
 21
14.791477118269825
  0
LINE
  8
_0-1_
  6
CENTER2
 62
  152
 10
10.212611554244177
 20
42.515021220659833
 11
18.461967186819948
 21
11.728006870182469
  0
LINE
  8
_0-1_
  6
CENTER2
 62
  152
 10
77.86547783355536
 20
42.515021220659833
 11
86.114833466131245
 21
11.728006870182469
  0
LINE
  8
_0-1_
  6
CENTER2
 62
  152
 10
85.293979087119453
 20
14.791477118269825
 11
17.641112807808213
 21
14.791477118269825
  0
LINE
  8
_0-1_
  6
CENTER2
 62
  152
 10
78.595249276341292
 20
39.791477118269825
 11
71.705446536741192
 21
39.791477118269825
  0
LINE
  8
_0-1_
  6
CENTER2
 62
  152
 10
21.705446536741192
 20
39.791477118269825
 11
10.942382997030109
 21
39.791477118269825
  0
LINE
  8
_0-1_
  6
CENTER1
 62
  152
 10
131.05644918147419
 20
49.791467217446382
 11
131.05644918147419
 21
44.065465143138965
  0
LINE
  8
_0-1_
  6
CENTER1
 62
  152
 10
138.55644918147419
 20
44.091467217446564
 11
138.55644918147419
 21
49.791467217446382
  0
LINE
  8
_0-1_
  6
CENTER1
 62
  152
 10
146.05644918147419
 20
49.791467217446382
 11
146.05644918147419
 21
44.091467217446564
  0
LINE
  8
_0-1_
  6
CONTINUOUS
 62
  152
 10
123.25645042768684
 20
33.991467118269895
 11
123.25645042768684
 21
33.591467118269804
  0
LINE
  8
_0-1_
  6
CONTINUOUS
 62
  152
 10
121.2564505276867
 20
33.591467118269804
 11
121.2564505276867
 21
33.991467118269895
  0
LINE
  8
_0-1_
  6
CENTER1
 62
  152
 10
36.911616735499365
 20
55.79147826468909
 11
56.423146802536849
 21
55.79147826468909
  0
LINE
  8
_0-1_
  6
CENTER1
 62
  152
 10
46.705446536741192
 20
62.79147826468909
 11
46.705446536741192
 21
49.79147826468909
  0
LINE
  8
_0-1_
  6
CONTINUOUS
 62
  152
 10
61.455446536741192
 20
53.79147826468909
 11
61.529571111402447
 21
54.638727176546695
  0
LINE
  8
_0-1_
  6
CONTINUOUS
 62
  152
 10
66.955446536741192
 20
53.79147826468909
 11
66.881321962079937
 21
54.638727176546695
  0
ARC
  8
_0-1_
  6
CONTINUOUS
 62
  152
 10
62.525765950879986
 20
54.551571417212131
 40
1
 50
106.25701904296875
 51
175
  0
ARC
  8
_0-1_
  6
CONTINUOUS
 62
  152
 10
65.885127122602398
 20
54.551571417212131
 40
1
 50
4.9999847412109482
 51
73.742965698242187
  0
ARC
  8
_0-1_
  6
CONTINUOUS
 62
  152
 10
64.205446536741192
 20
48.79147826468909
 40
7
 50
73.742965698242187
 51
106.25701904296876
  0
LINE
  8
_0-1_
  6
CENTER1
 62
  152
 10
64.205446536741192
 20
57.228748043655287
 11
64.205446536741192
 21
46.681567482841388
  0
LINE
  8
_0-1_
  6
CONTINUOUS
 62
  152
 10
26.455446536741192
 20
53.79147826468909
 11
26.529571111402447
 21
54.638727176546695
  0
LINE
  8
_0-1_
  6
CONTINUOUS
 62
  152
 10
31.955446536741192
 20
53.79147826468909
 11
31.881321962079937
 21
54.638727176546695
  0
ARC
  8
_0-1_
  6
CONTINUOUS
 62
  152
 10
27.525765950879986
 20
54.551571417212131
 40
1
 50
106.25701904296875
 51
175
  0
ARC
  8
_0-1_
  6
CONTINUOUS
 62
  152
 10
30.885127122602398
 20
54.551571417212131
 40
1
 50
4.9999847412109482
 51
73.742965698242187
  0
ARC
  8
_0-1_
  6
CONTINUOUS
 62
  152
 10
29.205446536741192
 20
48.79147826468909
 40
7
 50
73.742965698242187
 51
106.25701904296876
  0
LINE
  8
_0-1_
  6
CENTER1
 62
  152
 10
29.205446536741192
 20
56.288900270909494
 11
29.205446536741192
 21
46.681567482841388
  0
LINE
  8
_0-b_
  6
DASHED2
 62
  152
 10
144.55644918147431
 20
53.791467217446439
 11
144.55644918147431
 21
51.791467217446439
  0
LINE
  8
_0-b_
  6
DASHED2
 62
  152
 10
133.55644918147419
 20
51.791467217446439
 11
133.55644918147419
 21
49.791467217446439
  0
LINE
  8
_0-b_
  6
DASHED2
 62
  152
 10
132.55644918147419
 20
53.791467217446439
 11
132.55644918147419
 21
51.791467217446439
  0
LINE
  8
_0-b_
  6
DASHED2
 62
  152
 10
132.55644918147419
 20
51.791467217446439
 11
144.55644918147431
 21
51.791467217446439
  0
LINE
  8
_0-b_
  6
DASHED2
 62
  152
 10
143.55644918147419
 20
51.791467217446439
 11
143.55644918147419
 21
49.791467217446439
  0
LINE
  8
_0-b_
  6
CENTER1
 62
  152
 10
135.15644918147422
 20
53.791467217446439
 11
135.15644918147422
 21
49.791467217446439
  0
LINE
  8
_0-b_
  6
CENTER1
 62
  152
 10
141.95644918147428
 20
53.791467217446439
 11
141.95644918147428
 21
49.791467217446439
  0
LINE
  8
_0-b_
  6
CONTINUOUS
 62
  152
 10
129.75644918147424
 20
53.791467217446439
 11
147.35644918147415
 21
53.791467217446439
  0
ARC
  8
_0-b_
  6
CONTINUOUS
 62
  152
 10
147.35644918147415
 20
53.591467217446507
 40
0.2
 50
0
 51
90
  0
LINE
  8
_0-b_
  6
CONTINUOUS
 62
  152
 10
129.75644918147424
 20
62.791467217446439
 11
147.35644918147415
 21
62.791467217446439
  0
ARC
  8
_0-b_
  6
CONTINUOUS
 62
  152
 10
147.35644918147415
 20
62.591467217446507
 40
0.2
 50
0
 51
90
  0
LINE
  8
_0-b_
  6
CONTINUOUS
 62
  152
 10
147.55644918147419
 20
62.591467217446507
 11
147.55644918147419
 21
49.791467217446439
  0
LINE
  8
_0-b_
  6
CONTINUOUS
 62
  152
 10
129.55644918147419
 20
57.791467217446495
 11
127.55644918147419
 21
57.791467217446495
  0
LINE
  8
_0-b_
  6
CONTINUOUS
 62
  152
 10
127.55644918147419
 20
57.791467217446495
 11
127.55644918147419
 21
58.791467217446495
  0
LINE
  8
_0-b_
  6
CONTINUOUS
 62
  152
 10
129.55644918147419
 20
58.791467217446495
 11
127.55644918147419
 21
58.791467217446495
  0
LINE
  8
_0-b_
  6
CONTINUOUS
 62
  152
 10
129.55644918147419
 20
52.791467217446495
 11
127.55644918147419
 21
52.791467217446495
  0
LINE
  8
_0-b_
  6
CONTINUOUS
 62
  152
 10
127.55644918147419
 20
53.791467217446495
 11
127.55644918147419
 21
52.791467217446495
  0
LINE
  8
_0-b_
  6
CONTINUOUS
 62
  152
 10
129.55644918147419
 20
53.791467217446495
 11
127.55644918147419
 21
53.791467217446495
  0
ARC
  8
_0-b_
  6
CONTINUOUS
 62
  152
 10
129.75644918147424
 20
53.591467217446507
 40
0.2
 50
90
 51
180
  0
ARC
  8
_0-b_
  6
CONTINUOUS
 62
  152
 10
129.75644918147424
 20
62.591467217446507
 40
0.2
 50
90
 51
180
  0
LINE
  8
_0-b_
  6
CONTINUOUS
 62
  152
 10
129.55644918147419
 20
62.591467217446507
 11
129.55644918147419
 21
49.791467217446439
  0
LINE
  8
_0-b_
  6
CONTINUOUS
 62
  152
 10
147.55644918147419
 20
49.791467217446439
 11
129.55644918147419
 21
49.791467217446439
  0
LINE
  8
_0-1_
  6
CENTER2
 62
  152
 10
119.30644942768669
 20
112.04737356439892
 11
127.806439427687
 21
112.04737356439892
  0
LINE
  8
_0-1_
  6
CENTER2
 62
  152
 10
123.55643942768694
 20
107.79739356439887
 11
123.55643942768694
 21
116.29738356439867
  0
LINE
  8
_0-1_
  6
CENTER2
 62
  152
 10
136.05643942768694
 20
99.547373564398924
 11
136.05643942768694
 21
124.54737356439892
  0
LINE
  8
_0-1_
  6
CENTER2
 62
  152
 10
136.05643942768694
 20
124.54737356439892
 11
111.05643942768694
 21
124.54737356439892
  0
LINE
  8
_0-1_
  6
CENTER2
 62
  152
 10
111.05643942768694
 20
124.54737356439892
 11
111.05643942768694
 21
99.547373564398924
  0
LINE
  8
_0-1_
  6
CENTER2
 62
  152
 10
111.05643942768694
 20
99.547373564398924
 11
136.05643942768694
 21
99.547373564398924
  0
LINE
  8
_0-1_
  6
CENTER1
 62
  152
 10
101.05644932851038
 20
119.54738331818618
 11
106.7824514028178
 21
119.54738331818618
  0
LINE
  8
_0-1_
  6
CENTER1
 62
  152
 10
106.7564493285102
 20
127.04738331818618
 11
101.05644932851038
 21
127.04738331818618
  0
LINE
  8
_0-1_
  6
CENTER1
 62
  152
 10
101.05644932851038
 20
134.54738331818618
 11
106.7564493285102
 21
134.54738331818618
  0
LINE
  8
_0-1_
  6
CONTINUOUS
 62
  152
 10
116.85644942768687
 20
111.74738456439883
 11
117.25644942768696
 21
111.74738456439883
  0
LINE
  8
_0-1_
  6
CONTINUOUS
 62
  152
 10
117.25644942768696
 20
109.74738466439868
 11
116.85644942768687
 21
109.74738466439868
  0
LINE
  8
_0-b_
  6
DASHED2
 62
  152
 10
97.056449328510325
 20
133.04738331818629
 11
99.056449328510325
 21
133.04738331818629
  0
LINE
  8
_0-b_
  6
DASHED2
 62
  152
 10
99.056449328510325
 20
122.04738331818618
 11
101.05644932851033
 21
122.04738331818618
  0
LINE
  8
_0-b_
  6
DASHED2
 62
  152
 10
97.056449328510325
 20
121.04738331818618
 11
99.056449328510325
 21
121.04738331818618
  0
LINE
  8
_0-b_
  6
DASHED2
 62
  152
 10
99.056449328510325
 20
121.04738331818618
 11
99.056449328510325
 21
133.04738331818629
  0
LINE
  8
_0-b_
  6
DASHED2
 62
  152
 10
99.056449328510325
 20
132.04738331818618
 11
101.05644932851033
 21
132.04738331818618
  0
LINE
  8
_0-b_
  6
CENTER1
 62
  152
 10
97.056449328510325
 20
123.6473833181862
 11
101.05644932851033
 21
123.6473833181862
  0
LINE
  8
_0-b_
  6
CENTER1
 62
  152
 10
97.056449328510325
 20
130.44738331818627
 11
101.05644932851033
 21
130.44738331818627
  0
LINE
  8
_0-b_
  6
CONTINUOUS
 62
  152
 10
97.056449328510325
 20
118.24738331818622
 11
97.056449328510325
 21
135.84738331818613
  0
ARC
  8
_0-b_
  6
CONTINUOUS
 62
  152
 10
97.256449328510257
 20
135.84738331818613
 40
0.2
 50
90
 51
180
  0
LINE
  8
_0-b_
  6
CONTINUOUS
 62
  152
 10
88.056449328510325
 20
118.24738331818622
 11
88.056449328510325
 21
135.84738331818613
  0
ARC
  8
_0-b_
  6
CONTINUOUS
 62
  152
 10
88.256449328510257
 20
135.84738331818613
 40
0.2
 50
90
 51
180
  0
LINE
  8
_0-b_
  6
CONTINUOUS
 62
  152
 10
88.256449328510257
 20
136.04738331818618
 11
101.05644932851033
 21
136.04738331818618
  0
LINE
  8
_0-b_
  6
CONTINUOUS
 62
  152
 10
93.056449328510269
 20
118.04738331818618
 11
93.056449328510269
 21
116.04738331818618
  0
LINE
  8
_0-b_
  6
CONTINUOUS
 62
  152
 10
93.056449328510269
 20
116.04738331818618
 11
92.056449328510269
 21
116.04738331818618
  0
LINE
  8
_0-b_
  6
CONTINUOUS
 62
  152
 10
92.056449328510269
 20
118.04738331818618
 11
92.056449328510269
 21
116.04738331818618
  0
LINE
  8
_0-b_
  6
CONTINUOUS
 62
  152
 10
98.056449328510269
 20
118.04738331818618
 11
98.056449328510269
 21
116.04738331818618
  0
LINE
  8
_0-b_
  6
CONTINUOUS
 62
  152
 10
97.056449328510269
 20
116.04738331818618
 11
98.056449328510269
 21
116.04738331818618
  0
LINE
  8
_0-b_
  6
CONTINUOUS
 62
  152
 10
97.056449328510269
 20
118.04738331818618
 11
97.056449328510269
 21
116.04738331818618
  0
ARC
  8
_0-b_
  6
CONTINUOUS
 62
  152
 10
97.256449328510257
 20
118.24738331818622
 40
0.2
 50
180
 51
270
  0
ARC
  8
_0-b_
  6
CONTINUOUS
 62
  152
 10
88.256449328510257
 20
118.24738331818622
 40
0.2
 50
180
 51
270
  0
LINE
  8
_0-b_
  6
CONTINUOUS
 62
  152
 10
88.256449328510257
 20
118.04738331818618
 11
101.05644932851033
 21
118.04738331818618
  0
LINE
  8
_0-b_
  6
CONTINUOUS
 62
  152
 10
101.05644932851033
 20
136.04738331818618
 11
101.05644932851033
 21
118.04738331818618
  0
LINE
  8
_0-1_
  6
CENTER2
 62
  152
 10
77.86547783355536
 20
127.27091766678893
 11
86.114833466131245
 21
96.483903316311569
  0
LINE
  8
_0-1_
  6
CENTER2
 62
  152
 10
85.293979087119453
 20
99.547373564398924
 11
17.641112807808213
 21
99.547373564398924
  0
LINE
  8
_0-1_
  6
CENTER2
 62
  152
 10
78.595249276341292
 20
124.54737356439892
 11
71.705446536741192
 21
124.54737356439892
  0
LINE
  8
_0-1_
  6
CENTER2
 62
  152
 10
21.705446536741192
 20
124.54737356439892
 11
10.942382997030109
 21
124.54737356439892
  0
LINE
  8
_0-1_
  6
CENTER2
 62
  152
 10
10.212611554244177
 20
127.27091766678893
 11
18.461967186819948
 21
96.483903316311569
  0
LINE
  8
_0-1_
  6
CENTER1
 62
  152
 10
29.205446536741192
 20
133.04738331818623
 11
29.205446536741192
 21
121.04738331818612
  0
LINE
  8
_0-1_
  6
CENTER1
 62
  152
 10
64.205446536741192
 20
133.04738331818623
 11
64.205446536741192
 21
121.04738331818612
  0
LINE
  8
_0-1_
  6
CENTER1
 62
  152
 10
26.605446536741056
 20
123.64738331818614
 11
31.805446536741101
 21
123.64738331818614
  0
LINE
  8
_0-1_
  6
CENTER1
 62
  152
 10
26.605446536741056
 20
130.44738331818621
 11
31.805446536741101
 21
130.44738331818621
  0
LINE
  8
_0-1_
  6
CENTER1
 62
  152
 10
27.605446536741056
 20
127.04738331818612
 11
30.805446536741101
 21
127.04738331818612
  0
LINE
  8
_0-1_
  6
CENTER1
 62
  152
 10
66.805446536741101
 20
123.64738331818614
 11
61.605446536741056
 21
123.64738331818614
  0
LINE
  8
_0-1_
  6
CENTER1
 62
  152
 10
66.805446536741101
 20
130.44738331818621
 11
61.605446536741056
 21
130.44738331818621
  0
LINE
  8
_0-1_
  6
CENTER1
 62
  152
 10
60.497338049301788
 20
126.54738331818618
 11
69.319520079314884
 21
126.54738331818618
  0
LINE
  8
_0-1_
  6
CONTINUOUS
 62
  152
 10
62.455446536741192
 20
126.19738332414664
 11
62.455446536741192
 21
126.89738331222571
  0
LINE
  8
_0-1_
  6
CONTINUOUS
 62
  152
 10
65.955446536741192
 20
126.19738332414664
 11
65.955446536741192
 21
126.89738331222571
  0
LINE
  8
_0-1_
  6
CONTINUOUS
 62
  152
 10
63.855446542701657
 20
128.29738331818618
 11
64.555446530780728
 21
128.29738331818618
  0
LINE
  8
_0-1_
  6
CONTINUOUS
 62
  152
 10
63.855446542701657
 20
124.79738331818618
 11
64.555446530780728
 21
124.79738331818618
  0
LINE
  8
_0-1_
  6
CONTINUOUS
 62
  152
 10
64.555446530780728
 20
127.59738327050246
 11
64.555446530780728
 21
128.29738331818618
  0
LINE
  8
_0-1_
  6
CONTINUOUS
 62
  152
 10
65.255446489057476
 20
126.89738331222571
 11
65.955446536741192
 21
126.89738331222571
  0
LINE
  8
_0-1_
  6
CONTINUOUS
 62
  152
 10
65.255446489057476
 20
126.19738332414664
 11
65.955446536741192
 21
126.19738332414664
  0
LINE
  8
_0-1_
  6
CONTINUOUS
 62
  152
 10
64.555446530780728
 20
125.49738336586989
 11
64.555446530780728
 21
124.79738331818618
  0
LINE
  8
_0-1_
  6
CONTINUOUS
 62
  152
 10
63.855446542701657
 20
125.49738336586989
 11
63.855446542701657
 21
124.79738331818618
  0
LINE
  8
_0-1_
  6
CONTINUOUS
 62
  152
 10
63.155446584424908
 20
126.19738332414664
 11
62.455446536741192
 21
126.19738332414664
  0
LINE
  8
_0-1_
  6
CONTINUOUS
 62
  152
 10
63.155446584424908
 20
126.89738331222571
 11
62.455446536741192
 21
126.89738331222571
  0
LINE
  8
_0-1_
  6
CONTINUOUS
 62
  152
 10
63.855446542701657
 20
127.59738327050246
 11
63.855446542701657
 21
128.29738331818618
  0
CIRCLE
  8
_0-1_
  6
CONTINUOUS
 62
  152
 10
64.205446536741192
 20
126.54738331818618
 40
2.75
  0
ARC
  8
_0-1_
  6
CONTINUOUS
 62
  152
 10
65.255446489057476
 20
127.59738327050246
 40
0.699999988079071
 50
180
 51
270
  0
ARC
  8
_0-1_
  6
CONTINUOUS
 62
  152
 10
65.255446489057476
 20
125.49738336586989
 40
0.699999988079071
 50
90
 51
180
  0
ARC
  8
_0-1_
  6
CONTINUOUS
 62
  152
 10
63.155446584424908
 20
125.49738336586989
 40
0.699999988079071
 50
0
 51
90
  0
ARC
  8
_0-1_
  6
CONTINUOUS
 62
  152
 10
63.155446584424908
 20
127.59738327050246
 40
0.699999988079071
 50
270
 51
0
  0
LINE
  8
_0-1_
  6
CENTER1
 62
  152
 10
212.55176015472244
 20
84.944339565631878
 11
212.55176015472244
 21
72.944339565631765
  0
LINE
  8
_0-1_
  6
CENTER1
 62
  152
 10
247.55176015472233
 20
84.944339565631878
 11
247.55176015472233
 21
72.944339565631765
  0
LINE
  8
_0-1_
  6
CENTER1
 62
  152
 10
209.95176015472231
 20
75.544339565631788
 11
215.15176015472235
 21
75.544339565631788
  0
LINE
  8
_0-1_
  6
CENTER1
 62
  152
 10
209.95176015472231
 20
82.344339565631856
 11
215.15176015472235
 21
82.344339565631856
  0
LINE
  8
_0-1_
  6
CENTER1
 62
  152
 10
210.95176015472231
 20
78.944339565631765
 11
214.15176015472235
 21
78.944339565631765
  0
LINE
  8
_0-1_
  6
CENTER1
 62
  152
 10
250.15176015472235
 20
75.544339565631788
 11
244.95176015472231
 21
75.544339565631788
  0
LINE
  8
_0-1_
  6
CENTER1
 62
  152
 10
250.15176015472235
 20
82.344339565631856
 11
244.95176015472231
 21
82.344339565631856
  0
LINE
  8
_0-1_
  6
CENTER1
 62
  152
 10
249.15176015472235
 20
78.944339565631765
 11
245.95176015472231
 21
78.944339565631765
  0
LINE
  8
_0-1_
  6
CENTER1
 62
  152
 10
230.05176015472233
 20
87.944339565631765
 11
230.05176015472233
 21
67.944339565631765
  0
LINE
  8
_0-1_
  6
CENTER1
 62
  152
 10
268.56633208132604
 20
132.80157570658474
 11
268.56633208132604
 21
116.80157570658469
  0
LINE
  8
_0-1_
  6
CENTER1
 62
  152
 10
254.06633208132604
 20
124.80157570658474
 11
283.06633208132604
 21
124.80157570658474
  0
LINE
  8
_0-2_
  6
DASHED2
 62
  152
 10
308.13865358014908
 20
127.6015757065847
 11
308.93865358014904
 21
126.80157570658474
  0
LINE
  8
_0-2_
  6
DASHED2
 62
  152
 10
308.13865358014908
 20
122.00157570658467
 11
308.93865358014904
 21
122.80157570658474
  0
LINE
  8
_0-2_
  6
DASHED2
 62
  152
 10
308.93865358014904
 20
122.80157570658474
 11
308.93865358014904
 21
126.80157570658474
  0
LINE
  8
_0-b_
  6
DASHED2
 62
  152
 10
294.6714486579196
 20
31.67230850902439
 11
294.6714486579196
 21
29.67230850902439
  0
LINE
  8
_0-b_
  6
DASHED2
 62
  152
 10
283.67144865791948
 20
29.67230850902439
 11
283.67144865791948
 21
27.67230850902439
  0
LINE
  8
_0-b_
  6
DASHED2
 62
  152
 10
282.67144865791948
 20
31.67230850902439
 11
282.67144865791948
 21
29.67230850902439
  0
LINE
  8
_0-b_
  6
DASHED2
 62
  152
 10
282.67144865791948
 20
29.67230850902439
 11
294.6714486579196
 21
29.67230850902439
  0
LINE
  8
_0-b_
  6
DASHED2
 62
  152
 10
293.67144865791948
 20
29.67230850902439
 11
293.67144865791948
 21
27.67230850902439
  0
LINE
  8
_0-b_
  6
CENTER1
 62
  152
 10
285.27144865791951
 20
31.67230850902439
 11
285.27144865791951
 21
27.67230850902439
  0
LINE
  8
_0-b_
  6
CENTER1
 62
  152
 10
292.07144865791957
 20
31.67230850902439
 11
292.07144865791957
 21
27.67230850902439
  0
LINE
  8
_0-b_
  6
CONTINUOUS
 62
  152
 10
279.87144865791953
 20
31.67230850902439
 11
297.47144865791944
 21
31.67230850902439
  0
ARC
  8
_0-b_
  6
CONTINUOUS
 62
  152
 10
297.47144865791944
 20
31.472308509024458
 40
0.2
 50
0
 51
90
  0
LINE
  8
_0-b_
  6
CONTINUOUS
 62
  152
 10
279.87144865791953
 20
40.67230850902439
 11
297.47144865791944
 21
40.67230850902439
  0
ARC
  8
_0-b_
  6
CONTINUOUS
 62
  152
 10
297.47144865791944
 20
40.472308509024458
 40
0.2
 50
0
 51
90
  0
LINE
  8
_0-b_
  6
CONTINUOUS
 62
  152
 10
297.67144865791948
 20
40.472308509024458
 11
297.67144865791948
 21
27.67230850902439
  0
LINE
  8
_0-b_
  6
CONTINUOUS
 62
  152
 10
297.67144865791948
 20
27.67230850902439
 11
279.67144865791948
 21
27.67230850902439
  0
LINE
  8
_0-b_
  6
CONTINUOUS
 62
  152
 10
279.67144865791948
 20
35.672308509024447
 11
277.67144865791948
 21
35.672308509024447
  0
LINE
  8
_0-b_
  6
CONTINUOUS
 62
  152
 10
277.67144865791948
 20
35.672308509024447
 11
277.67144865791948
 21
36.672308509024447
  0
LINE
  8
_0-b_
  6
CONTINUOUS
 62
  152
 10
279.67144865791948
 20
36.672308509024447
 11
277.67144865791948
 21
36.672308509024447
  0
LINE
  8
_0-b_
  6
CONTINUOUS
 62
  152
 10
279.67144865791948
 20
30.672308509024447
 11
277.67144865791948
 21
30.672308509024447
  0
LINE
  8
_0-b_
  6
CONTINUOUS
 62
  152
 10
277.67144865791948
 20
31.672308509024447
 11
277.67144865791948
 21
30.672308509024447
  0
LINE
  8
_0-b_
  6
CONTINUOUS
 62
  152
 10
279.67144865791948
 20
31.672308509024447
 11
277.67144865791948
 21
31.672308509024447
  0
ARC
  8
_0-b_
  6
CONTINUOUS
 62
  152
 10
279.87144865791953
 20
31.472308509024458
 40
0.2
 50
90
 51
180
  0
ARC
  8
_0-b_
  6
CONTINUOUS
 62
  152
 10
279.87144865791953
 20
40.472308509024458
 40
0.2
 50
90
 51
180
  0
LINE
  8
_0-b_
  6
CONTINUOUS
 62
  152
 10
279.67144865791948
 20
40.472308509024458
 11
279.67144865791948
 21
27.67230850902439
  0
LINE
  8
_0-2_
  6
DASHED2
 62
  152
 10
308.93865358014904
 20
122.80157570658474
 11
309.63865358014908
 21
122.80157570658474
  0
LINE
  8
_0-2_
  6
DASHED2
 62
  152
 10
308.93865358014904
 20
126.80157570658474
 11
309.63865358014908
 21
126.80157570658474
  0
LINE
  8
_0-1_
  6
CENTER1
 62
  152
 10
308.13865358014908
 20
124.80157570658474
 11
309.63865358014908
 21
124.80157570658474
  0
TEXT
  8
_0-1_
 62
    7
 10
12.413953830751325
 20
143.971731653897
 40
4.2999999999999998
 41
0.744186046511628
 50
0
  1
MD2B-S
  0
TEXT
  8
_0-1_
 62
    7
 10
204.56145012160908
 20
99.039605945493804
 40
4.2999999999999998
 41
0.744186046511628
 50
0
  1
MD2B-N
  0
ENDSEC
  0
EOF
