  0
SECTION
  2
HEADER
  9
$ACADVER
  1
AC1009
  9
$INSBASE
 10
0
 20
0
 30
0
  9
$EXTMIN
 10
0
 20
0
  9
$EXTMAX
 10
1189
 20
841
  9
$LIMMIN
 10
0
 20
0
  9
$LIMMAX
 10
1189
 20
841
  9
$LTSCALE
 40
1
  0
ENDSEC
  0
SECTION
  2
TABLES
  0
TABLE
  2
LTYPE
 70
     9
  0
LTYPE
  2
CONTINUOUS
 70
    64
  3
実線
 72
    65
 73
     0
 40
0.0
  0
LTYPE
  2
DASHED1
 70
    64
  3
--  --  --  --  --  --  --  --  
 72
    65
 73
     2
 40
2.5
 49
1.25
 49
-1.25
  0
LTYPE
  2
DASHED2
 70
    64
  3
----    ----    ----    ----    
 72
    65
 73
     2
 40
5.0
 49
2.5
 49
-2.5
  0
LTYPE
  2
DASHED3
 70
    64
  3
------  ------  ------  ------  
 72
    65
 73
     2
 40
5.0
 49
3.75
 49
-1.25
  0
LTYPE
  2
CENTER1
 70
    64
  3
----- - ----- - ----- - ----- - 
 72
    65
 73
     4
 40
10.0
 49
6.25
 49
-1.25
 49
1.25
 49
-1.25
  0
LTYPE
  2
CENTER2
 70
    64
  3
----------  --  ----------  --  
 72
    65
 73
     4
 40
20.0
 49
12.5
 49
-2.5
 49
2.5
 49
-2.5
  0
LTYPE
  2
PHANTOM1
 70
    64
  3
--- - - --- - - --- - - --- - - 
 72
    65
 73
     6
 40
10.0
 49
3.25
 49
-1.25
 49
1.25
 49
-1.25
 49
1.25
 49
-1.25
  0
LTYPE
  2
PHANTOM2
 70
    64
  3
--------  -  -  --------  -  -  
 72
    65
 73
     6
 40
20.0
 49
10.0
 49
-2.5
 49
1.25
 49
-2.5
 49
1.25
 49
-2.5
  0
LTYPE
  2
DOT
 70
    64
  3
-   -   -   -   -   -   -   -   
 72
    65
 73
     2
 40
2.5
 49
0.625
 49
-1.875
  0
LTYPE
  2
DUMMY
 70
    64
  3
ダミー
 72
    65
 73
     0
 40
0.0
  0
LTYPE
  2
RAND1
 70
    64
  3
ランダム線1
 72
    65
 73
     4
 40
10.0
 49
1.0
 49
-2.0
 49
3.0
 49
-4.0
  0
LTYPE
  2
RAND2
 70
    64
  3
ランダム線2
 72
    65
 73
     4
 40
14.0
 49
2.0
 49
-3.0
 49
4.0
 49
-5.0
  0
LTYPE
  2
RAND3
 70
    64
  3
ランダム線3
 72
    65
 73
     4
 40
18.0
 49
3.0
 49
-4.0
 49
5.0
 49
-6.0
  0
LTYPE
  2
RAND4
 70
    64
  3
ランダム線4
 72
    65
 73
     4
 40
22.0
 49
4.0
 49
-5.0
 49
6.0
 49
-7.0
  0
LTYPE
  2
RAND5
 70
    64
  3
ランダム線5
 72
    65
 73
     4
 40
26.0
 49
5.0
 49
-6.0
 49
7.0
 49
-8.0
  0
LTYPE
  2
LONG1
 70
    64
  3
----------  --  ----------  --  
 72
    65
 73
     4
 40
40.0
 49
32.5
 49
-2.5
 49
2.5
 49
-2.5
  0
LTYPE
  2
LONG2
 70
    64
  3
--------  -  -  --------  -  -  
 72
    65
 73
     6
 40
40.0
 49
30.0
 49
-2.5
 49
1.25
 49
-2.5
 49
1.25
 49
-2.5
  0
LTYPE
  2
LONG3
 70
    64
  3
+++++++++++++++..+++++++++++++++
 72
    65
 73
     2
 40
40.0
 49
37.5
 49
-2.5
  0
LTYPE
  2
LONG4
 70
    64
  3
+++++++++++++++..+++++++++++++++
 72
    65
 73
     2
 40
80.0
 49
75.0
 49
-5.0
  0
LTYPE
  2
LONG5
 70
    64
  3
----------  --  ----------  --  
 72
    65
 73
     4
 40
60.0
 49
37.5
 49
-7.5
 49
7.5
 49
-7.5
  0
LTYPE
  2
dashed
 70
   64
  3
-------   -------------   ------
 72
   65
 73
    2
 40
7.5
 49
6
 49
-1.5
  0
LTYPE
  2
dashed_spaced
 70
   64
  3
----        --------        ----
 72
   65
 73
    2
 40
12
 49
6
 49
-6
  0
LTYPE
  2
long_dashed_dotted
 70
   64
  3
------------- --- --------------
 72
   65
 73
    4
 40
15.25
 49
12
 49
-1.5
 49
0.25
 49
-1.5
  0
LTYPE
  2
long_dashed_double-dotted
 70
   64
  3
----------- --- --- ------------
 72
   65
 73
    6
 40
17
 49
12
 49
-1.5
 49
0.25
 49
-1.5
 49
0.25
 49
-1.5
  0
LTYPE
  2
long_dashed_triplicate-dotted
 70
   64
  3
--------- --- --- --- ----------
 72
   65
 73
    8
 40
18.75
 49
12
 49
-1.5
 49
0.25
 49
-1.5
 49
0.25
 49
-1.5
 49
0.25
 49
-1.5
  0
LTYPE
  2
dotted
 70
   64
  3
   -       -       -       -    
 72
   65
 73
    2
 40
1.75
 49
0.25
 49
-1.5
  0
LTYPE
  2
chain
 70
   64
  3
-------------- -- --------------
 72
   65
 73
    4
 40
18.5
 49
12
 49
-1.5
 49
3.5
 49
-1.5
  0
LTYPE
  2
chain_double_dash
 70
   64
  3
------------ -- -- -------------
 72
   65
 73
    6
 40
23.5
 49
12
 49
-1.5
 49
3.5
 49
-1.5
 49
3.5
 49
-1.5
  0
LTYPE
  2
dashed_dotted
 70
   64
  3
-----------     -     ----------
 72
   65
 73
    4
 40
9.25
 49
6
 49
-1.5
 49
0.25
 49
-1.5
  0
LTYPE
  2
double-dashed_dotted
 70
   64
  3
------   -----------   -   -----
 72
   65
 73
    6
 40
16.75
 49
6
 49
-1.5
 49
6
 49
-1.5
 49
0.25
 49
-1.5
  0
LTYPE
  2
dashed_double-dotted
 70
   64
  3
---------    -    -    ---------
 72
   65
 73
    6
 40
11
 49
6
 49
-1.5
 49
0.25
 49
-1.5
 49
0.25
 49
-1.5
  0
LTYPE
  2
double-dashed_double-dotted
 70
   64
  3
-----   ---------   -   -   ----
 72
   65
 73
    8
 40
18.5
 49
6
 49
-1.5
 49
6
 49
-1.5
 49
0.25
 49
-1.5
 49
0.25
 49
-1.5
  0
LTYPE
  2
dashed_triplicate-dotted
 70
   64
  3
-------    -    -    -    ------
 72
   65
 73
    8
 40
12.75
 49
6
 49
-1.5
 49
0.25
 49
-1.5
 49
0.25
 49
-1.5
 49
0.25
 49
-1.5
  0
LTYPE
  2
double-dashed_triplicate-dotted
 70
   64
  3
-----  ---------  -  -  -  -----
 72
   65
 73
   10
 40
20.25
 49
6
 49
-1.5
 49
6
 49
-1.5
 49
0.25
 49
-1.5
 49
0.25
 49
-1.5
 49
0.25
 49
-1.5
  0
LTYPE
  2
undefined
 70
   64
  3
--------------------------------
 72
   65
 73
    0
 40
0
  0
ENDTAB
  0
TABLE
  2
STYLE
  5
3
100
AcDbSymbolTable
 70
     1
  0
STYLE
  5
10
100
AcDbSymbolTableRecord
100
AcDbTextStyleTableRecord
  2
STANDARD
 70
     0
 40
0.0
 41
1.0
 50
0.0
 71
     0
 42
0.2
  3
txt
  4
bigfont.shx
  0
STYLE
  5
26
100
AcDbSymbolTableRecord
100
AcDbTextStyleTableRecord
  2
TATEGAKI
 70
    68
 40
0.0
 41
1.0
 50
0.0
 71
     0
 42
1.0
  3
txt
  4
bigfont.shx
  0
ENDTAB
  0
TABLE
  2
LAYER
 70
    5
  0
LAYER
  2
_0-0_
 70
   64
 62
    7
  6
CONTINUOUS
  0
LAYER
  2
_0-1_
 70
   64
 62
    7
  6
CONTINUOUS
  0
LAYER
  2
_0-2_
 70
   64
 62
    7
  6
CONTINUOUS
  0
LAYER
  2
_0-8_
 70
   64
 62
    7
  6
CONTINUOUS
  0
LAYER
  2
ADD_LINE
 70
   64
 62
    7
  6
CONTINUOUS
  0
ENDTAB
  0
ENDSEC
  0
SECTION
  2
BLOCKS
  0
ENDSEC
  0
SECTION
  2
ENTITIES
  0
LINE
  8
_0-0_
  6
CONTINUOUS
 62
    7
 10
181.4173665015698
 20
114.79287594660582
 11
181.4173665015698
 21
116.79287594660582
  0
LINE
  8
_0-0_
  6
CONTINUOUS
 62
    7
 10
181.4173665015698
 20
114.79287594660582
 11
221.4173665015698
 21
114.79287594660582
  0
LINE
  8
_0-0_
  6
CONTINUOUS
 62
    7
 10
221.4173665015698
 20
114.79287594660582
 11
221.4173665015698
 21
116.79287594660582
  0
LINE
  8
_0-0_
  6
CONTINUOUS
 62
    7
 10
219.9173665015698
 20
118.29287594660582
 11
212.9173665015698
 21
118.29287594660582
  0
LINE
  8
_0-0_
  6
CONTINUOUS
 62
    7
 10
212.9173665015698
 20
118.29287594660582
 11
212.9173665015698
 21
123.29287594660582
  0
LINE
  8
_0-0_
  6
CONTINUOUS
 62
    7
 10
212.4173665015698
 20
122.29287594660582
 11
190.4173665015698
 21
122.29287594660582
  0
LINE
  8
_0-0_
  6
CONTINUOUS
 62
    7
 10
190.4173665015698
 20
122.29287594660582
 11
190.4173665015698
 21
114.79287594660582
  0
LINE
  8
_0-0_
  6
CONTINUOUS
 62
    7
 10
190.4173665015698
 20
116.29287594660582
 11
212.4173665015698
 21
116.29287594660582
  0
LINE
  8
_0-0_
  6
CONTINUOUS
 62
    7
 10
211.6673665015698
 20
116.29287594660582
 11
211.6673665015698
 21
122.29287594660582
  0
LINE
  8
_0-0_
  6
CONTINUOUS
 62
    7
 10
212.4173665015698
 20
122.29287594660582
 11
212.4173665015698
 21
114.79287594660582
  0
LINE
  8
_0-0_
  6
CONTINUOUS
 62
    7
 10
211.6673665015698
 20
117.29287594660582
 11
191.1673665015698
 21
117.29287594660582
  0
LINE
  8
_0-0_
  6
CONTINUOUS
 62
    7
 10
191.1673665015698
 20
116.29287594660582
 11
191.1673665015698
 21
122.29287594660582
  0
LINE
  8
_0-0_
  6
CONTINUOUS
 62
    7
 10
191.1673665015698
 20
121.29287594660582
 11
211.6673665015698
 21
121.29287594660582
  0
LINE
  8
_0-0_
  6
CONTINUOUS
 62
    7
 10
211.4173665015698
 20
124.79287594660582
 11
191.4173665015698
 21
124.79287594660582
  0
LINE
  8
_0-0_
  6
CONTINUOUS
 62
    7
 10
189.9173665015698
 20
123.29287594660582
 11
189.9173665015698
 21
118.29287594660582
  0
LINE
  8
_0-0_
  6
CONTINUOUS
 62
    7
 10
189.9173665015698
 20
118.29287594660582
 11
182.9173665015698
 21
118.29287594660582
  0
LINE
  8
_0-0_
  6
CONTINUOUS
 62
    7
 10
189.9173665015698
 20
173.01386145128461
 11
189.9173665015698
 21
159.01386145128458
  0
LINE
  8
_0-0_
  6
CONTINUOUS
 62
    7
 10
190.4173665015698
 20
157.51386145128458
 11
190.4173665015698
 21
156.01386145128458
  0
LINE
  8
_0-0_
  6
CONTINUOUS
 62
    7
 10
190.9173665015698
 20
155.51386145128458
 11
211.9173665015698
 21
155.51386145128458
  0
LINE
  8
_0-0_
  6
CONTINUOUS
 62
    7
 10
212.4173665015698
 20
156.01386145128458
 11
212.4173665015698
 21
157.51386145128458
  0
LINE
  8
_0-0_
  6
CONTINUOUS
 62
    7
 10
212.9173665015698
 20
159.01386145128458
 11
212.9173665015698
 21
173.01386145128461
  0
LINE
  8
_0-0_
  6
CONTINUOUS
 62
    7
 10
218.4173665015698
 20
157.51386145128458
 11
184.4173665015698
 21
157.51386145128458
  0
LINE
  8
_0-0_
  6
CONTINUOUS
 62
    7
 10
184.4173665015698
 20
174.51386145128461
 11
218.4173665015698
 21
174.51386145128461
  0
LINE
  8
_0-0_
  6
CONTINUOUS
 62
    7
 10
221.4173665015698
 20
171.51386145128461
 11
221.4173665015698
 21
160.51386145128458
  0
LINE
  8
_0-0_
  6
CONTINUOUS
 62
    7
 10
219.4173665015698
 20
164.01386145128458
 11
219.4173665015698
 21
168.01386145128461
  0
LINE
  8
_0-0_
  6
CONTINUOUS
 62
    7
 10
183.4173665015698
 20
168.01386145128461
 11
183.4173665015698
 21
164.01386145128458
  0
LINE
  8
_0-0_
  6
CONTINUOUS
 62
    7
 10
187.4173665015698
 20
164.01386145128458
 11
187.4173665015698
 21
168.01386145128461
  0
LINE
  8
_0-0_
  6
CONTINUOUS
 62
    7
 10
181.4173665015698
 20
171.51386145128461
 11
181.4173665015698
 21
160.51386145128458
  0
LINE
  8
_0-0_
  6
CONTINUOUS
 62
    7
 10
215.4173665015698
 20
164.01386145128458
 11
215.4173665015698
 21
168.01386145128461
  0
LINE
  8
_0-0_
  6
CONTINUOUS
 62
    7
 10
260.26455692211647
 20
122.29287594660582
 11
260.26455692211647
 21
116.29287594660582
  0
LINE
  8
_0-0_
  6
CONTINUOUS
 62
    7
 10
260.26455692211647
 20
116.29287594660582
 11
262.26455692211647
 21
116.29287594660582
  0
LINE
  8
_0-0_
  6
CONTINUOUS
 62
    7
 10
262.26455692211647
 20
117.29287594660582
 11
260.26455692211647
 21
117.29287594660582
  0
LINE
  8
_0-0_
  6
CONTINUOUS
 62
    7
 10
260.26455692211647
 20
121.29287594660582
 11
262.26455692211647
 21
121.29287594660582
  0
LINE
  8
_0-0_
  6
CONTINUOUS
 62
    7
 10
262.26455692211647
 20
122.29287594660582
 11
260.26455692211647
 21
122.29287594660582
  0
LINE
  8
_0-0_
  6
CONTINUOUS
 62
    7
 10
262.26455692211647
 20
123.29287594660582
 11
262.26455692211647
 21
114.79287594660582
  0
LINE
  8
_0-0_
  6
CONTINUOUS
 62
    7
 10
262.26455692211647
 20
114.79287594660582
 11
279.26455692211647
 21
114.79287594660582
  0
LINE
  8
_0-0_
  6
CONTINUOUS
 62
    7
 10
279.26455692211647
 20
114.79287594660582
 11
279.26455692211647
 21
123.29287594660582
  0
LINE
  8
_0-0_
  6
CONTINUOUS
 62
    7
 10
277.76455692211647
 20
124.79287594660582
 11
263.76455692211647
 21
124.79287594660582
  0
LINE
  8
_0-0_
  6
CONTINUOUS
 62
    7
 10
263.76455692211647
 20
118.29287594660582
 11
277.76455692211647
 21
118.29287594660582
  0
ARC
  8
_0-0_
  6
CONTINUOUS
 62
    7
 10
217.4173665015698
 20
168.01386145128461
 40
2
 50
0
 51
180
  0
ARC
  8
_0-0_
  6
CONTINUOUS
 62
    7
 10
217.4173665015698
 20
164.01386145128458
 40
2
 50
180
 51
0
  0
ARC
  8
_0-0_
  6
CONTINUOUS
 62
    7
 10
185.4173665015698
 20
168.01386145128461
 40
2
 50
0
 51
180
  0
ARC
  8
_0-0_
  6
CONTINUOUS
 62
    7
 10
185.4173665015698
 20
164.01386145128458
 40
2
 50
180
 51
0
  0
ARC
  8
_0-0_
  6
CONTINUOUS
 62
    7
 10
191.4173665015698
 20
173.01386145128461
 40
1.5
 50
90
 51
180
  0
ARC
  8
_0-0_
  6
CONTINUOUS
 62
    7
 10
211.4173665015698
 20
173.01386145128461
 40
1.5
 50
0
 51
90
  0
ARC
  8
_0-0_
  6
CONTINUOUS
 62
    7
 10
211.4173665015698
 20
159.01386145128458
 40
1.5
 50
270
 51
0
  0
ARC
  8
_0-0_
  6
CONTINUOUS
 62
    7
 10
191.4173665015698
 20
159.01386145128458
 40
1.5
 50
180
 51
270
  0
ARC
  8
_0-0_
  6
CONTINUOUS
 62
    7
 10
184.4173665015698
 20
171.51386145128461
 40
3
 50
90
 51
180
  0
ARC
  8
_0-0_
  6
CONTINUOUS
 62
    7
 10
218.4173665015698
 20
171.51386145128461
 40
3
 50
0
 51
90
  0
ARC
  8
_0-0_
  6
CONTINUOUS
 62
    7
 10
218.4173665015698
 20
160.51386145128458
 40
3
 50
270
 51
0
  0
ARC
  8
_0-0_
  6
CONTINUOUS
 62
    7
 10
184.4173665015698
 20
160.51386145128458
 40
3
 50
180
 51
270
  0
ARC
  8
_0-0_
  6
CONTINUOUS
 62
    7
 10
190.9173665015698
 20
156.01386145128458
 40
0.5
 50
180
 51
270
  0
ARC
  8
_0-0_
  6
CONTINUOUS
 62
    7
 10
211.9173665015698
 20
156.01386145128458
 40
0.5
 50
270
 51
0
  0
ARC
  8
_0-0_
  6
CONTINUOUS
 62
    7
 10
191.4173665015698
 20
123.29287594660582
 40
1.5
 50
90
 51
180
  0
ARC
  8
_0-0_
  6
CONTINUOUS
 62
    7
 10
182.9173665015698
 20
116.79287594660582
 40
1.5
 50
90
 51
180
  0
ARC
  8
_0-0_
  6
CONTINUOUS
 62
    7
 10
211.4173665015698
 20
123.29287594660582
 40
1.5
 50
0
 51
90
  0
ARC
  8
_0-0_
  6
CONTINUOUS
 62
    7
 10
219.9173665015698
 20
116.79287594660582
 40
1.5
 50
0
 51
90
  0
ARC
  8
_0-0_
  6
CONTINUOUS
 62
    7
 10
263.76455692211647
 20
123.29287594660582
 40
1.5
 50
90
 51
180
  0
ARC
  8
_0-0_
  6
CONTINUOUS
 62
    7
 10
277.76455692211647
 20
123.29287594660582
 40
1.5
 50
0
 51
90
  0
ARC
  8
_0-0_
  6
CONTINUOUS
 62
    7
 10
263.76455692211647
 20
116.79287594660582
 40
1.5
 50
90
 51
180
  0
ARC
  8
_0-0_
  6
CONTINUOUS
 62
    7
 10
277.76455692211647
 20
116.79287594660582
 40
1.5
 50
0
 51
90
  0
LINE
  8
_0-0_
  6
CONTINUOUS
 62
    7
 10
255.88707475631423
 20
183.53460828827963
 11
255.88707475631423
 21
171.53460828827966
  0
LINE
  8
_0-0_
  6
CONTINUOUS
 62
    7
 10
255.88707475631423
 20
171.53460828827966
 11
278.88707475631423
 21
171.53460828827966
  0
LINE
  8
_0-0_
  6
CONTINUOUS
 62
    7
 10
278.88707475631423
 20
171.53460828827966
 11
278.88707475631423
 21
183.53460828827963
  0
LINE
  8
_0-0_
  6
CONTINUOUS
 62
    7
 10
278.88707475631423
 20
183.53460828827963
 11
255.88707475631423
 21
183.53460828827963
  0
LINE
  8
_0-0_
  6
CONTINUOUS
 62
    7
 10
292.13484733174215
 20
183.53460828827963
 11
290.63484733174215
 21
183.53460828827963
  0
LINE
  8
_0-0_
  6
CONTINUOUS
 62
    7
 10
290.63484733174215
 20
183.53460828827963
 11
290.63484733174215
 21
171.53460828827966
  0
LINE
  8
_0-0_
  6
CONTINUOUS
 62
    7
 10
290.63484733174215
 20
171.53460828827966
 11
292.13484733174215
 21
171.53460828827966
  0
LINE
  8
_0-0_
  6
CONTINUOUS
 62
    7
 10
292.13484733174215
 20
171.53460828827966
 11
292.13484733174215
 21
183.53460828827963
  0
CIRCLE
  8
_0-0_
  6
CONTINUOUS
 62
    7
 10
267.38707475631423
 20
177.5346082882796
 40
2.25
  0
CIRCLE
  8
_0-0_
  6
CONTINUOUS
 62
    7
 10
267.38707475631423
 20
177.5346082882796
 40
3.25
  0
LINE
  8
_0-0_
  6
CONTINUOUS
 62
    7
 10
65.892765733836882
 20
111.2542400459821
 11
25.892765733836882
 21
111.2542400459821
  0
LINE
  8
_0-0_
  6
CONTINUOUS
 62
    7
 10
25.892765733836882
 20
111.2542400459821
 11
25.892765733836882
 21
86.254240045982101
  0
LINE
  8
_0-0_
  6
CONTINUOUS
 62
    7
 10
25.892765733836882
 20
86.254240045982101
 11
65.892765733836882
 21
86.254240045982101
  0
LINE
  8
_0-0_
  6
CONTINUOUS
 62
    7
 10
65.892765733836882
 20
86.254240045982101
 11
65.892765733836882
 21
111.2542400459821
  0
LINE
  8
_0-0_
  6
CONTINUOUS
 62
    7
 10
62.892765733836882
 20
106.75426004598205
 11
28.892765733836882
 21
106.75426004598205
  0
LINE
  8
_0-0_
  6
CONTINUOUS
 62
    7
 10
34.392765733836882
 20
105.25426004598205
 11
34.392765733836882
 21
91.254260045982051
  0
LINE
  8
_0-0_
  6
CONTINUOUS
 62
    7
 10
34.892765733836882
 20
89.754260045982051
 11
34.892765733836882
 21
88.254260045982051
  0
LINE
  8
_0-0_
  6
CONTINUOUS
 62
    7
 10
35.392765733836882
 20
87.754260045982051
 11
56.392765733836882
 21
87.754260045982051
  0
LINE
  8
_0-0_
  6
CONTINUOUS
 62
    7
 10
56.892765733836882
 20
88.254260045982051
 11
56.892765733836882
 21
89.754260045982051
  0
LINE
  8
_0-0_
  6
CONTINUOUS
 62
    7
 10
57.392765733836882
 20
91.254260045982051
 11
57.392765733836882
 21
105.25426004598205
  0
LINE
  8
_0-0_
  6
CONTINUOUS
 62
    7
 10
61.592765721915953
 20
100.50426004598205
 11
62.192765745757811
 21
100.50426004598205
  0
LINE
  8
_0-0_
  6
CONTINUOUS
 62
    7
 10
62.192765745757811
 20
100.50426004598205
 11
62.192765745757811
 21
99.854260069823908
  0
LINE
  8
_0-0_
  6
CONTINUOUS
 62
    7
 10
61.592765721915953
 20
99.854260069823908
 11
61.592765721915953
 21
100.50426004598205
  0
LINE
  8
_0-0_
  6
CONTINUOUS
 62
    7
 10
60.792765709995024
 20
99.054260057902979
 11
60.142765733836882
 21
99.054260057902979
  0
LINE
  8
_0-0_
  6
CONTINUOUS
 62
    7
 10
60.142765733836882
 20
99.054260057902979
 11
60.142765733836882
 21
98.454260034061122
  0
LINE
  8
_0-0_
  6
CONTINUOUS
 62
    7
 10
60.142765733836882
 20
98.454260034061122
 11
60.792765709995024
 21
98.454260034061122
  0
LINE
  8
_0-0_
  6
CONTINUOUS
 62
    7
 10
61.592765721915953
 20
97.654260022140193
 11
61.592765721915953
 21
97.004260045982051
  0
LINE
  8
_0-0_
  6
CONTINUOUS
 62
    7
 10
61.592765721915953
 20
97.004260045982051
 11
62.192765745757811
 21
97.004260045982051
  0
LINE
  8
_0-0_
  6
CONTINUOUS
 62
    7
 10
62.192765745757811
 20
97.004260045982051
 11
62.192765745757811
 21
97.654260022140193
  0
LINE
  8
_0-0_
  6
CONTINUOUS
 62
    7
 10
62.99276575767874
 20
98.454260034061122
 11
63.642765733836882
 21
98.454260034061122
  0
LINE
  8
_0-0_
  6
CONTINUOUS
 62
    7
 10
63.642765733836882
 20
98.454260034061122
 11
63.642765733836882
 21
99.054260057902979
  0
LINE
  8
_0-0_
  6
CONTINUOUS
 62
    7
 10
63.642765733836882
 20
99.054260057902979
 11
62.99276575767874
 21
99.054260057902979
  0
LINE
  8
_0-0_
  6
CONTINUOUS
 62
    7
 10
62.892765733836882
 20
89.754260045982051
 11
28.892765733836882
 21
89.754260045982051
  0
LINE
  8
_0-0_
  6
CONTINUOUS
 62
    7
 10
27.892765733836882
 20
96.254260045982051
 11
27.892765733836882
 21
100.25426004598205
  0
LINE
  8
_0-0_
  6
CONTINUOUS
 62
    7
 10
31.892765733836882
 20
100.25426004598205
 11
31.892765733836882
 21
96.254260045982051
  0
ARC
  8
_0-0_
  6
CONTINUOUS
 62
    7
 10
29.892765733836882
 20
100.25426004598205
 40
2
 50
0
 51
180
  0
ARC
  8
_0-0_
  6
CONTINUOUS
 62
    7
 10
29.892765733836882
 20
96.254260045982051
 40
2
 50
180
 51
0
  0
ARC
  8
_0-0_
  6
CONTINUOUS
 62
    7
 10
35.892765733836882
 20
105.25426004598205
 40
1.5
 50
90
 51
180
  0
ARC
  8
_0-0_
  6
CONTINUOUS
 62
    7
 10
55.892765733836882
 20
105.25426004598205
 40
1.5
 50
0
 51
90
  0
ARC
  8
_0-0_
  6
CONTINUOUS
 62
    7
 10
55.892765733836882
 20
91.254260045982051
 40
1.5
 50
270
 51
0
  0
ARC
  8
_0-0_
  6
CONTINUOUS
 62
    7
 10
35.892765733836882
 20
91.254260045982051
 40
1.5
 50
180
 51
270
  0
ARC
  8
_0-0_
  6
CONTINUOUS
 62
    7
 10
28.892765733836882
 20
103.75426004598205
 40
3
 50
90
 51
180
  0
ARC
  8
_0-0_
  6
CONTINUOUS
 62
    7
 10
62.892765733836882
 20
103.75426004598205
 40
3
 50
0
 51
90
  0
ARC
  8
_0-0_
  6
CONTINUOUS
 62
    7
 10
62.892765733836882
 20
92.754260045982051
 40
3
 50
270
 51
0
  0
ARC
  8
_0-0_
  6
CONTINUOUS
 62
    7
 10
28.892765733836882
 20
92.754260045982051
 40
3
 50
180
 51
270
  0
ARC
  8
_0-0_
  6
CONTINUOUS
 62
    7
 10
35.392765733836882
 20
88.254260045982051
 40
0.5
 50
180
 51
270
  0
ARC
  8
_0-0_
  6
CONTINUOUS
 62
    7
 10
56.392765733836882
 20
88.254260045982051
 40
0.5
 50
270
 51
0
  0
CIRCLE
  8
_0-0_
  6
CONTINUOUS
 62
    7
 10
61.892765733836882
 20
98.754260045982051
 40
2.75
  0
ARC
  8
_0-0_
  6
CONTINUOUS
 62
    7
 10
62.99276575767874
 20
99.854260069823908
 40
0.8000000119209289
 50
180
 51
270
  0
ARC
  8
_0-0_
  6
CONTINUOUS
 62
    7
 10
62.99276575767874
 20
97.654260022140193
 40
0.8000000119209289
 50
90
 51
180
  0
ARC
  8
_0-0_
  6
CONTINUOUS
 62
    7
 10
60.792765709995024
 20
97.654260022140193
 40
0.8000000119209289
 50
0
 51
90
  0
ARC
  8
_0-0_
  6
CONTINUOUS
 62
    7
 10
60.792765709995024
 20
99.854260069823908
 40
0.8000000119209289
 50
270
 51
0
  0
CIRCLE
  8
_0-0_
  6
CONTINUOUS
 62
    7
 10
61.892765733836882
 20
98.754260045982051
 40
3.880000114440918
  0
ARC
  8
_0-0_
  6
CONTINUOUS
 62
    7
 10
61.892765733836882
 20
96.254260045982051
 40
2
 50
208.71414885062586
 51
331.28585114937425
  0
LINE
  8
_0-0_
  6
CONTINUOUS
 62
    7
 10
25.892765733836882
 20
42.084829425982093
 11
65.892765733836882
 21
42.084829425982093
  0
LINE
  8
_0-0_
  6
CONTINUOUS
 62
    7
 10
25.892765733836882
 20
42.084829425982093
 11
65.892765733836882
 21
42.084829425982093
  0
LINE
  8
_0-0_
  6
CONTINUOUS
 62
    7
 10
64.392765733836882
 20
45.584829425982093
 11
57.392765733836882
 21
45.584829425982093
  0
LINE
  8
_0-0_
  6
CONTINUOUS
 62
    7
 10
57.392765733836882
 20
45.584829425982093
 11
57.392765733836882
 21
50.584829425982093
  0
LINE
  8
_0-0_
  6
CONTINUOUS
 62
    7
 10
56.892765733836882
 20
49.584829425982093
 11
34.892765733836882
 21
49.584829425982093
  0
LINE
  8
_0-0_
  6
CONTINUOUS
 62
    7
 10
34.892765733836882
 20
49.584829425982093
 11
34.892765733836882
 21
42.084829425982093
  0
LINE
  8
_0-0_
  6
CONTINUOUS
 62
    7
 10
34.892765733836882
 20
43.584829425982093
 11
56.892765733836882
 21
43.584829425982093
  0
LINE
  8
_0-0_
  6
CONTINUOUS
 62
    7
 10
56.142765733836882
 20
43.584829425982093
 11
56.142765733836882
 21
49.584829425982093
  0
LINE
  8
_0-0_
  6
CONTINUOUS
 62
    7
 10
56.892765733836882
 20
49.584829425982093
 11
56.892765733836882
 21
42.084829425982093
  0
LINE
  8
_0-0_
  6
CONTINUOUS
 62
    7
 10
56.142765733836882
 20
44.584829425982093
 11
35.642765733836882
 21
44.584829425982093
  0
LINE
  8
_0-0_
  6
CONTINUOUS
 62
    7
 10
35.642765733836882
 20
43.584829425982093
 11
35.642765733836882
 21
49.584829425982093
  0
LINE
  8
_0-0_
  6
CONTINUOUS
 62
    7
 10
35.642765733836882
 20
48.584829425982093
 11
56.142765733836882
 21
48.584829425982093
  0
LINE
  8
_0-0_
  6
CONTINUOUS
 62
    7
 10
55.892765733836882
 20
52.084829425982093
 11
35.892765733836882
 21
52.084829425982093
  0
LINE
  8
_0-0_
  6
CONTINUOUS
 62
    7
 10
34.392765733836882
 20
50.584829425982093
 11
34.392765733836882
 21
45.584829425982093
  0
LINE
  8
_0-0_
  6
CONTINUOUS
 62
    7
 10
34.392765733836882
 20
45.584829425982093
 11
27.392765733836882
 21
45.584829425982093
  0
ARC
  8
_0-0_
  6
CONTINUOUS
 62
    7
 10
35.892765733836882
 20
50.584829425982093
 40
1.5
 50
90
 51
180
  0
ARC
  8
_0-0_
  6
CONTINUOUS
 62
    7
 10
27.392765733836882
 20
44.084829425982093
 40
1.5
 50
90
 51
180
  0
ARC
  8
_0-0_
  6
CONTINUOUS
 62
    7
 10
55.892765733836882
 20
50.584829425982093
 40
1.5
 50
0
 51
90
  0
ARC
  8
_0-0_
  6
CONTINUOUS
 62
    7
 10
64.392765733836882
 20
44.084829425982093
 40
1.5
 50
0
 51
90
  0
LINE
  8
_0-0_
  6
CONTINUOUS
 62
    7
 10
56.892765733836882
 20
25.884829326805061
 11
54.892765733836882
 21
25.884829326805061
  0
LINE
  8
_0-0_
  6
CONTINUOUS
 62
    7
 10
36.892765733836882
 20
25.884829326805061
 11
34.892765733836882
 21
25.884829326805061
  0
LINE
  8
_0-0_
  6
CONTINUOUS
 62
    7
 10
37.292765733837427
 20
26.284829326805607
 11
36.892765733836882
 21
25.884829326805061
  0
LINE
  8
_0-0_
  6
CONTINUOUS
 62
    7
 10
34.892765733836882
 20
25.884829326805061
 11
34.492765733836336
 21
26.284829326805607
  0
LINE
  8
_0-0_
  6
CONTINUOUS
 62
    7
 10
57.292765733837427
 20
26.284829326805607
 11
56.892765733836882
 21
25.884829326805061
  0
LINE
  8
_0-0_
  6
CONTINUOUS
 62
    7
 10
54.892765733836882
 20
25.884829326805061
 11
54.492765733836336
 21
26.284829326805607
  0
LINE
  8
_0-0_
  6
CONTINUOUS
 62
    7
 10
25.892765733836882
 20
26.284829326805607
 11
25.892765733836882
 21
44.084829425982093
  0
LINE
  8
_0-0_
  6
CONTINUOUS
 62
    7
 10
65.892765733836882
 20
44.084829425982093
 11
65.892765733836882
 21
26.284829326805607
  0
LINE
  8
_0-0_
  6
CONTINUOUS
 62
    7
 10
25.892765733836882
 20
32.584829426005342
 11
65.892765733836882
 21
32.584829426005342
  0
LINE
  8
_0-0_
  6
CONTINUOUS
 62
    7
 10
25.892765733836882
 20
34.084829426005342
 11
65.892765733836882
 21
34.084829426005342
  0
LINE
  8
_0-0_
  6
CONTINUOUS
 62
    7
 10
153.12162890480363
 20
41.084829425982093
 11
153.12162890480363
 21
35.584829425982093
  0
LINE
  8
_0-0_
  6
CONTINUOUS
 62
    7
 10
152.12162890480363
 20
34.584829425982093
 11
138.73820965853452
 21
34.584829425982093
  0
LINE
  8
_0-0_
  6
CONTINUOUS
 62
    7
 10
138.47840203739918
 20
34.434829425982002
 11
137.20823144518204
 21
32.234829425982184
  0
LINE
  8
_0-0_
  6
CONTINUOUS
 62
    7
 10
136.9484238240467
 20
32.084829425982093
 11
134.92162890480358
 21
32.084829425982093
  0
LINE
  8
_0-0_
  6
CONTINUOUS
 62
    7
 10
134.62162890480363
 20
32.38482942598182
 11
134.62162890480363
 21
33.284829425981911
  0
LINE
  8
_0-0_
  6
CONTINUOUS
 62
    7
 10
134.32162890480356
 20
33.584829425982093
 11
130.84589297351556
 21
33.584829425982093
  0
LINE
  8
_0-0_
  6
CONTINUOUS
 62
    7
 10
130.63376093915952
 20
33.496961460337729
 11
129.30949687044756
 21
32.172697391626002
  0
LINE
  8
_0-0_
  6
CONTINUOUS
 62
    7
 10
129.22162890480354
 20
31.960565357270184
 11
129.22162890480354
 21
30.584829425982093
  0
LINE
  8
_0-0_
  6
CONTINUOUS
 62
    7
 10
129.52162890480361
 20
30.284829425981911
 11
131.52162890480361
 21
30.284829425981911
  0
LINE
  8
_0-0_
  6
CONTINUOUS
 62
    7
 10
131.82162890480356
 20
29.984829425982184
 11
131.82162890480356
 21
28.584829425982093
  0
LINE
  8
_0-0_
  6
CONTINUOUS
 62
    7
 10
131.52162890480361
 20
28.284829425981911
 11
128.50703910142852
 21
28.284829425981911
  0
LINE
  8
_0-0_
  6
CONTINUOUS
 62
    7
 10
128.23871094412857
 20
28.450665347332119
 11
126.65330074750364
 21
31.621485740581988
  0
LINE
  8
_0-0_
  6
CONTINUOUS
 62
    7
 10
126.62162890480363
 20
31.755649819231962
 11
126.62162890480363
 21
32.460565357270184
  0
LINE
  8
_0-0_
  6
CONTINUOUS
 62
    7
 10
128.12162890480363
 20
34.209093494694002
 11
128.12162890480363
 21
41.084829425982093
  0
LINE
  8
_0-0_
  6
CONTINUOUS
 62
    7
 10
129.12162890480363
 20
42.084829425982093
 11
131.22162890480354
 21
42.084829425982093
  0
LINE
  8
_0-0_
  6
CONTINUOUS
 62
    7
 10
131.62162890480363
 20
42.084829425982093
 11
148.6216289048034
 21
42.084829425982093
  0
LINE
  8
_0-0_
  6
CONTINUOUS
 62
    7
 10
148.6216289048034
 20
42.084829425982093
 11
148.6216289048034
 21
50.584829425982093
  0
LINE
  8
_0-0_
  6
CONTINUOUS
 62
    7
 10
147.1216289048034
 20
52.084829425982093
 11
133.12162890480363
 21
52.084829425982093
  0
LINE
  8
_0-0_
  6
CONTINUOUS
 62
    7
 10
131.62162890480363
 20
50.584829425982093
 11
131.62162890480363
 21
42.084829425982093
  0
LINE
  8
_0-0_
  6
CONTINUOUS
 62
    7
 10
131.52162890480361
 20
41.784829425981911
 11
131.52162890480361
 21
40.88482942598182
  0
LINE
  8
_0-0_
  6
CONTINUOUS
 62
    7
 10
131.22162890480354
 20
40.584829425982093
 11
130.62162890480363
 21
40.584829425982093
  0
LINE
  8
_0-0_
  6
CONTINUOUS
 62
    7
 10
130.32162890480356
 20
40.284829425981911
 11
130.32162890480356
 21
38.084829425982093
  0
LINE
  8
_0-0_
  6
CONTINUOUS
 62
    7
 10
130.62162890480363
 20
37.784829425981911
 11
131.22162890480354
 21
37.784829425981911
  0
LINE
  8
_0-0_
  6
CONTINUOUS
 62
    7
 10
131.52162890480361
 20
37.484829425982184
 11
131.52162890480361
 21
36.684829425982002
  0
LINE
  8
_0-0_
  6
CONTINUOUS
 62
    7
 10
131.82162890480356
 20
36.38482942598182
 11
134.42162890480358
 21
36.38482942598182
  0
LINE
  8
_0-0_
  6
CONTINUOUS
 62
    7
 10
134.72162890480354
 20
36.684829425982002
 11
134.72162890480354
 21
37.484829425982184
  0
LINE
  8
_0-0_
  6
CONTINUOUS
 62
    7
 10
135.02162890480361
 20
37.784829425981911
 11
135.62162890480363
 21
37.784829425981911
  0
LINE
  8
_0-0_
  6
CONTINUOUS
 62
    7
 10
135.92162890480358
 20
38.084829425982093
 11
135.92162890480358
 21
40.284829425981911
  0
LINE
  8
_0-0_
  6
CONTINUOUS
 62
    7
 10
135.62162890480363
 20
40.584829425982093
 11
135.02162890480361
 21
40.584829425982093
  0
LINE
  8
_0-0_
  6
CONTINUOUS
 62
    7
 10
134.72162890480354
 20
40.88482942598182
 11
134.72162890480354
 21
41.784829425981911
  0
LINE
  8
_0-0_
  6
DASHED3
 62
    7
 10
136.1216289048034
 20
42.084829425982093
 11
136.1216289048034
 21
45.584829425982093
  0
LINE
  8
_0-0_
  6
CONTINUOUS
 62
    7
 10
136.77162899953851
 20
45.584829425982093
 11
136.77162899953851
 21
46.084829425982093
  0
LINE
  8
_0-0_
  6
CONTINUOUS
 62
    7
 10
136.77162899953851
 20
46.084829425982093
 11
144.47162880880364
 21
46.084829425982093
  0
LINE
  8
_0-0_
  6
CONTINUOUS
 62
    7
 10
144.47162880880364
 20
46.084829425982093
 11
144.47162880880364
 21
45.584829425982093
  0
LINE
  8
_0-0_
  6
DASHED3
 62
    7
 10
144.12162890480363
 20
45.584829425982093
 11
144.12162890480363
 21
42.084829425982093
  0
LINE
  8
_0-0_
  6
CONTINUOUS
 62
    7
 10
142.22162890480354
 20
41.784829425981911
 11
142.22162890480354
 21
40.88482942598182
  0
LINE
  8
_0-0_
  6
CONTINUOUS
 62
    7
 10
142.52162890480361
 20
40.584829425982093
 11
143.12162890480363
 21
40.584829425982093
  0
LINE
  8
_0-0_
  6
CONTINUOUS
 62
    7
 10
143.42162890480358
 20
40.284829425981911
 11
143.42162890480358
 21
38.084829425982093
  0
LINE
  8
_0-0_
  6
CONTINUOUS
 62
    7
 10
143.12162890480363
 20
37.784829425981911
 11
142.52162890480361
 21
37.784829425981911
  0
LINE
  8
_0-0_
  6
CONTINUOUS
 62
    7
 10
142.22162890480354
 20
37.484829425982184
 11
142.22162890480354
 21
36.684829425982002
  0
LINE
  8
_0-0_
  6
CONTINUOUS
 62
    7
 10
141.92162890480358
 20
36.38482942598182
 11
139.32162890480356
 21
36.38482942598182
  0
LINE
  8
_0-0_
  6
CONTINUOUS
 62
    7
 10
139.02162890480361
 20
36.684829425982002
 11
139.02162890480361
 21
37.484829425982184
  0
LINE
  8
_0-0_
  6
CONTINUOUS
 62
    7
 10
138.72162890480354
 20
37.784829425981911
 11
138.12162890480363
 21
37.784829425981911
  0
LINE
  8
_0-0_
  6
CONTINUOUS
 62
    7
 10
137.82162890480356
 20
38.084829425982093
 11
137.82162890480356
 21
40.284829425981911
  0
LINE
  8
_0-0_
  6
CONTINUOUS
 62
    7
 10
138.12162890480363
 20
40.584829425982093
 11
138.72162890480354
 21
40.584829425982093
  0
LINE
  8
_0-0_
  6
CONTINUOUS
 62
    7
 10
139.02162890480361
 20
40.88482942598182
 11
139.02162890480361
 21
41.784829425981911
  0
LINE
  8
_0-0_
  6
CONTINUOUS
 62
    7
 10
137.87162890417108
 20
46.084829425982093
 11
137.94575347883233
 21
46.932078218630409
  0
LINE
  8
_0-0_
  6
CONTINUOUS
 62
    7
 10
140.32162889225015
 20
47.862550115755653
 11
140.921628916092
 21
47.862550115755653
  0
LINE
  8
_0-0_
  6
CONTINUOUS
 62
    7
 10
140.921628916092
 20
47.862550115755653
 11
140.921628916092
 21
48.078397846392249
  0
LINE
  8
_0-0_
  6
CONTINUOUS
 62
    7
 10
140.32162889225015
 20
48.078397846392249
 11
140.32162889225015
 21
47.862550115755653
  0
LINE
  8
_0-0_
  6
CONTINUOUS
 62
    7
 10
143.29750432950982
 20
46.932078218630409
 11
143.37162890417108
 21
46.084829425982093
  0
LINE
  8
_0-0_
  6
CONTINUOUS
 62
    7
 10
147.1216289048034
 20
45.584829425982093
 11
133.12162890480363
 21
45.584829425982093
  0
LINE
  8
_0-0_
  6
CONTINUOUS
 62
    7
 10
131.62162890480363
 20
44.584829425982093
 11
129.62162890480363
 21
44.584829425982093
  0
LINE
  8
_0-0_
  6
CONTINUOUS
 62
    7
 10
129.62162890480363
 20
43.584829425982093
 11
129.62162890480363
 21
49.584829425982093
  0
LINE
  8
_0-0_
  6
CONTINUOUS
 62
    7
 10
129.62162890480363
 20
49.584829425982093
 11
131.62162890480363
 21
49.584829425982093
  0
LINE
  8
_0-0_
  6
CONTINUOUS
 62
    7
 10
131.62162890480363
 20
48.584829425982093
 11
129.62162890480363
 21
48.584829425982093
  0
LINE
  8
_0-0_
  6
CONTINUOUS
 62
    7
 10
129.62162890480363
 20
43.584829425982093
 11
131.62162890480363
 21
43.584829425982093
  0
LINE
  8
_0-0_
  6
CONTINUOUS
 62
    7
 10
146.52162890480361
 20
41.784829425981911
 11
146.52162890480361
 21
40.88482942598182
  0
LINE
  8
_0-0_
  6
CONTINUOUS
 62
    7
 10
146.22162890480354
 20
40.584829425982093
 11
145.62162890480363
 21
40.584829425982093
  0
LINE
  8
_0-0_
  6
CONTINUOUS
 62
    7
 10
145.32162890480356
 20
40.284829425981911
 11
145.32162890480356
 21
38.084829425982093
  0
LINE
  8
_0-0_
  6
CONTINUOUS
 62
    7
 10
145.62162890480363
 20
37.784829425981911
 11
146.22162890480354
 21
37.784829425981911
  0
LINE
  8
_0-0_
  6
CONTINUOUS
 62
    7
 10
146.52162890480361
 20
37.484829425982184
 11
146.52162890480361
 21
36.684829425982002
  0
LINE
  8
_0-0_
  6
CONTINUOUS
 62
    7
 10
146.82162890480356
 20
36.38482942598182
 11
149.42162890480358
 21
36.38482942598182
  0
LINE
  8
_0-0_
  6
CONTINUOUS
 62
    7
 10
149.72162890480354
 20
36.684829425982002
 11
149.72162890480354
 21
37.484829425982184
  0
LINE
  8
_0-0_
  6
CONTINUOUS
 62
    7
 10
150.02162890480361
 20
37.784829425981911
 11
150.62162890480363
 21
37.784829425981911
  0
LINE
  8
_0-0_
  6
CONTINUOUS
 62
    7
 10
150.92162890480358
 20
38.084829425982093
 11
150.92162890480358
 21
40.284829425981911
  0
LINE
  8
_0-0_
  6
CONTINUOUS
 62
    7
 10
150.62162890480363
 20
40.584829425982093
 11
150.02162890480361
 21
40.584829425982093
  0
LINE
  8
_0-0_
  6
CONTINUOUS
 62
    7
 10
149.72162890480354
 20
40.88482942598182
 11
149.72162890480354
 21
41.784829425981911
  0
LINE
  8
_0-0_
  6
CONTINUOUS
 62
    7
 10
150.02162890480361
 20
42.084829425982093
 11
152.12162890480363
 21
42.084829425982093
  0
LINE
  8
_0-0_
  6
CONTINUOUS
 62
    7
 10
122.52162915101667
 20
32.084829326805334
 11
123.18770915101709
 21
32.084829326805334
  0
LINE
  8
_0-0_
  6
CONTINUOUS
 62
    7
 10
123.43771915101684
 20
32.017839326805074
 11
124.07163915101705
 21
31.651829326805341
  0
LINE
  8
_0-0_
  6
CONTINUOUS
 62
    7
 10
124.5716191510171
 20
31.651819326805594
 11
125.20567915101697
 21
32.017849326805276
  0
LINE
  8
_0-0_
  6
CONTINUOUS
 62
    7
 10
125.45565915101702
 20
32.084829326805334
 11
126.11260915101707
 21
32.084829326805334
  0
LINE
  8
_0-0_
  6
CONTINUOUS
 62
    7
 10
126.55981915101688
 20
31.808439326805342
 11
128.95981915101697
 21
27.008439326805615
  0
LINE
  8
_0-0_
  6
CONTINUOUS
 62
    7
 10
128.51260915101716
 20
26.284829326805607
 11
122.52162915101667
 21
26.284829326805607
  0
LINE
  8
_0-0_
  6
CONTINUOUS
 62
    7
 10
122.92162915101721
 20
26.284829326805607
 11
123.32162915101685
 21
25.884829326805061
  0
LINE
  8
_0-0_
  6
CONTINUOUS
 62
    7
 10
123.32162915101685
 20
25.884829326805061
 11
125.32162915101685
 21
25.884829326805061
  0
LINE
  8
_0-0_
  6
CONTINUOUS
 62
    7
 10
125.32162915101685
 20
25.884829326805061
 11
125.72162915101694
 21
26.284829326805607
  0
LINE
  8
_0-0_
  6
CONTINUOUS
 62
    7
 10
122.02162915101712
 20
26.784829326805607
 11
122.02162915101712
 21
31.584829326805334
  0
ARC
  8
_0-0_
  6
CONTINUOUS
 62
    7
 10
125.45565915101702
 20
31.584829326805334
 40
0.5
 50
90
 51
119.99737
  0
ARC
  8
_0-0_
  6
CONTINUOUS
 62
    7
 10
123.18770915101709
 20
31.584829326805334
 40
0.5
 50
59.99931000000003
 51
90.000000000000028
  0
ARC
  8
_0-0_
  6
CONTINUOUS
 62
    7
 10
124.32163915101705
 20
32.084839326805081
 40
0.5
 50
239.99931000000001
 51
299.99737599999997
  0
ARC
  8
_0-0_
  6
CONTINUOUS
 62
    7
 10
126.11260915101707
 20
31.584829326805334
 40
0.5
 50
26.565050000000021
 51
90.000000000000057
  0
ARC
  8
_0-0_
  6
CONTINUOUS
 62
    7
 10
122.52162915101667
 20
31.584829326805334
 40
0.5
 50
90
 51
180
  0
ARC
  8
_0-0_
  6
CONTINUOUS
 62
    7
 10
122.52162915101667
 20
26.784829326805607
 40
0.5
 50
180
 51
270
  0
ARC
  8
_0-0_
  6
CONTINUOUS
 62
    7
 10
128.51260915101716
 20
26.784829326805607
 40
0.5
 50
270
 51
26.565050000000021
  0
ARC
  8
_0-0_
  6
CONTINUOUS
 62
    7
 10
152.12162890480363
 20
35.584829425982093
 40
1
 50
270
 51
0
  0
ARC
  8
_0-0_
  6
CONTINUOUS
 62
    7
 10
152.12162890480363
 20
41.084829425982093
 40
1
 50
0.0000000000000127
 51
90
  0
ARC
  8
_0-0_
  6
CONTINUOUS
 62
    7
 10
150.02162890480361
 20
41.784829425981911
 40
0.2999999999999999
 50
90
 51
180
  0
ARC
  8
_0-0_
  6
CONTINUOUS
 62
    7
 10
150.02162890480361
 20
40.88482942598182
 40
0.2999999999999999
 50
180
 51
270
  0
ARC
  8
_0-0_
  6
CONTINUOUS
 62
    7
 10
150.62162890480363
 20
40.284829425981911
 40
0.2999999999999999
 50
0
 51
90
  0
ARC
  8
_0-0_
  6
CONTINUOUS
 62
    7
 10
150.62162890480363
 20
38.084829425982093
 40
0.2999999999999999
 50
270
 51
0
  0
ARC
  8
_0-0_
  6
CONTINUOUS
 62
    7
 10
150.02162890480361
 20
37.484829425982184
 40
0.2999999999999999
 50
90
 51
180
  0
ARC
  8
_0-0_
  6
CONTINUOUS
 62
    7
 10
149.42162890480358
 20
36.684829425982002
 40
0.2999999999999999
 50
270
 51
0
  0
ARC
  8
_0-0_
  6
CONTINUOUS
 62
    7
 10
146.22162890480354
 20
41.784829425981911
 40
0.2999999999999999
 50
0
 51
90
  0
ARC
  8
_0-0_
  6
CONTINUOUS
 62
    7
 10
146.22162890480354
 20
40.88482942598182
 40
0.2999999999999999
 50
270
 51
0
  0
ARC
  8
_0-0_
  6
CONTINUOUS
 62
    7
 10
145.62162890480363
 20
40.284829425981911
 40
0.2999999999999999
 50
90
 51
180
  0
ARC
  8
_0-0_
  6
CONTINUOUS
 62
    7
 10
145.62162890480363
 20
38.084829425982093
 40
0.2999999999999999
 50
180
 51
270
  0
ARC
  8
_0-0_
  6
CONTINUOUS
 62
    7
 10
146.22162890480354
 20
37.484829425982184
 40
0.2999999999999999
 50
0
 51
90
  0
ARC
  8
_0-0_
  6
CONTINUOUS
 62
    7
 10
146.82162890480356
 20
36.684829425982002
 40
0.2999999999999999
 50
180
 51
270
  0
ARC
  8
_0-0_
  6
CONTINUOUS
 62
    7
 10
142.52162890480361
 20
41.784829425981911
 40
0.2999999999999999
 50
90
 51
180
  0
ARC
  8
_0-0_
  6
CONTINUOUS
 62
    7
 10
142.52162890480361
 20
40.88482942598182
 40
0.2999999999999999
 50
180
 51
270
  0
ARC
  8
_0-0_
  6
CONTINUOUS
 62
    7
 10
143.12162890480363
 20
40.284829425981911
 40
0.2999999999999999
 50
0
 51
90
  0
ARC
  8
_0-0_
  6
CONTINUOUS
 62
    7
 10
143.12162890480363
 20
38.084829425982093
 40
0.2999999999999999
 50
270
 51
0
  0
ARC
  8
_0-0_
  6
CONTINUOUS
 62
    7
 10
142.52162890480361
 20
37.484829425982184
 40
0.2999999999999999
 50
90
 51
180
  0
ARC
  8
_0-0_
  6
CONTINUOUS
 62
    7
 10
141.92162890480358
 20
36.684829425982002
 40
0.2999999999999999
 50
270
 51
0
  0
ARC
  8
_0-0_
  6
CONTINUOUS
 62
    7
 10
138.72162890480354
 20
41.784829425981911
 40
0.2999999999999999
 50
0
 51
90
  0
ARC
  8
_0-0_
  6
CONTINUOUS
 62
    7
 10
138.72162890480354
 20
40.88482942598182
 40
0.2999999999999999
 50
270
 51
0
  0
ARC
  8
_0-0_
  6
CONTINUOUS
 62
    7
 10
138.12162890480363
 20
40.284829425981911
 40
0.2999999999999999
 50
90
 51
180
  0
ARC
  8
_0-0_
  6
CONTINUOUS
 62
    7
 10
138.12162890480363
 20
38.084829425982093
 40
0.2999999999999999
 50
180
 51
270
  0
ARC
  8
_0-0_
  6
CONTINUOUS
 62
    7
 10
138.72162890480354
 20
37.484829425982184
 40
0.2999999999999999
 50
0
 51
90
  0
ARC
  8
_0-0_
  6
CONTINUOUS
 62
    7
 10
139.32162890480356
 20
36.684829425982002
 40
0.2999999999999999
 50
180
 51
270
  0
ARC
  8
_0-0_
  6
CONTINUOUS
 62
    7
 10
135.02162890480361
 20
41.784829425981911
 40
0.2999999999999999
 50
90
 51
180
  0
ARC
  8
_0-0_
  6
CONTINUOUS
 62
    7
 10
135.02162890480361
 20
40.88482942598182
 40
0.2999999999999999
 50
180
 51
270
  0
ARC
  8
_0-0_
  6
CONTINUOUS
 62
    7
 10
135.62162890480363
 20
40.284829425981911
 40
0.2999999999999999
 50
0
 51
90
  0
ARC
  8
_0-0_
  6
CONTINUOUS
 62
    7
 10
135.62162890480363
 20
38.084829425982093
 40
0.2999999999999999
 50
270
 51
0
  0
ARC
  8
_0-0_
  6
CONTINUOUS
 62
    7
 10
135.02162890480361
 20
37.484829425982184
 40
0.2999999999999999
 50
90
 51
180
  0
ARC
  8
_0-0_
  6
CONTINUOUS
 62
    7
 10
134.42162890480358
 20
36.684829425982002
 40
0.2999999999999999
 50
270
 51
0
  0
ARC
  8
_0-0_
  6
CONTINUOUS
 62
    7
 10
131.22162890480354
 20
41.784829425981911
 40
0.2999999999999999
 50
0
 51
90
  0
ARC
  8
_0-0_
  6
CONTINUOUS
 62
    7
 10
131.22162890480354
 20
40.88482942598182
 40
0.2999999999999999
 50
270
 51
0
  0
ARC
  8
_0-0_
  6
CONTINUOUS
 62
    7
 10
130.62162890480363
 20
40.284829425981911
 40
0.2999999999999999
 50
90
 51
180
  0
ARC
  8
_0-0_
  6
CONTINUOUS
 62
    7
 10
130.62162890480363
 20
38.084829425982093
 40
0.2999999999999999
 50
180
 51
270
  0
ARC
  8
_0-0_
  6
CONTINUOUS
 62
    7
 10
131.22162890480354
 20
37.484829425982184
 40
0.2999999999999999
 50
0
 51
90
  0
ARC
  8
_0-0_
  6
CONTINUOUS
 62
    7
 10
131.82162890480356
 20
36.684829425982002
 40
0.2999999999999999
 50
180
 51
270
  0
ARC
  8
_0-0_
  6
CONTINUOUS
 62
    7
 10
129.12162890480363
 20
41.084829425982093
 40
1
 50
90
 51
180
  0
ARC
  8
_0-0_
  6
CONTINUOUS
 62
    7
 10
126.92162890480358
 20
31.755649819231962
 40
0.2999999999999999
 50
180.00000000000006
 51
206.56505117707803
  0
ARC
  8
_0-0_
  6
CONTINUOUS
 62
    7
 10
128.50703910142852
 20
28.584829425982093
 40
0.2999999999999999
 50
206.565051177078
 51
270
  0
ARC
  8
_0-0_
  6
CONTINUOUS
 62
    7
 10
131.52162890480361
 20
28.584829425982093
 40
0.2999999999999999
 50
270
 51
0
  0
ARC
  8
_0-0_
  6
CONTINUOUS
 62
    7
 10
131.52162890480361
 20
29.984829425982184
 40
0.2999999999999999
 50
0.0000000000000127
 51
90
  0
ARC
  8
_0-0_
  6
CONTINUOUS
 62
    7
 10
129.52162890480361
 20
30.584829425982093
 40
0.2999999999999999
 50
180
 51
270
  0
ARC
  8
_0-0_
  6
CONTINUOUS
 62
    7
 10
129.52162890480361
 20
31.960565357270184
 40
0.2999999999999999
 50
135
 51
180
  0
ARC
  8
_0-0_
  6
CONTINUOUS
 62
    7
 10
130.84589297351556
 20
33.284829425981911
 40
0.2999999999999999
 50
90.000000000000028
 51
135.00000000000006
  0
ARC
  8
_0-0_
  6
CONTINUOUS
 62
    7
 10
134.32162890480356
 20
33.284829425981911
 40
0.2999999999999999
 50
0
 51
90
  0
ARC
  8
_0-0_
  6
CONTINUOUS
 62
    7
 10
134.92162890480358
 20
32.38482942598182
 40
0.2999999999999999
 50
180
 51
270
  0
ARC
  8
_0-0_
  6
CONTINUOUS
 62
    7
 10
136.9484238240467
 20
32.38482942598182
 40
0.2999999999999999
 50
270
 51
330.00000000000006
  0
ARC
  8
_0-0_
  6
CONTINUOUS
 62
    7
 10
138.73820965853452
 20
34.284829425981911
 40
0.2999999999999999
 50
90.000000000000028
 51
150.00000000000003
  0
ARC
  8
_0-0_
  6
CONTINUOUS
 62
    7
 10
147.1216289048034
 20
44.084829425982093
 40
1.5
 50
0
 51
90
  0
ARC
  8
_0-0_
  6
CONTINUOUS
 62
    7
 10
133.12162890480363
 20
44.084829425982093
 40
1.5
 50
90
 51
180
  0
ARC
  8
_0-0_
  6
CONTINUOUS
 62
    7
 10
147.1216289048034
 20
50.584829425982093
 40
1.5
 50
0
 51
90
  0
ARC
  8
_0-0_
  6
CONTINUOUS
 62
    7
 10
133.12162890480363
 20
50.584829425982093
 40
1.5
 50
90
 51
180
  0
ARC
  8
_0-0_
  6
CONTINUOUS
 62
    7
 10
138.94194831830987
 20
46.844922518900489
 40
1
 50
106.25701904296875
 51
175
  0
ARC
  8
_0-0_
  6
CONTINUOUS
 62
    7
 10
142.30130949003228
 20
46.844922518900489
 40
1
 50
4.9999847412109482
 51
73.742965698242187
  0
ARC
  8
_0-0_
  6
CONTINUOUS
 62
    7
 10
140.62162890417108
 20
41.084829425982093
 40
7
 50
73.742965698242187
 51
87.543701171874986
  0
ARC
  8
_0-0_
  6
CONTINUOUS
 62
    7
 10
140.62162890417108
 20
41.084829425982093
 40
7
 50
92.456283569335938
 51
106.25701904296875
  0
ARC
  8
_0-0_
  6
CONTINUOUS
 62
    7
 10
126.92162890480358
 20
32.460565357270184
 40
0.2999999999999999
 50
134.9999999999981
 51
180
  0
LINE
  8
_0-0_
  6
CONTINUOUS
 62
    7
 10
126.70949687044771
 20
32.672697391626059
 11
128.03376093915966
 21
33.9969614603379
  0
ARC
  8
_0-0_
  6
CONTINUOUS
 62
    7
 10
127.82162890480356
 20
34.209093494694002
 40
0.2999999999999999
 50
314.99999999999903
 51
0
  0
LINE
  8
_0-1_
  6
CENTER1
 62
  152
 10
185.4173665015698
 20
127.98427443566629
 11
185.4173665015698
 21
111.32292478709951
  0
LINE
  8
_0-1_
  6
CENTER1
 62
  152
 10
217.44360269928592
 20
111.70406677252413
 11
217.44360269928592
 21
127.98427443566629
  0
LINE
  8
_0-1_
  6
CENTER1
 62
  152
 10
201.4173665015698
 20
127.98427443566629
 11
201.4173665015698
 21
111.32292478709951
  0
LINE
  8
_0-1_
  6
CENTER1
 62
  152
 10
201.4173665015698
 20
153.28637031860148
 11
201.4173665015698
 21
174.51386145128461
  0
LINE
  8
_0-1_
  6
CENTER1
 62
  152
 10
217.4173665015698
 20
174.51386145128461
 11
217.4173665015698
 21
157.51386145128458
  0
LINE
  8
_0-1_
  6
CENTER1
 62
  152
 10
217.44360269928592
 20
157.51386145128458
 11
217.44360269928592
 21
153.28637031860148
  0
LINE
  8
_0-1_
  6
CENTER1
 62
  152
 10
185.4173665015698
 20
153.28637031860148
 11
185.4173665015698
 21
174.51386145128461
  0
LINE
  8
_0-1_
  6
CENTER1
 62
  152
 10
221.4173665015698
 20
166.51386145128461
 11
212.9173665015698
 21
166.51386145128461
  0
LINE
  8
_0-1_
  6
CENTER1
 62
  152
 10
214.1445468867243
 20
166.01386145128461
 11
188.43911887531311
 21
166.01386145128461
  0
LINE
  8
_0-1_
  6
CENTER1
 62
  152
 10
189.9173665015698
 20
166.51386145128461
 11
181.4173665015698
 21
166.51386145128461
  0
LINE
  8
_0-1_
  6
CENTER1
 62
  152
 10
289.20069983270076
 20
119.29287594660582
 11
253.88104776559129
 21
119.29287594660582
  0
LINE
  8
_0-1_
  6
CENTER1
 62
  152
 10
255.88707475631423
 20
177.5346082882796
 11
299.83549168743008
 21
177.5346082882796
  0
LINE
  8
_0-1_
  6
CENTER1
 62
  152
 10
267.38707475631423
 20
186.192473569252
 11
267.38707475631423
 21
165.34828790297129
  0
LINE
  8
_0-1_
  6
CONTINUOUS
 62
  152
 10
65.892765733836882
 20
89.654260045982085
 11
56.892765733836882
 21
89.654260045982085
  0
LINE
  8
_0-1_
  6
CENTER1
 62
  152
 10
61.892765733836882
 20
89.754260045982051
 11
61.892765733836882
 21
106.75426004598205
  0
LINE
  8
_0-1_
  6
CONTINUOUS
 62
  152
 10
65.892765733836882
 20
107.85424004598201
 11
25.892765733836882
 21
107.85424004598201
  0
LINE
  8
_0-1_
  6
CENTER1
 62
  152
 10
29.892765733836882
 20
106.75426004598205
 11
29.892765733836882
 21
89.754260045982051
  0
LINE
  8
_0-1_
  6
CONTINUOUS
 62
  152
 10
25.892765733836882
 20
89.654260045982085
 11
34.892765733836882
 21
89.654260045982085
  0
LINE
  8
_0-1_
  6
CENTER1
 62
  152
 10
45.892765733836882
 20
88.781586207365308
 11
45.892765733836882
 21
106.75426004598205
  0
LINE
  8
_0-1_
  6
CENTER2
 62
  152
 10
45.892765733836882
 20
111.2542400459821
 11
45.892765733836882
 21
86.254240045982101
  0
LINE
  8
_0-1_
  6
CENTER1
 62
  152
 10
45.892765733836882
 20
98.254260045982051
 11
25.892765733836882
 21
98.254260045982051
  0
LINE
  8
_0-1_
  6
CENTER1
 62
  152
 10
45.892765733836882
 20
98.754260045982051
 11
65.892765733836882
 21
98.754260045982051
  0
LINE
  8
_0-1_
  6
CENTER1
 62
  152
 10
29.892765733836882
 20
55.276227915042568
 11
29.892765733836882
 21
38.614878266475785
  0
LINE
  8
_0-1_
  6
CENTER1
 62
  152
 10
61.919001931552998
 20
38.996020251900404
 11
61.919001931552998
 21
55.276227915042568
  0
LINE
  8
_0-1_
  6
CENTER1
 62
  152
 10
45.892765733836882
 20
55.276227915042568
 11
45.892765733836882
 21
38.614878266475785
  0
LINE
  8
_0-1_
  6
CONTINUOUS
 62
  152
 10
58.069002026287876
 20
45.584829425982093
 11
58.069002026287876
 21
46.084829425982093
  0
LINE
  8
_0-1_
  6
CONTINUOUS
 62
  152
 10
58.069002026287876
 20
46.084829425982093
 11
65.769001835553013
 21
46.084829425982093
  0
LINE
  8
_0-1_
  6
CONTINUOUS
 62
  152
 10
65.769001835553013
 20
46.084829425982093
 11
65.769001835553013
 21
45.584829425982093
  0
LINE
  8
_0-1_
  6
CONTINUOUS
 62
  152
 10
59.169001930920444
 20
46.084829425982093
 11
59.243126505581699
 21
46.932078218630409
  0
LINE
  8
_0-1_
  6
CONTINUOUS
 62
  152
 10
61.619001918999516
 20
47.862550115755653
 11
62.219001942841373
 21
47.862550115755653
  0
LINE
  8
_0-1_
  6
CONTINUOUS
 62
  152
 10
62.219001942841373
 20
47.862550115755653
 11
62.219001942841373
 21
48.078397846392249
  0
LINE
  8
_0-1_
  6
CONTINUOUS
 62
  152
 10
61.619001918999516
 20
48.078397846392249
 11
61.619001918999516
 21
47.862550115755653
  0
LINE
  8
_0-1_
  6
CONTINUOUS
 62
  152
 10
64.59487735625919
 20
46.932078218630409
 11
64.669001930920444
 21
46.084829425982093
  0
ARC
  8
_0-1_
  6
CONTINUOUS
 62
  152
 10
60.239321345059238
 20
46.844922518900489
 40
1
 50
106.25701904296875
 51
175
  0
ARC
  8
_0-1_
  6
CONTINUOUS
 62
  152
 10
63.598682516781651
 20
46.844922518900489
 40
1
 50
4.9999847412109482
 51
73.742965698242187
  0
ARC
  8
_0-1_
  6
CONTINUOUS
 62
  152
 10
61.919001930920444
 20
41.084829425981638
 40
7
 50
73.742965698242187
 51
87.543701171874972
  0
ARC
  8
_0-1_
  6
CONTINUOUS
 62
  152
 10
61.919001930920444
 20
41.084829425981638
 40
7
 50
92.456283569335938
 51
106.25701904296875
  0
LINE
  8
_0-1_
  6
CONTINUOUS
 62
  152
 10
26.04276582857176
 20
45.584829425982093
 11
26.04276582857176
 21
46.084829425982093
  0
LINE
  8
_0-1_
  6
CONTINUOUS
 62
  152
 10
26.04276582857176
 20
46.084829425982093
 11
33.742765637836897
 21
46.084829425982093
  0
LINE
  8
_0-1_
  6
CONTINUOUS
 62
  152
 10
33.742765637836897
 20
46.084829425982093
 11
33.742765637836897
 21
45.584829425982093
  0
LINE
  8
_0-1_
  6
CONTINUOUS
 62
  152
 10
27.142765733204328
 20
46.084829425982093
 11
27.216890307865583
 21
46.932078218630409
  0
LINE
  8
_0-1_
  6
CONTINUOUS
 62
  152
 10
29.592765721283399
 20
47.862550115755653
 11
30.192765745125257
 21
47.862550115755653
  0
LINE
  8
_0-1_
  6
CONTINUOUS
 62
  152
 10
30.192765745125257
 20
47.862550115755653
 11
30.192765745125257
 21
48.078397846392249
  0
LINE
  8
_0-1_
  6
CONTINUOUS
 62
  152
 10
29.592765721283399
 20
48.078397846392249
 11
29.592765721283399
 21
47.862550115755653
  0
LINE
  8
_0-1_
  6
CONTINUOUS
 62
  152
 10
32.568641158543073
 20
46.932078218630409
 11
32.642765733204328
 21
46.084829425982093
  0
ARC
  8
_0-1_
  6
CONTINUOUS
 62
  152
 10
28.213085147343122
 20
46.844922518900489
 40
1
 50
106.25701904296875
 51
175
  0
ARC
  8
_0-1_
  6
CONTINUOUS
 62
  152
 10
31.572446319065534
 20
46.844922518900489
 40
1
 50
4.9999847412109482
 51
73.742965698242187
  0
ARC
  8
_0-1_
  6
CONTINUOUS
 62
  152
 10
29.892765733204328
 20
41.084829425981638
 40
7
 50
73.742965698242187
 51
87.543701171874972
  0
ARC
  8
_0-1_
  6
CONTINUOUS
 62
  152
 10
29.892765733204328
 20
41.084829425981638
 40
7
 50
92.456283569335938
 51
106.25701904296875
  0
LINE
  8
_0-1_
  6
CONTINUOUS
 62
  152
 10
26.04276582857176
 20
45.584829425982093
 11
33.742765637836897
 21
45.584829425982093
  0
LINE
  8
_0-1_
  6
CONTINUOUS
 62
  152
 10
58.069002026287876
 20
45.584829425982093
 11
65.769001835553013
 21
45.584829425982093
  0
LINE
  8
_0-8_
  6
CONTINUOUS
 62
  152
 10
25.892765733836882
 20
26.284829326805607
 11
65.892765733836882
 21
26.284829326805607
  0
LINE
  8
_0-1_
  6
CONTINUOUS
 62
  152
 10
25.892765733836882
 20
32.084829326805334
 11
65.892765733836882
 21
32.084829326805334
  0
LINE
  8
_0-1_
  6
CONTINUOUS
 62
  152
 10
45.892765733836882
 20
32.084829326805334
 11
45.892765733836882
 21
26.284829326805607
  0
LINE
  8
_0-1_
  6
CONTINUOUS
 62
  152
 10
54.892765733836882
 20
26.284829326805607
 11
54.892765733836882
 21
25.884829326805061
  0
LINE
  8
_0-1_
  6
CONTINUOUS
 62
  152
 10
56.892765733836882
 20
25.884829326805061
 11
56.892765733836882
 21
26.284829326805607
  0
LINE
  8
_0-1_
  6
CONTINUOUS
 62
  152
 10
34.892765733836882
 20
26.284829326805607
 11
34.892765733836882
 21
25.884829326805061
  0
LINE
  8
_0-1_
  6
CONTINUOUS
 62
  152
 10
36.892765733836882
 20
25.884829326805061
 11
36.892765733836882
 21
26.284829326805607
  0
LINE
  8
_0-1_
  6
CENTER1
 62
  152
 10
35.892765733836882
 20
33.091595488101575
 11
35.892765733836882
 21
24.947615788120515
  0
LINE
  8
_0-1_
  6
CENTER1
 62
  152
 10
55.892765733836882
 20
32.907161468666914
 11
55.892765733836882
 21
25.029694795335445
  0
LINE
  8
_0-1_
  6
CENTER1
 62
  152
 10
140.62162890480363
 20
42.084829425982093
 11
140.62162890480363
 21
36.38482942598182
  0
LINE
  8
_0-1_
  6
CENTER1
 62
  152
 10
148.12162890480363
 20
36.38482942598182
 11
148.12162890480363
 21
42.084829425982093
  0
LINE
  8
_0-1_
  6
CENTER1
 62
  152
 10
133.12162890480363
 20
42.084829425982093
 11
133.12162890480363
 21
36.358827351674222
  0
LINE
  8
_0-1_
  6
CONTINUOUS
 62
  152
 10
125.32162915101685
 20
26.284829326805607
 11
125.32162915101685
 21
25.884829326805061
  0
LINE
  8
_0-1_
  6
CONTINUOUS
 62
  152
 10
123.32162915101685
 20
25.884829326805061
 11
123.32162915101685
 21
26.284829326805607
  0
LINE
  8
_0-1_
  6
CENTER2
 62
  152
 10
125.62161915101683
 20
23.834819326805587
 11
125.62161915101683
 21
15.334829326805334
  0
LINE
  8
_0-1_
  6
CENTER2
 62
  152
 10
121.37163915101723
 20
19.584829326805334
 11
129.87162915101703
 21
19.584829326805334
  0
LINE
  8
_0-2_
  6
PHANTOM1
 62
  152
 10
113.12161915101683
 20
7.0848293268053339
 11
138.12161915101683
 21
7.0848293268053339
  0
LINE
  8
_0-2_
  6
PHANTOM1
 62
  152
 10
138.12161915101683
 20
7.0848293268053339
 11
138.12161915101683
 21
32.084829326805334
  0
LINE
  8
_0-2_
  6
PHANTOM1
 62
  152
 10
138.12161915101683
 20
32.084829326805334
 11
113.12161915101683
 21
32.084829326805334
  0
LINE
  8
_0-2_
  6
PHANTOM1
 62
  152
 10
113.12161915101683
 20
32.084829326805334
 11
113.12161915101683
 21
7.0848293268053339
  0
LINE
  8
_0-2_
  6
PHANTOM1
 62
  152
 10
12.191872233170102
 20
35.859581164640247
 11
20.782560579831397
 21
3.79869578291067
  0
LINE
  8
_0-2_
  6
PHANTOM1
 62
  152
 10
72.983753675041839
 20
35.011322353823459
 11
81.874670223867042
 21
1.8299700677526971
  0
LINE
  8
_0-2_
  6
PHANTOM1
 62
  152
 10
19.902043750523944
 20
7.0848293268053339
 11
80.466634929064753
 21
7.0848293268053339
  0
LINE
  8
_0-2_
  6
PHANTOM1
 62
  152
 10
19.902043750523944
 20
71.25425029680531
 11
80.466634929064753
 21
71.25425029680531
  0
LINE
  8
_0-2_
  6
PHANTOM1
 62
  152
 10
12.191872233170102
 20
100.02900213464022
 11
20.782560579831397
 21
67.968116752910646
  0
LINE
  8
_0-2_
  6
PHANTOM1
 62
  152
 10
72.983753675041839
 20
99.180743323823435
 11
81.874670223867042
 21
65.999391037752673
  0
LINE
  8
_0-2_
  6
PHANTOM1
 62
  152
 10
13.20331393974584
 20
96.25425029680531
 11
25.892765733836882
 21
96.25425029680531
  0
LINE
  8
_0-2_
  6
PHANTOM1
 62
  152
 10
65.892765733836882
 20
96.25425029680531
 11
73.767905118286649
 21
96.25425029680531
  0
LINE
  8
_0-2_
  6
PHANTOM1
 62
  152
 10
13.20331393974584
 20
32.084829326805334
 11
25.892765733836882
 21
32.084829326805334
  0
LINE
  8
_0-2_
  6
PHANTOM1
 62
  152
 10
65.892765733836882
 20
32.084829326805334
 11
73.767905118286649
 21
32.084829326805334
  0
TEXT
  8
_0-2_
 62
    7
 10
16.135267972174461
 20
118.52142242200432
 40
4.2999999999999998
 41
0.744186046511628
 50
0
  1
MD25-S
  0
TEXT
  8
_0-2_
 62
    7
 10
178.10786048770859
 20
181.195317172985
 40
4.2999999999999998
 41
0.744186046511628
 50
0
  1
MD25-N
  0
ENDSEC
  0
EOF
