  0
SECTION
  2
HEADER
  9
$ACADVER
  1
AC1009
  9
$INSBASE
 10
0
 20
0
 30
0
  9
$EXTMIN
 10
0
 20
0
  9
$EXTMAX
 10
1189
 20
841
  9
$LIMMIN
 10
0
 20
0
  9
$LIMMAX
 10
1189
 20
841
  9
$LTSCALE
 40
1
  0
ENDSEC
  0
SECTION
  2
TABLES
  0
TABLE
  2
LTYPE
 70
     9
  0
LTYPE
  2
CONTINUOUS
 70
    64
  3
実線
 72
    65
 73
     0
 40
0.0
  0
LTYPE
  2
DASHED1
 70
    64
  3
--  --  --  --  --  --  --  --  
 72
    65
 73
     2
 40
2.5
 49
1.25
 49
-1.25
  0
LTYPE
  2
DASHED2
 70
    64
  3
----    ----    ----    ----    
 72
    65
 73
     2
 40
5.0
 49
2.5
 49
-2.5
  0
LTYPE
  2
DASHED3
 70
    64
  3
------  ------  ------  ------  
 72
    65
 73
     2
 40
5.0
 49
3.75
 49
-1.25
  0
LTYPE
  2
CENTER1
 70
    64
  3
----- - ----- - ----- - ----- - 
 72
    65
 73
     4
 40
10.0
 49
6.25
 49
-1.25
 49
1.25
 49
-1.25
  0
LTYPE
  2
CENTER2
 70
    64
  3
----------  --  ----------  --  
 72
    65
 73
     4
 40
20.0
 49
12.5
 49
-2.5
 49
2.5
 49
-2.5
  0
LTYPE
  2
PHANTOM1
 70
    64
  3
--- - - --- - - --- - - --- - - 
 72
    65
 73
     6
 40
10.0
 49
3.25
 49
-1.25
 49
1.25
 49
-1.25
 49
1.25
 49
-1.25
  0
LTYPE
  2
PHANTOM2
 70
    64
  3
--------  -  -  --------  -  -  
 72
    65
 73
     6
 40
20.0
 49
10.0
 49
-2.5
 49
1.25
 49
-2.5
 49
1.25
 49
-2.5
  0
LTYPE
  2
DOT
 70
    64
  3
-   -   -   -   -   -   -   -   
 72
    65
 73
     2
 40
2.5
 49
0.625
 49
-1.875
  0
LTYPE
  2
DUMMY
 70
    64
  3
ダミー
 72
    65
 73
     0
 40
0.0
  0
LTYPE
  2
RAND1
 70
    64
  3
ランダム線1
 72
    65
 73
     4
 40
10.0
 49
1.0
 49
-2.0
 49
3.0
 49
-4.0
  0
LTYPE
  2
RAND2
 70
    64
  3
ランダム線2
 72
    65
 73
     4
 40
14.0
 49
2.0
 49
-3.0
 49
4.0
 49
-5.0
  0
LTYPE
  2
RAND3
 70
    64
  3
ランダム線3
 72
    65
 73
     4
 40
18.0
 49
3.0
 49
-4.0
 49
5.0
 49
-6.0
  0
LTYPE
  2
RAND4
 70
    64
  3
ランダム線4
 72
    65
 73
     4
 40
22.0
 49
4.0
 49
-5.0
 49
6.0
 49
-7.0
  0
LTYPE
  2
RAND5
 70
    64
  3
ランダム線5
 72
    65
 73
     4
 40
26.0
 49
5.0
 49
-6.0
 49
7.0
 49
-8.0
  0
LTYPE
  2
LONG1
 70
    64
  3
----------  --  ----------  --  
 72
    65
 73
     4
 40
40.0
 49
32.5
 49
-2.5
 49
2.5
 49
-2.5
  0
LTYPE
  2
LONG2
 70
    64
  3
--------  -  -  --------  -  -  
 72
    65
 73
     6
 40
40.0
 49
30.0
 49
-2.5
 49
1.25
 49
-2.5
 49
1.25
 49
-2.5
  0
LTYPE
  2
LONG3
 70
    64
  3
+++++++++++++++..+++++++++++++++
 72
    65
 73
     2
 40
40.0
 49
37.5
 49
-2.5
  0
LTYPE
  2
LONG4
 70
    64
  3
+++++++++++++++..+++++++++++++++
 72
    65
 73
     2
 40
80.0
 49
75.0
 49
-5.0
  0
LTYPE
  2
LONG5
 70
    64
  3
----------  --  ----------  --  
 72
    65
 73
     4
 40
60.0
 49
37.5
 49
-7.5
 49
7.5
 49
-7.5
  0
LTYPE
  2
dashed
 70
   64
  3
-------   -------------   ------
 72
   65
 73
    2
 40
7.5
 49
6
 49
-1.5
  0
LTYPE
  2
dashed_spaced
 70
   64
  3
----        --------        ----
 72
   65
 73
    2
 40
12
 49
6
 49
-6
  0
LTYPE
  2
long_dashed_dotted
 70
   64
  3
------------- --- --------------
 72
   65
 73
    4
 40
15.25
 49
12
 49
-1.5
 49
0.25
 49
-1.5
  0
LTYPE
  2
long_dashed_double-dotted
 70
   64
  3
----------- --- --- ------------
 72
   65
 73
    6
 40
17
 49
12
 49
-1.5
 49
0.25
 49
-1.5
 49
0.25
 49
-1.5
  0
LTYPE
  2
long_dashed_triplicate-dotted
 70
   64
  3
--------- --- --- --- ----------
 72
   65
 73
    8
 40
18.75
 49
12
 49
-1.5
 49
0.25
 49
-1.5
 49
0.25
 49
-1.5
 49
0.25
 49
-1.5
  0
LTYPE
  2
dotted
 70
   64
  3
   -       -       -       -    
 72
   65
 73
    2
 40
1.75
 49
0.25
 49
-1.5
  0
LTYPE
  2
chain
 70
   64
  3
-------------- -- --------------
 72
   65
 73
    4
 40
18.5
 49
12
 49
-1.5
 49
3.5
 49
-1.5
  0
LTYPE
  2
chain_double_dash
 70
   64
  3
------------ -- -- -------------
 72
   65
 73
    6
 40
23.5
 49
12
 49
-1.5
 49
3.5
 49
-1.5
 49
3.5
 49
-1.5
  0
LTYPE
  2
dashed_dotted
 70
   64
  3
-----------     -     ----------
 72
   65
 73
    4
 40
9.25
 49
6
 49
-1.5
 49
0.25
 49
-1.5
  0
LTYPE
  2
double-dashed_dotted
 70
   64
  3
------   -----------   -   -----
 72
   65
 73
    6
 40
16.75
 49
6
 49
-1.5
 49
6
 49
-1.5
 49
0.25
 49
-1.5
  0
LTYPE
  2
dashed_double-dotted
 70
   64
  3
---------    -    -    ---------
 72
   65
 73
    6
 40
11
 49
6
 49
-1.5
 49
0.25
 49
-1.5
 49
0.25
 49
-1.5
  0
LTYPE
  2
double-dashed_double-dotted
 70
   64
  3
-----   ---------   -   -   ----
 72
   65
 73
    8
 40
18.5
 49
6
 49
-1.5
 49
6
 49
-1.5
 49
0.25
 49
-1.5
 49
0.25
 49
-1.5
  0
LTYPE
  2
dashed_triplicate-dotted
 70
   64
  3
-------    -    -    -    ------
 72
   65
 73
    8
 40
12.75
 49
6
 49
-1.5
 49
0.25
 49
-1.5
 49
0.25
 49
-1.5
 49
0.25
 49
-1.5
  0
LTYPE
  2
double-dashed_triplicate-dotted
 70
   64
  3
-----  ---------  -  -  -  -----
 72
   65
 73
   10
 40
20.25
 49
6
 49
-1.5
 49
6
 49
-1.5
 49
0.25
 49
-1.5
 49
0.25
 49
-1.5
 49
0.25
 49
-1.5
  0
LTYPE
  2
undefined
 70
   64
  3
--------------------------------
 72
   65
 73
    0
 40
0
  0
ENDTAB
  0
TABLE
  2
STYLE
  5
3
100
AcDbSymbolTable
 70
     1
  0
STYLE
  5
10
100
AcDbSymbolTableRecord
100
AcDbTextStyleTableRecord
  2
STANDARD
 70
     0
 40
0.0
 41
1.0
 50
0.0
 71
     0
 42
0.2
  3
txt
  4
bigfont.shx
  0
STYLE
  5
26
100
AcDbSymbolTableRecord
100
AcDbTextStyleTableRecord
  2
TATEGAKI
 70
    68
 40
0.0
 41
1.0
 50
0.0
 71
     0
 42
1.0
  3
txt
  4
bigfont.shx
  0
ENDTAB
  0
TABLE
  2
LAYER
 70
    3
  0
LAYER
  2
_0-0_
 70
   64
 62
    7
  6
CONTINUOUS
  0
LAYER
  2
_0-1_
 70
   64
 62
    7
  6
CONTINUOUS
  0
LAYER
  2
ADD_LINE
 70
   64
 62
    7
  6
CONTINUOUS
  0
ENDTAB
  0
ENDSEC
  0
SECTION
  2
BLOCKS
  0
ENDSEC
  0
SECTION
  2
ENTITIES
  0
ARC
  8
_0-0_
  6
CONTINUOUS
 62
    7
 10
203.33298591162071
 20
105.6783537828976
 40
0.5
 50
180
 51
270
  0
ARC
  8
_0-0_
  6
CONTINUOUS
 62
    7
 10
203.33298591162071
 20
107.6783537828976
 40
0.5
 50
180
 51
270
  0
ARC
  8
_0-0_
  6
CONTINUOUS
 62
    7
 10
213.83298591162117
 20
101.6783537828976
 40
0.5
 50
180
 51
270
  0
ARC
  8
_0-0_
  6
CONTINUOUS
 62
    7
 10
241.83298591162117
 20
101.6783537828976
 40
0.5
 50
270
 51
0
  0
ARC
  8
_0-0_
  6
CONTINUOUS
 62
    7
 10
252.33298591162117
 20
121.6783537828976
 40
0.5
 50
0
 51
90
  0
ARC
  8
_0-0_
  6
CONTINUOUS
 62
    7
 10
203.33298591162117
 20
121.6783537828976
 40
0.5
 50
90
 51
180
  0
ARC
  8
_0-0_
  6
CONTINUOUS
 62
    7
 10
213.83298591162117
 20
121.6783537828976
 40
0.5
 50
90
 51
180
  0
ARC
  8
_0-0_
  6
CONTINUOUS
 62
    7
 10
241.83298591162117
 20
121.6783537828976
 40
0.5
 50
0
 51
90
  0
ARC
  8
_0-0_
  6
CONTINUOUS
 62
    7
 10
252.33298591162117
 20
105.6783537828976
 40
0.5
 50
270
 51
0
  0
ARC
  8
_0-0_
  6
CONTINUOUS
 62
    7
 10
252.33298591162117
 20
107.6783537828976
 40
0.5
 50
270
 51
0
  0
ARC
  8
_0-0_
  6
CONTINUOUS
 62
    7
 10
243.33298591162117
 20
104.1783537828976
 40
1
 50
90
 51
180
  0
ARC
  8
_0-0_
  6
CONTINUOUS
 62
    7
 10
212.33298591162117
 20
104.1783537828976
 40
1
 50
0
 51
90
  0
ARC
  8
_0-0_
  6
CONTINUOUS
 62
    7
 10
211.33298591162117
 20
109.1783537828976
 40
2
 50
270
 51
0
  0
ARC
  8
_0-0_
  6
CONTINUOUS
 62
    7
 10
244.33298591162071
 20
109.1783537828976
 40
2
 50
180
 51
270
  0
ARC
  8
_0-0_
  6
CONTINUOUS
 62
    7
 10
298.37261502688767
 20
66.078847671453559
 40
0.5
 50
90
 51
180
  0
ARC
  8
_0-0_
  6
CONTINUOUS
 62
    7
 10
295.37261502688767
 20
66.078847671453559
 40
0.5
 50
0
 51
90
  0
ARC
  8
_0-0_
  6
CONTINUOUS
 62
    7
 10
292.37261502688767
 20
54.078847671453559
 40
0.5
 50
180
 51
270
  0
ARC
  8
_0-0_
  6
CONTINUOUS
 62
    7
 10
292.37261502688767
 20
66.078847671453559
 40
0.5
 50
90
 51
180
  0
ARC
  8
_0-0_
  6
CONTINUOUS
 62
    7
 10
312.37261502688767
 20
66.078847671453559
 40
0.5
 50
0
 51
90
  0
ARC
  8
_0-0_
  6
CONTINUOUS
 62
    7
 10
298.37261502688767
 20
57.078847671453559
 40
0.5
 50
180
 51
270
  0
CIRCLE
  8
_0-0_
  6
CONTINUOUS
 62
    7
 10
304.48691004377366
 20
106.55845430560407
 40
3.25
  0
CIRCLE
  8
_0-0_
  6
CONTINUOUS
 62
    7
 10
304.48691004377366
 20
106.55845430560407
 40
1.7000000476837158
  0
ARC
  8
_0-0_
  6
CONTINUOUS
 62
    7
 10
213.83298591162117
 20
66.078847671453559
 40
0.5
 50
90
 51
138.81407483428791
  0
ARC
  8
_0-0_
  6
CONTINUOUS
 62
    7
 10
203.33298591162117
 20
56.078847671453559
 40
0.5
 50
90
 51
138.81407483429649
  0
ARC
  8
_0-0_
  6
CONTINUOUS
 62
    7
 10
252.33298591162071
 20
56.078847671453559
 40
0.5
 50
0
 51
41.185925165710493
  0
ARC
  8
_0-0_
  6
CONTINUOUS
 62
    7
 10
241.83298591162117
 20
66.078847671453559
 40
0.5
 50
0
 51
41.185925165709953
  0
ARC
  8
_0-0_
  6
CONTINUOUS
 62
    7
 10
203.33298591162117
 20
56.078847671453559
 40
0.5000000000001396
 50
138.81407483429652
 51
180.00000000000009
  0
ARC
  8
_0-0_
  6
CONTINUOUS
 62
    7
 10
252.33298591162071
 20
56.078847671453559
 40
0.5000000000000701
 50
41.185925165710493
 51
90
  0
ARC
  8
_0-0_
  6
CONTINUOUS
 62
    7
 10
213.83298591162117
 20
66.078847671453559
 40
0.500000000000054
 50
138.81407483428791
 51
180
  0
ARC
  8
_0-0_
  6
CONTINUOUS
 62
    7
 10
241.83298591162117
 20
66.078847671453559
 40
0.5000000000000757
 50
41.185925165709953
 51
90
  0
ARC
  8
_0-0_
  6
CONTINUOUS
 62
    7
 10
241.83298591162117
 20
54.078847671453559
 40
0.5
 50
270
 51
0
  0
ARC
  8
_0-0_
  6
CONTINUOUS
 62
    7
 10
213.83298591162117
 20
54.078847671453559
 40
0.5
 50
180
 51
270
  0
ARC
  8
_0-0_
  6
CONTINUOUS
 62
    7
 10
242.83298591162117
 20
57.078847671453559
 40
0.5
 50
180
 51
270
  0
ARC
  8
_0-0_
  6
CONTINUOUS
 62
    7
 10
212.83298591162117
 20
57.078847671453559
 40
0.5
 50
270
 51
0
  0
LINE
  8
_0-0_
  6
CONTINUOUS
 62
    7
 10
213.33298591162117
 20
109.1783537828976
 11
213.33298591162117
 21
121.6783537828976
  0
LINE
  8
_0-0_
  6
CONTINUOUS
 62
    7
 10
203.33298591162071
 20
107.1783537828976
 11
211.33298591162117
 21
107.1783537828976
  0
LINE
  8
_0-0_
  6
CONTINUOUS
 62
    7
 10
242.33298591162071
 20
109.1783537828976
 11
242.33298591162117
 21
121.6783537828976
  0
LINE
  8
_0-0_
  6
CONTINUOUS
 62
    7
 10
244.33298591162071
 20
107.1783537828976
 11
252.33298591162117
 21
107.1783537828976
  0
LINE
  8
_0-0_
  6
CONTINUOUS
 62
    7
 10
242.33298591162117
 20
104.1783537828976
 11
242.33298591162117
 21
101.6783537828976
  0
LINE
  8
_0-0_
  6
CONTINUOUS
 62
    7
 10
252.33298591162117
 20
105.1783537828976
 11
243.33298591162117
 21
105.1783537828976
  0
LINE
  8
_0-0_
  6
CONTINUOUS
 62
    7
 10
252.83298591162117
 20
121.6783537828976
 11
252.83298591162117
 21
105.6783537828976
  0
LINE
  8
_0-0_
  6
CONTINUOUS
 62
    7
 10
203.33298591162117
 20
122.1783537828976
 11
252.33298591162117
 21
122.1783537828976
  0
LINE
  8
_0-0_
  6
CONTINUOUS
 62
    7
 10
202.83298591162071
 20
105.6783537828976
 11
202.83298591162117
 21
121.6783537828976
  0
LINE
  8
_0-0_
  6
CONTINUOUS
 62
    7
 10
212.33298591162117
 20
105.1783537828976
 11
203.33298591162071
 21
105.1783537828976
  0
LINE
  8
_0-0_
  6
CONTINUOUS
 62
    7
 10
213.33298591162117
 20
101.6783537828976
 11
213.33298591162117
 21
104.1783537828976
  0
LINE
  8
_0-0_
  6
CONTINUOUS
 62
    7
 10
241.83298591162117
 20
101.1783537828976
 11
213.83298591162117
 21
101.1783537828976
  0
LINE
  8
_0-0_
  6
CONTINUOUS
 62
    7
 10
213.83298591162117
 20
66.578847671453559
 11
241.83298591162117
 21
66.578847671453559
  0
LINE
  8
_0-0_
  6
CONTINUOUS
 62
    7
 10
212.83298591162117
 20
56.578847671453559
 11
203.33298591162117
 21
56.578847671453559
  0
LINE
  8
_0-0_
  6
CONTINUOUS
 62
    7
 10
213.33298591162117
 20
66.078847671453559
 11
213.33298591162117
 21
54.078847671453559
  0
LINE
  8
_0-0_
  6
CONTINUOUS
 62
    7
 10
202.95669756426747
 20
56.408099975388041
 11
213.45669756426793
 21
66.408099975388041
  0
LINE
  8
_0-0_
  6
CONTINUOUS
 62
    7
 10
202.83298591162117
 20
53.578847671453559
 11
202.83298591162117
 21
56.078847671453559
  0
LINE
  8
_0-0_
  6
CONTINUOUS
 62
    7
 10
252.83298591162071
 20
53.578847671453559
 11
202.83298591162117
 21
53.578847671453559
  0
LINE
  8
_0-0_
  6
CONTINUOUS
 62
    7
 10
252.83298591162071
 20
56.078847671453559
 11
252.83298591162071
 21
53.578847671453559
  0
LINE
  8
_0-0_
  6
CONTINUOUS
 62
    7
 10
242.83298591162117
 20
56.578847671453559
 11
252.33298591162071
 21
56.578847671453559
  0
LINE
  8
_0-0_
  6
CONTINUOUS
 62
    7
 10
242.33298591162117
 20
66.078847671453559
 11
242.33298591162117
 21
54.078847671453559
  0
LINE
  8
_0-0_
  6
CONTINUOUS
 62
    7
 10
252.7092742589744
 20
56.408099975388041
 11
242.2092742589744
 21
66.408099975388041
  0
LINE
  8
_0-0_
  6
CONTINUOUS
 62
    7
 10
295.87261502688767
 20
53.578847671453559
 11
295.87261502688767
 21
66.078847671453559
  0
LINE
  8
_0-0_
  6
CONTINUOUS
 62
    7
 10
292.37261502688767
 20
53.578847671453559
 11
312.87261502688767
 21
53.578847671453559
  0
LINE
  8
_0-0_
  6
CONTINUOUS
 62
    7
 10
291.87261502688767
 20
66.078847671453559
 11
291.87261502688767
 21
54.078847671453559
  0
LINE
  8
_0-0_
  6
CONTINUOUS
 62
    7
 10
312.37261502688767
 20
66.578847671453559
 11
292.37261502688767
 21
66.578847671453559
  0
LINE
  8
_0-0_
  6
CONTINUOUS
 62
    7
 10
312.87261502688767
 20
53.578847671453559
 11
312.87261502688767
 21
66.078847671453559
  0
LINE
  8
_0-0_
  6
CONTINUOUS
 62
    7
 10
298.37261502688767
 20
56.578847671453559
 11
312.87261502688767
 21
56.578847671453559
  0
LINE
  8
_0-0_
  6
CONTINUOUS
 62
    7
 10
297.87261502688767
 20
66.078847671453559
 11
297.87261502688767
 21
57.078847671453559
  0
LINE
  8
_0-0_
  6
CONTINUOUS
 62
    7
 10
27.387405947215711
 20
57.68199762840618
 11
27.387405947215711
 21
42.381997628406168
  0
LINE
  8
_0-0_
  6
CONTINUOUS
 62
    7
 10
27.387405947215711
 20
57.68199762840618
 11
77.387405947215711
 21
57.68199762840618
  0
LINE
  8
_0-0_
  6
CONTINUOUS
 62
    7
 10
77.387405947215711
 20
57.68199762840618
 11
77.387405947215711
 21
42.381997628406168
  0
LINE
  8
_0-0_
  6
CONTINUOUS
 62
    7
 10
27.387405947215711
 20
49.181967626406163
 11
47.387405947215711
 21
49.181967626406163
  0
LINE
  8
_0-0_
  6
CONTINUOUS
 62
    7
 10
57.387405947215711
 20
49.181967626406163
 11
77.387405947215711
 21
49.181967626406163
  0
LINE
  8
_0-0_
  6
CONTINUOUS
 62
    7
 10
57.387405947215711
 20
49.181967626406163
 11
57.387405947215711
 21
43.381967628406187
  0
LINE
  8
_0-0_
  6
CONTINUOUS
 62
    7
 10
57.387405947215711
 20
43.381967628406187
 11
77.387405947215711
 21
43.381967628406187
  0
LINE
  8
_0-0_
  6
CONTINUOUS
 62
    7
 10
47.387405947215711
 20
49.181967626406163
 11
47.387405947215711
 21
43.381967628406187
  0
LINE
  8
_0-0_
  6
CONTINUOUS
 62
    7
 10
27.387405947215711
 20
43.381967628406187
 11
47.387405947215711
 21
43.381967628406187
  0
LINE
  8
_0-0_
  6
CONTINUOUS
 62
    7
 10
68.887405947215484
 20
43.381967628406187
 11
68.887405947215484
 21
40.681967628405459
  0
LINE
  8
_0-0_
  6
CONTINUOUS
 62
    7
 10
68.887405947215484
 20
40.681967628405459
 11
68.387405947215484
 21
40.181967628405459
  0
LINE
  8
_0-0_
  6
CONTINUOUS
 62
    7
 10
68.387405947215484
 20
40.181967628405459
 11
66.387405947215484
 21
40.181967628405459
  0
LINE
  8
_0-0_
  6
CONTINUOUS
 62
    7
 10
66.387405947215484
 20
40.181967628405459
 11
65.887405947215484
 21
40.681967628405459
  0
LINE
  8
_0-0_
  6
CONTINUOUS
 62
    7
 10
65.887405947215484
 20
40.681967628405459
 11
65.887405947215484
 21
43.381967628406187
  0
LINE
  8
_0-0_
  6
CONTINUOUS
 62
    7
 10
38.887405947215484
 20
43.381967628406187
 11
38.887405947215484
 21
40.681967628405459
  0
LINE
  8
_0-0_
  6
CONTINUOUS
 62
    7
 10
38.887405947215484
 20
40.681967628405459
 11
38.387405947215484
 21
40.181967628405459
  0
LINE
  8
_0-0_
  6
CONTINUOUS
 62
    7
 10
38.387405947215484
 20
40.181967628405459
 11
36.387405947215484
 21
40.181967628405459
  0
LINE
  8
_0-0_
  6
CONTINUOUS
 62
    7
 10
36.387405947215484
 20
40.181967628405459
 11
35.887405947215484
 21
40.681967628405459
  0
LINE
  8
_0-0_
  6
CONTINUOUS
 62
    7
 10
35.887405947215484
 20
40.681967628405459
 11
35.887405947215484
 21
43.381967628406187
  0
LINE
  8
_0-0_
  6
CONTINUOUS
 62
    7
 10
27.387405947215711
 20
42.381997628406168
 11
35.887405947215484
 21
42.381997628406168
  0
LINE
  8
_0-0_
  6
CONTINUOUS
 62
    7
 10
38.887405947215484
 20
42.381997628406168
 11
65.887405947215484
 21
42.381997628406168
  0
LINE
  8
_0-0_
  6
CONTINUOUS
 62
    7
 10
68.887405947215484
 20
42.381997628406168
 11
77.387405947215711
 21
42.381997628406168
  0
ARC
  8
_0-0_
  6
CONTINUOUS
 62
    7
 10
38.387405947215711
 20
70.18199762840618
 40
0.5
 50
90
 51
138.81407483428791
  0
ARC
  8
_0-0_
  6
CONTINUOUS
 62
    7
 10
27.887405947215711
 20
60.18199762840618
 40
0.5
 50
90
 51
138.81407483429649
  0
ARC
  8
_0-0_
  6
CONTINUOUS
 62
    7
 10
76.887405947215257
 20
60.18199762840618
 40
0.5
 50
0
 51
41.185925165710493
  0
ARC
  8
_0-0_
  6
CONTINUOUS
 62
    7
 10
66.387405947215711
 20
70.18199762840618
 40
0.5
 50
0
 51
41.185925165709953
  0
ARC
  8
_0-0_
  6
CONTINUOUS
 62
    7
 10
27.887405947215711
 20
60.18199762840618
 40
0.5000000000001396
 50
138.81407483429652
 51
180.00000000000009
  0
ARC
  8
_0-0_
  6
CONTINUOUS
 62
    7
 10
76.887405947215257
 20
60.18199762840618
 40
0.5000000000000701
 50
41.185925165710493
 51
90
  0
ARC
  8
_0-0_
  6
CONTINUOUS
 62
    7
 10
38.387405947215711
 20
70.18199762840618
 40
0.500000000000054
 50
138.81407483428791
 51
180
  0
ARC
  8
_0-0_
  6
CONTINUOUS
 62
    7
 10
66.387405947215711
 20
70.18199762840618
 40
0.5000000000000757
 50
41.185925165709953
 51
90
  0
ARC
  8
_0-0_
  6
CONTINUOUS
 62
    7
 10
66.387405947215711
 20
58.18199762840618
 40
0.5
 50
270
 51
0
  0
ARC
  8
_0-0_
  6
CONTINUOUS
 62
    7
 10
38.387405947215711
 20
58.18199762840618
 40
0.5
 50
180
 51
270
  0
ARC
  8
_0-0_
  6
CONTINUOUS
 62
    7
 10
67.387405947215711
 20
61.18199762840618
 40
0.5
 50
180
 51
270
  0
ARC
  8
_0-0_
  6
CONTINUOUS
 62
    7
 10
37.387405947215711
 20
61.18199762840618
 40
0.5
 50
270
 51
0
  0
LINE
  8
_0-0_
  6
CONTINUOUS
 62
    7
 10
38.387405947215711
 20
70.68199762840618
 11
66.387405947215711
 21
70.68199762840618
  0
LINE
  8
_0-0_
  6
CONTINUOUS
 62
    7
 10
37.387405947215711
 20
60.68199762840618
 11
27.887405947215711
 21
60.68199762840618
  0
LINE
  8
_0-0_
  6
CONTINUOUS
 62
    7
 10
37.887405947215711
 20
70.18199762840618
 11
37.887405947215711
 21
58.18199762840618
  0
LINE
  8
_0-0_
  6
CONTINUOUS
 62
    7
 10
27.511117599862018
 20
60.511249932340661
 11
38.011117599862473
 21
70.511249932340661
  0
LINE
  8
_0-0_
  6
CONTINUOUS
 62
    7
 10
27.387405947215711
 20
57.68199762840618
 11
27.387405947215711
 21
60.18199762840618
  0
LINE
  8
_0-0_
  6
CONTINUOUS
 62
    7
 10
77.387405947215257
 20
57.68199762840618
 11
27.387405947215711
 21
57.68199762840618
  0
LINE
  8
_0-0_
  6
CONTINUOUS
 62
    7
 10
77.387405947215257
 20
60.18199762840618
 11
77.387405947215257
 21
57.68199762840618
  0
LINE
  8
_0-0_
  6
CONTINUOUS
 62
    7
 10
67.387405947215711
 20
60.68199762840618
 11
76.887405947215257
 21
60.68199762840618
  0
LINE
  8
_0-0_
  6
CONTINUOUS
 62
    7
 10
66.887405947215711
 20
70.18199762840618
 11
66.887405947215711
 21
58.18199762840618
  0
LINE
  8
_0-0_
  6
CONTINUOUS
 62
    7
 10
77.26369429456895
 20
60.511249932340661
 11
66.76369429456895
 21
70.511249932340661
  0
ARC
  8
_0-0_
  6
CONTINUOUS
 62
    7
 10
151.73840919860123
 20
56.181996481986857
 40
7
 50
92.456283569335938
 51
106.25701904296875
  0
ARC
  8
_0-0_
  6
CONTINUOUS
 62
    7
 10
151.73840919860123
 20
56.181996481986857
 40
7
 50
73.742965698242187
 51
87.543701171874972
  0
ARC
  8
_0-0_
  6
CONTINUOUS
 62
    7
 10
153.41808978446244
 20
61.942089574905253
 40
1
 50
4.9999847412109482
 51
73.742965698242187
  0
ARC
  8
_0-0_
  6
CONTINUOUS
 62
    7
 10
150.05872861274003
 20
61.942089574905253
 40
1
 50
106.25701904296875
 51
175
  0
ARC
  8
_0-0_
  6
CONTINUOUS
 62
    7
 10
163.738409198601
 20
50.681997626395855
 40
0.5
 50
270
 51
0
  0
ARC
  8
_0-0_
  6
CONTINUOUS
 62
    7
 10
163.738409198601
 20
57.181997626395855
 40
0.5
 50
0
 51
90
  0
ARC
  8
_0-0_
  6
CONTINUOUS
 62
    7
 10
137.33840919860114
 20
49.681997626395855
 40
0.5
 50
90
 51
180
  0
ARC
  8
_0-0_
  6
CONTINUOUS
 62
    7
 10
137.33840919860114
 20
46.881997626395673
 40
0.5
 50
180
 51
270
  0
ARC
  8
_0-0_
  6
CONTINUOUS
 62
    7
 10
138.03130241741457
 20
45.881997626395673
 40
0.5
 50
45.00000000000005
 51
90
  0
ARC
  8
_0-0_
  6
CONTINUOUS
 62
    7
 10
139.23840919860123
 20
44.674890845209461
 40
0.5
 50
0
 51
45
  0
ARC
  8
_0-0_
  6
CONTINUOUS
 62
    7
 10
139.23840919860123
 20
42.88199762639573
 40
0.5
 50
270
 51
0
  0
ARC
  8
_0-0_
  6
CONTINUOUS
 62
    7
 10
133.94551597978767
 20
42.88199762639573
 40
0.5
 50
225.00000000000006
 51
270
  0
ARC
  8
_0-0_
  6
CONTINUOUS
 62
    7
 10
132.23840919860123
 20
44.58910440758234
 40
0.5
 50
180
 51
225
  0
ARC
  8
_0-0_
  6
CONTINUOUS
 62
    7
 10
161.1384091986011
 20
57.381997626395673
 40
0.2999999999999998
 50
90
 51
180
  0
ARC
  8
_0-0_
  6
CONTINUOUS
 62
    7
 10
161.1384091986011
 20
56.481997626396037
 40
0.2999999999999998
 50
180
 51
270
  0
ARC
  8
_0-0_
  6
CONTINUOUS
 62
    7
 10
161.738409198601
 20
55.881997626395673
 40
0.2999999999999998
 50
0
 51
90.000000000000028
  0
ARC
  8
_0-0_
  6
CONTINUOUS
 62
    7
 10
161.738409198601
 20
53.681997626395855
 40
0.2999999999999998
 50
270
 51
0
  0
ARC
  8
_0-0_
  6
CONTINUOUS
 62
    7
 10
161.1384091986011
 20
53.081997626395946
 40
0.2999999999999998
 50
90
 51
180
  0
ARC
  8
_0-0_
  6
CONTINUOUS
 62
    7
 10
160.53840919860119
 20
52.281997626396219
 40
0.2999999999999998
 50
270
 51
0
  0
ARC
  8
_0-0_
  6
CONTINUOUS
 62
    7
 10
157.93840919860105
 20
52.281997626396219
 40
0.2999999999999998
 50
180
 51
270
  0
ARC
  8
_0-0_
  6
CONTINUOUS
 62
    7
 10
157.33840919860114
 20
53.081997626395946
 40
0.2999999999999998
 50
0
 51
90
  0
ARC
  8
_0-0_
  6
CONTINUOUS
 62
    7
 10
156.73840919860123
 20
53.681997626395855
 40
0.2999999999999998
 50
180
 51
270
  0
ARC
  8
_0-0_
  6
CONTINUOUS
 62
    7
 10
156.73840919860123
 20
55.881997626395673
 40
0.2999999999999998
 50
90
 51
180
  0
ARC
  8
_0-0_
  6
CONTINUOUS
 62
    7
 10
157.33840919860114
 20
56.481997626396037
 40
0.2999999999999998
 50
270
 51
0
  0
ARC
  8
_0-0_
  6
CONTINUOUS
 62
    7
 10
157.33840919860114
 20
57.381997626395673
 40
0.2999999999999998
 50
0
 51
90
  0
ARC
  8
_0-0_
  6
CONTINUOUS
 62
    7
 10
153.6384091986011
 20
57.381997626395673
 40
0.2999999999999998
 50
90
 51
180
  0
ARC
  8
_0-0_
  6
CONTINUOUS
 62
    7
 10
153.6384091986011
 20
56.481997626396037
 40
0.2999999999999998
 50
180
 51
270
  0
ARC
  8
_0-0_
  6
CONTINUOUS
 62
    7
 10
154.23840919860123
 20
55.881997626395673
 40
0.2999999999999998
 50
0
 51
90.000000000000028
  0
ARC
  8
_0-0_
  6
CONTINUOUS
 62
    7
 10
154.23840919860123
 20
53.681997626395855
 40
0.2999999999999998
 50
270
 51
0
  0
ARC
  8
_0-0_
  6
CONTINUOUS
 62
    7
 10
153.6384091986011
 20
53.081997626395946
 40
0.2999999999999998
 50
90
 51
180
  0
ARC
  8
_0-0_
  6
CONTINUOUS
 62
    7
 10
153.03840919860096
 20
52.281997626396219
 40
0.2999999999999998
 50
270
 51
0
  0
ARC
  8
_0-0_
  6
CONTINUOUS
 62
    7
 10
150.43840919860105
 20
52.281997626396219
 40
0.2999999999999998
 50
180
 51
270
  0
ARC
  8
_0-0_
  6
CONTINUOUS
 62
    7
 10
149.83840919860114
 20
53.081997626395946
 40
0.2999999999999998
 50
0
 51
90
  0
ARC
  8
_0-0_
  6
CONTINUOUS
 62
    7
 10
149.23840919860123
 20
53.681997626395855
 40
0.2999999999999998
 50
180
 51
270
  0
ARC
  8
_0-0_
  6
CONTINUOUS
 62
    7
 10
149.23840919860123
 20
55.881997626395673
 40
0.2999999999999998
 50
90
 51
180
  0
ARC
  8
_0-0_
  6
CONTINUOUS
 62
    7
 10
149.83840919860114
 20
56.481997626396037
 40
0.2999999999999998
 50
270
 51
0
  0
ARC
  8
_0-0_
  6
CONTINUOUS
 62
    7
 10
149.83840919860114
 20
57.381997626395673
 40
0.2999999999999998
 50
0
 51
90
  0
ARC
  8
_0-0_
  6
CONTINUOUS
 62
    7
 10
146.1384091986011
 20
57.381997626395673
 40
0.2999999999999998
 50
90
 51
180
  0
ARC
  8
_0-0_
  6
CONTINUOUS
 62
    7
 10
146.1384091986011
 20
56.481997626396037
 40
0.2999999999999998
 50
180
 51
270
  0
ARC
  8
_0-0_
  6
CONTINUOUS
 62
    7
 10
146.73840919860123
 20
55.881997626395673
 40
0.2999999999999998
 50
0
 51
90.000000000000028
  0
ARC
  8
_0-0_
  6
CONTINUOUS
 62
    7
 10
146.73840919860123
 20
53.681997626395855
 40
0.2999999999999998
 50
270
 51
0
  0
ARC
  8
_0-0_
  6
CONTINUOUS
 62
    7
 10
146.1384091986011
 20
53.081997626395946
 40
0.2999999999999998
 50
90
 51
180
  0
ARC
  8
_0-0_
  6
CONTINUOUS
 62
    7
 10
145.53840919860096
 20
52.281997626396219
 40
0.2999999999999998
 50
270
 51
0
  0
ARC
  8
_0-0_
  6
CONTINUOUS
 62
    7
 10
142.93840919860105
 20
52.281997626396219
 40
0.2999999999999998
 50
180
 51
270
  0
ARC
  8
_0-0_
  6
CONTINUOUS
 62
    7
 10
142.33840919860114
 20
53.081997626395946
 40
0.2999999999999998
 50
0
 51
90
  0
ARC
  8
_0-0_
  6
CONTINUOUS
 62
    7
 10
141.73840919860123
 20
53.681997626395855
 40
0.2999999999999998
 50
180
 51
270
  0
ARC
  8
_0-0_
  6
CONTINUOUS
 62
    7
 10
141.73840919860123
 20
55.881997626395673
 40
0.2999999999999998
 50
90
 51
180
  0
ARC
  8
_0-0_
  6
CONTINUOUS
 62
    7
 10
142.33840919860114
 20
56.481997626396037
 40
0.2999999999999998
 50
270
 51
0
  0
ARC
  8
_0-0_
  6
CONTINUOUS
 62
    7
 10
142.33840919860114
 20
57.381997626395673
 40
0.2999999999999998
 50
0
 51
90
  0
ARC
  8
_0-0_
  6
CONTINUOUS
 62
    7
 10
132.23840919860123
 20
57.181997626395855
 40
0.5
 50
90
 51
180
  0
ARC
  8
_0-0_
  6
CONTINUOUS
 62
    7
 10
138.6384091986011
 20
57.381997626395673
 40
0.2999999999999998
 50
90
 51
180
  0
ARC
  8
_0-0_
  6
CONTINUOUS
 62
    7
 10
138.6384091986011
 20
56.481997626396037
 40
0.2999999999999998
 50
180
 51
270
  0
ARC
  8
_0-0_
  6
CONTINUOUS
 62
    7
 10
139.23840919860123
 20
55.881997626395673
 40
0.2999999999999998
 50
0
 51
90.000000000000028
  0
ARC
  8
_0-0_
  6
CONTINUOUS
 62
    7
 10
139.23840919860123
 20
53.681997626395855
 40
0.2999999999999998
 50
270
 51
0
  0
ARC
  8
_0-0_
  6
CONTINUOUS
 62
    7
 10
138.6384091986011
 20
53.081997626395946
 40
0.2999999999999998
 50
90
 51
180
  0
ARC
  8
_0-0_
  6
CONTINUOUS
 62
    7
 10
138.03840919860096
 20
52.281997626396219
 40
0.2999999999999998
 50
270
 51
0
  0
ARC
  8
_0-0_
  6
CONTINUOUS
 62
    7
 10
135.43840919860105
 20
52.281997626396219
 40
0.2999999999999998
 50
180
 51
270
  0
ARC
  8
_0-0_
  6
CONTINUOUS
 62
    7
 10
134.83840919860114
 20
53.081997626395946
 40
0.2999999999999998
 50
0
 51
90
  0
ARC
  8
_0-0_
  6
CONTINUOUS
 62
    7
 10
134.23840919860123
 20
53.681997626395855
 40
0.2999999999999998
 50
180
 51
270
  0
ARC
  8
_0-0_
  6
CONTINUOUS
 62
    7
 10
134.23840919860123
 20
55.881997626395673
 40
0.2999999999999998
 50
90
 51
180
  0
ARC
  8
_0-0_
  6
CONTINUOUS
 62
    7
 10
134.83840919860114
 20
56.481997626396037
 40
0.2999999999999998
 50
270
 51
0
  0
ARC
  8
_0-0_
  6
CONTINUOUS
 62
    7
 10
134.83840919860114
 20
57.381997626395673
 40
0.2999999999999998
 50
0
 51
90
  0
ARC
  8
_0-0_
  6
CONTINUOUS
 62
    7
 10
142.23840883816121
 20
70.181996481986857
 40
0.5
 50
90
 51
180
  0
ARC
  8
_0-0_
  6
CONTINUOUS
 62
    7
 10
139.23840883816121
 20
70.181996481986857
 40
0.5
 50
0
 51
90
  0
ARC
  8
_0-0_
  6
CONTINUOUS
 62
    7
 10
136.23840883816121
 20
70.181996481986857
 40
0.5
 50
90
 51
180
  0
ARC
  8
_0-0_
  6
CONTINUOUS
 62
    7
 10
156.23840883816121
 20
70.181996481986857
 40
0.5
 50
0
 51
90
  0
ARC
  8
_0-0_
  6
CONTINUOUS
 62
    7
 10
142.23840883816121
 20
61.181996481986857
 40
0.5
 50
180
 51
270
  0
ARC
  8
_0-0_
  6
CONTINUOUS
 62
    7
 10
136.23840883816121
 20
58.181996481986857
 40
0.5
 50
180
 51
270
  0
LINE
  8
_0-0_
  6
CONTINUOUS
 62
    7
 10
154.48840919860123
 20
61.181996481986857
 11
154.41428462393998
 21
62.029245274635173
  0
LINE
  8
_0-0_
  6
CONTINUOUS
 62
    7
 10
147.88840929396866
 20
60.681996481986857
 11
147.88840929396866
 21
61.181996481986857
  0
LINE
  8
_0-0_
  6
CONTINUOUS
 62
    7
 10
142.6384091986011
 20
56.481997626396037
 11
142.6384091986011
 21
57.381997626395673
  0
LINE
  8
_0-0_
  6
CONTINUOUS
 62
    7
 10
142.33840919860114
 20
56.181997626395855
 11
141.73840919860123
 21
56.181997626395855
  0
LINE
  8
_0-0_
  6
CONTINUOUS
 62
    7
 10
145.83840919860114
 20
56.481997626396037
 11
145.83840919860114
 21
57.381997626395673
  0
LINE
  8
_0-0_
  6
CONTINUOUS
 62
    7
 10
146.73840919860123
 20
56.181997626395855
 11
146.1384091986011
 21
56.181997626395855
  0
LINE
  8
_0-0_
  6
CONTINUOUS
 62
    7
 10
147.03840919860096
 20
53.681997626395855
 11
147.03840919860096
 21
55.881997626395673
  0
LINE
  8
_0-0_
  6
CONTINUOUS
 62
    7
 10
146.1384091986011
 20
53.381997626395673
 11
146.73840919860123
 21
53.381997626395673
  0
LINE
  8
_0-0_
  6
CONTINUOUS
 62
    7
 10
145.83840919860114
 20
52.281997626396219
 11
145.83840919860114
 21
53.081997626395946
  0
LINE
  8
_0-0_
  6
CONTINUOUS
 62
    7
 10
142.93840919860105
 20
51.981997626396037
 11
145.53840919860096
 21
51.981997626396037
  0
LINE
  8
_0-0_
  6
CONTINUOUS
 62
    7
 10
142.6384091986011
 20
53.081997626395946
 11
142.6384091986011
 21
52.281997626396219
  0
LINE
  8
_0-0_
  6
CONTINUOUS
 62
    7
 10
141.73840919860123
 20
53.381997626395673
 11
142.33840919860114
 21
53.381997626395673
  0
LINE
  8
_0-0_
  6
CONTINUOUS
 62
    7
 10
141.43840919860105
 20
55.881997626395673
 11
141.43840919860105
 21
53.681997626395855
  0
LINE
  8
_0-0_
  6
CONTINUOUS
 62
    7
 10
138.03840919860096
 20
51.981997626396037
 11
135.43840919860105
 21
51.981997626396037
  0
LINE
  8
_0-0_
  6
CONTINUOUS
 62
    7
 10
138.33840919860114
 20
53.081997626395946
 11
138.33840919860114
 21
52.281997626396219
  0
LINE
  8
_0-0_
  6
CONTINUOUS
 62
    7
 10
139.23840919860123
 20
53.381997626395673
 11
138.6384091986011
 21
53.381997626395673
  0
LINE
  8
_0-0_
  6
CONTINUOUS
 62
    7
 10
139.53840919860096
 20
55.881997626395673
 11
139.53840919860096
 21
53.681997626395855
  0
LINE
  8
_0-0_
  6
CONTINUOUS
 62
    7
 10
138.6384091986011
 20
56.181997626395855
 11
139.23840919860123
 21
56.181997626395855
  0
LINE
  8
_0-0_
  6
CONTINUOUS
 62
    7
 10
138.33840919860114
 20
57.381997626395673
 11
138.33840919860114
 21
56.481997626396037
  0
LINE
  8
_0-0_
  6
CONTINUOUS
 62
    7
 10
139.73840883816121
 20
70.181996481986857
 11
139.73840883816121
 21
57.681996481986857
  0
LINE
  8
_0-0_
  6
CONTINUOUS
 62
    7
 10
141.73840883816121
 20
61.181996481986857
 11
141.73840883816121
 21
70.181996481986857
  0
LINE
  8
_0-0_
  6
CONTINUOUS
 62
    7
 10
156.73840883816121
 20
60.681996481986857
 11
142.23840883816121
 21
60.681996481986857
  0
LINE
  8
_0-0_
  6
CONTINUOUS
 62
    7
 10
155.5884091032338
 20
61.181996481986857
 11
155.5884091032338
 21
60.681996481986857
  0
LINE
  8
_0-0_
  6
CONTINUOUS
 62
    7
 10
147.88840929396866
 20
61.181996481986857
 11
155.5884091032338
 21
61.181996481986857
  0
LINE
  8
_0-0_
  6
CONTINUOUS
 62
    7
 10
149.06253377326249
 20
62.029245274635173
 11
148.98840919860123
 21
61.181996481986857
  0
LINE
  8
_0-0_
  6
CONTINUOUS
 62
    7
 10
151.4384091866803
 20
62.959717171760417
 11
151.4384091866803
 21
63.175564902397014
  0
LINE
  8
_0-0_
  6
CONTINUOUS
 62
    7
 10
152.03840921052216
 20
62.959717171760417
 11
151.4384091866803
 21
62.959717171760417
  0
LINE
  8
_0-0_
  6
CONTINUOUS
 62
    7
 10
152.03840921052216
 20
63.175564902397014
 11
152.03840921052216
 21
62.959717171760417
  0
LINE
  8
_0-0_
  6
CONTINUOUS
 62
    7
 10
150.43840919860105
 20
51.981997626396037
 11
153.03840919860096
 21
51.981997626396037
  0
LINE
  8
_0-0_
  6
CONTINUOUS
 62
    7
 10
150.1384091986011
 20
53.081997626395946
 11
150.1384091986011
 21
52.281997626396219
  0
LINE
  8
_0-0_
  6
CONTINUOUS
 62
    7
 10
149.23840919860123
 20
53.381997626395673
 11
149.83840919860114
 21
53.381997626395673
  0
LINE
  8
_0-0_
  6
CONTINUOUS
 62
    7
 10
148.93840919860105
 20
55.881997626395673
 11
148.93840919860105
 21
53.681997626395855
  0
LINE
  8
_0-0_
  6
CONTINUOUS
 62
    7
 10
149.83840919860114
 20
56.181997626395855
 11
149.23840919860123
 21
56.181997626395855
  0
LINE
  8
_0-0_
  6
CONTINUOUS
 62
    7
 10
150.1384091986011
 20
57.381997626395673
 11
150.1384091986011
 21
56.481997626396037
  0
LINE
  8
_0-0_
  6
CONTINUOUS
 62
    7
 10
153.33840919860114
 20
56.481997626396037
 11
153.33840919860114
 21
57.381997626395673
  0
LINE
  8
_0-0_
  6
CONTINUOUS
 62
    7
 10
154.23840919860123
 20
56.181997626395855
 11
153.6384091986011
 21
56.181997626395855
  0
LINE
  8
_0-0_
  6
CONTINUOUS
 62
    7
 10
154.53840919860096
 20
53.681997626395855
 11
154.53840919860096
 21
55.881997626395673
  0
LINE
  8
_0-0_
  6
CONTINUOUS
 62
    7
 10
153.6384091986011
 20
53.381997626395673
 11
154.23840919860123
 21
53.381997626395673
  0
LINE
  8
_0-0_
  6
CONTINUOUS
 62
    7
 10
153.33840919860114
 20
52.281997626396219
 11
153.33840919860114
 21
53.081997626395946
  0
LINE
  8
_0-0_
  6
CONTINUOUS
 62
    7
 10
156.73840883816121
 20
70.181996481986857
 11
156.73840883816121
 21
57.681996481986857
  0
LINE
  8
_0-0_
  6
CONTINUOUS
 62
    7
 10
136.23840883816121
 20
70.681996481986857
 11
156.23840883816121
 21
70.681996481986857
  0
LINE
  8
_0-0_
  6
CONTINUOUS
 62
    7
 10
135.73840883816121
 20
58.181996481986857
 11
135.73840883816121
 21
70.181996481986857
  0
LINE
  8
_0-0_
  6
CONTINUOUS
 62
    7
 10
157.33840919860114
 20
57.681997626395855
 11
136.23840883816121
 21
57.681997626395855
  0
LINE
  8
_0-0_
  6
CONTINUOUS
 62
    7
 10
157.6384091986011
 20
56.481997626396037
 11
157.6384091986011
 21
57.381997626395673
  0
LINE
  8
_0-0_
  6
CONTINUOUS
 62
    7
 10
156.73840919860123
 20
56.181997626395855
 11
157.33840919860114
 21
56.181997626395855
  0
LINE
  8
_0-0_
  6
CONTINUOUS
 62
    7
 10
156.43840919860105
 20
53.681997626395855
 11
156.43840919860105
 21
55.881997626395673
  0
LINE
  8
_0-0_
  6
CONTINUOUS
 62
    7
 10
157.33840919860114
 20
53.381997626395673
 11
156.73840919860123
 21
53.381997626395673
  0
LINE
  8
_0-0_
  6
CONTINUOUS
 62
    7
 10
157.6384091986011
 20
52.281997626396219
 11
157.6384091986011
 21
53.081997626395946
  0
LINE
  8
_0-0_
  6
CONTINUOUS
 62
    7
 10
160.53840919860119
 20
51.981997626396037
 11
157.93840919860105
 21
51.981997626396037
  0
LINE
  8
_0-0_
  6
CONTINUOUS
 62
    7
 10
160.83840919860114
 20
53.081997626395946
 11
160.83840919860114
 21
52.281997626396219
  0
LINE
  8
_0-0_
  6
CONTINUOUS
 62
    7
 10
161.738409198601
 20
53.381997626395673
 11
161.1384091986011
 21
53.381997626395673
  0
LINE
  8
_0-0_
  6
CONTINUOUS
 62
    7
 10
162.03840919860119
 20
55.881997626395673
 11
162.03840919860119
 21
53.681997626395855
  0
LINE
  8
_0-0_
  6
CONTINUOUS
 62
    7
 10
161.1384091986011
 20
56.181997626395855
 11
161.738409198601
 21
56.181997626395855
  0
LINE
  8
_0-0_
  6
CONTINUOUS
 62
    7
 10
160.83840919860114
 20
57.381997626395673
 11
160.83840919860114
 21
56.481997626396037
  0
LINE
  8
_0-0_
  6
CONTINUOUS
 62
    7
 10
163.738409198601
 20
57.681997626395855
 11
161.1384091986011
 21
57.681997626395855
  0
LINE
  8
_0-0_
  6
CONTINUOUS
 62
    7
 10
164.238409198601
 20
50.681997626395855
 11
164.238409198601
 21
57.181997626395855
  0
LINE
  8
_0-0_
  6
CONTINUOUS
 62
    7
 10
137.33840919860114
 20
50.181997626395855
 11
163.738409198601
 21
50.181997626395855
  0
LINE
  8
_0-0_
  6
CONTINUOUS
 62
    7
 10
136.83840919860114
 20
46.881997626395673
 11
136.83840919860114
 21
49.681997626395855
  0
LINE
  8
_0-0_
  6
CONTINUOUS
 62
    7
 10
138.03130241741457
 20
46.381997626395673
 11
137.33840919860114
 21
46.381997626395673
  0
LINE
  8
_0-0_
  6
CONTINUOUS
 62
    7
 10
139.59196258919434
 20
45.028444235802795
 11
138.3848558080079
 21
46.235551016989007
  0
LINE
  8
_0-0_
  6
CONTINUOUS
 62
    7
 10
139.73840919860123
 20
42.88199762639573
 11
139.73840919860123
 21
44.674890845209461
  0
LINE
  8
_0-0_
  6
CONTINUOUS
 62
    7
 10
133.94551597978767
 20
42.381997626395673
 11
139.23840919860123
 21
42.381997626395673
  0
LINE
  8
_0-0_
  6
CONTINUOUS
 62
    7
 10
131.8848558080079
 20
44.235551016989007
 11
133.59196258919434
 21
42.528444235802738
  0
LINE
  8
_0-0_
  6
CONTINUOUS
 62
    7
 10
134.83840919860114
 20
57.681997626395855
 11
132.23840919860123
 21
57.681997626395855
  0
LINE
  8
_0-0_
  6
CONTINUOUS
 62
    7
 10
135.1384091986011
 20
56.481997626396037
 11
135.1384091986011
 21
57.381997626395673
  0
LINE
  8
_0-0_
  6
CONTINUOUS
 62
    7
 10
134.23840919860123
 20
56.181997626395855
 11
134.83840919860114
 21
56.181997626395855
  0
LINE
  8
_0-0_
  6
CONTINUOUS
 62
    7
 10
133.93840919860105
 20
53.681997626395855
 11
133.93840919860105
 21
55.881997626395673
  0
LINE
  8
_0-0_
  6
CONTINUOUS
 62
    7
 10
134.83840919860114
 20
53.381997626395673
 11
134.23840919860123
 21
53.381997626395673
  0
LINE
  8
_0-0_
  6
CONTINUOUS
 62
    7
 10
135.1384091986011
 20
52.281997626396219
 11
135.1384091986011
 21
53.081997626395946
  0
LINE
  8
_0-0_
  6
CONTINUOUS
 62
    7
 10
131.238409198601
 20
49.181967626395704
 11
130.57232919860104
 21
49.181967626395704
  0
LINE
  8
_0-0_
  6
CONTINUOUS
 62
    7
 10
130.32231919860106
 20
49.114977626396353
 11
129.68839919860108
 21
48.748967626395711
  0
LINE
  8
_0-0_
  6
CONTINUOUS
 62
    7
 10
129.18840919860105
 20
48.748957626395963
 11
128.55435919860093
 21
49.1149876263961
  0
LINE
  8
_0-0_
  6
CONTINUOUS
 62
    7
 10
128.30437919860088
 20
49.181967626395704
 11
127.64742919860129
 21
49.181967626395704
  0
LINE
  8
_0-0_
  6
CONTINUOUS
 62
    7
 10
127.20020919860104
 20
48.905567626395964
 11
124.80020919860095
 21
44.105567626395782
  0
LINE
  8
_0-0_
  6
CONTINUOUS
 62
    7
 10
125.2474291986012
 20
43.381967626396431
 11
131.238409198601
 21
43.381967626396431
  0
LINE
  8
_0-0_
  6
CONTINUOUS
 62
    7
 10
130.93840919860105
 20
43.381967626396431
 11
130.93840919860105
 21
40.681967626395704
  0
LINE
  8
_0-0_
  6
CONTINUOUS
 62
    7
 10
130.93840919860105
 20
40.681967626395704
 11
130.43840919860105
 21
40.181967626395704
  0
LINE
  8
_0-0_
  6
CONTINUOUS
 62
    7
 10
130.43840919860105
 20
40.181967626395704
 11
128.43840919860105
 21
40.181967626395704
  0
LINE
  8
_0-0_
  6
CONTINUOUS
 62
    7
 10
128.43840919860105
 20
40.181967626395704
 11
127.93840919860105
 21
40.681967626395704
  0
LINE
  8
_0-0_
  6
CONTINUOUS
 62
    7
 10
127.93840919860105
 20
40.681967626395704
 11
127.93840919860105
 21
43.381967626396431
  0
ARC
  8
_0-0_
  6
CONTINUOUS
 62
    7
 10
125.2474291986012
 20
43.881967626396431
 40
0.5
 50
153.43494000000001
 51
270
  0
ARC
  8
_0-0_
  6
CONTINUOUS
 62
    7
 10
131.238409198601
 20
48.681967626395704
 40
0.5
 50
0
 51
90
  0
ARC
  8
_0-0_
  6
CONTINUOUS
 62
    7
 10
130.57232919860104
 20
48.681967626395704
 40
0.5
 50
90
 51
120.00067999999999
  0
ARC
  8
_0-0_
  6
CONTINUOUS
 62
    7
 10
129.4383891986011
 20
49.18197762639636
 40
0.5
 50
240.00262000000006
 51
300.00068400000015
  0
ARC
  8
_0-0_
  6
CONTINUOUS
 62
    7
 10
128.30437919860088
 20
48.681967626395704
 40
0.5
 50
60.002620000000014
 51
90
  0
ARC
  8
_0-0_
  6
CONTINUOUS
 62
    7
 10
127.64742919860129
 20
48.681967626395704
 40
0.5
 50
90
 51
153.43494000000001
  0
ARC
  8
_0-0_
  6
CONTINUOUS
 62
    7
 10
131.238409198601
 20
43.881967626396431
 40
0.5
 50
270
 51
0
  0
LINE
  8
_0-0_
  6
CONTINUOUS
 62
    7
 10
131.73840919860123
 20
57.181997626395855
 11
131.73840919860123
 21
43.881967626396431
  0
CIRCLE
  8
_0-0_
  6
CONTINUOUS
 62
    7
 10
32.387405947215711
 20
129.96257462172207
 40
3.880000114440918
  0
ARC
  8
_0-0_
  6
CONTINUOUS
 62
    7
 10
33.487405971057569
 20
131.06257464556393
 40
0.8000000119209289
 50
180
 51
270
  0
ARC
  8
_0-0_
  6
CONTINUOUS
 62
    7
 10
33.487405971057569
 20
128.86257459788021
 40
0.8000000119209289
 50
90
 51
180
  0
ARC
  8
_0-0_
  6
CONTINUOUS
 62
    7
 10
31.287405923373854
 20
128.86257459788021
 40
0.8000000119209289
 50
0
 51
90
  0
ARC
  8
_0-0_
  6
CONTINUOUS
 62
    7
 10
31.287405923373854
 20
131.06257464556393
 40
0.8000000119209289
 50
270
 51
0
  0
CIRCLE
  8
_0-0_
  6
CONTINUOUS
 62
    7
 10
32.387405947215711
 20
129.96257462172207
 40
2.75
  0
ARC
  8
_0-0_
  6
CONTINUOUS
 62
    7
 10
32.387405947215711
 20
125.66257807172178
 40
2.200000000000033
 50
180
 51
210.0000000000002
  0
ARC
  8
_0-0_
  6
CONTINUOUS
 62
    7
 10
32.387405947215711
 20
125.66257807172178
 40
2.200000000000109
 50
329.99999999999989
 51
0
  0
ARC
  8
_0-0_
  6
CONTINUOUS
 62
    7
 10
32.387405947215711
 20
125.66257807172178
 40
2.2000000000000388
 50
210.00000000000023
 51
329.99999999999994
  0
CIRCLE
  8
_0-0_
  6
CONTINUOUS
 62
    7
 10
72.387405947215711
 20
129.96257462172207
 40
3.880000114440918
  0
ARC
  8
_0-0_
  6
CONTINUOUS
 62
    7
 10
71.287405923373854
 20
131.06257464556393
 40
0.8000000119209289
 50
270
 51
0
  0
ARC
  8
_0-0_
  6
CONTINUOUS
 62
    7
 10
71.287405923373854
 20
128.86257459788021
 40
0.8000000119209289
 50
0
 51
90
  0
ARC
  8
_0-0_
  6
CONTINUOUS
 62
    7
 10
73.487405971057569
 20
128.86257459788021
 40
0.8000000119209289
 50
90
 51
180
  0
ARC
  8
_0-0_
  6
CONTINUOUS
 62
    7
 10
73.487405971057569
 20
131.06257464556393
 40
0.8000000119209289
 50
180
 51
270
  0
CIRCLE
  8
_0-0_
  6
CONTINUOUS
 62
    7
 10
72.387405947215711
 20
129.96257462172207
 40
2.75
  0
ARC
  8
_0-0_
  6
CONTINUOUS
 62
    7
 10
27.887405947215711
 20
118.46257807172196
 40
0.5
 50
180
 51
270
  0
ARC
  8
_0-0_
  6
CONTINUOUS
 62
    7
 10
27.887405947215711
 20
120.46257807172196
 40
0.5
 50
180
 51
270
  0
ARC
  8
_0-0_
  6
CONTINUOUS
 62
    7
 10
38.387405947215711
 20
114.46257807172196
 40
0.5
 50
180
 51
270
  0
ARC
  8
_0-0_
  6
CONTINUOUS
 62
    7
 10
66.387405947215711
 20
114.46257807172196
 40
0.5
 50
270
 51
0
  0
ARC
  8
_0-0_
  6
CONTINUOUS
 62
    7
 10
76.887405947215711
 20
134.46257807172196
 40
0.5
 50
0
 51
90
  0
ARC
  8
_0-0_
  6
CONTINUOUS
 62
    7
 10
27.887405947215711
 20
134.46257807172196
 40
0.5
 50
90
 51
180
  0
ARC
  8
_0-0_
  6
CONTINUOUS
 62
    7
 10
38.387405947215711
 20
134.46257807172196
 40
0.5
 50
90
 51
180
  0
ARC
  8
_0-0_
  6
CONTINUOUS
 62
    7
 10
66.387405947215711
 20
134.46257807172196
 40
0.5
 50
0
 51
90
  0
ARC
  8
_0-0_
  6
CONTINUOUS
 62
    7
 10
76.887405947215711
 20
118.46257807172196
 40
0.5
 50
270
 51
0
  0
ARC
  8
_0-0_
  6
CONTINUOUS
 62
    7
 10
76.887405947215711
 20
120.46257807172196
 40
0.5
 50
270
 51
0
  0
ARC
  8
_0-0_
  6
CONTINUOUS
 62
    7
 10
67.887405947215711
 20
116.96257807172196
 40
1
 50
90
 51
180
  0
ARC
  8
_0-0_
  6
CONTINUOUS
 62
    7
 10
36.887405947215711
 20
116.96257807172196
 40
1
 50
0
 51
90
  0
ARC
  8
_0-0_
  6
CONTINUOUS
 62
    7
 10
35.887405947215711
 20
121.96257807172196
 40
2
 50
270
 51
0
  0
ARC
  8
_0-0_
  6
CONTINUOUS
 62
    7
 10
68.887405947215711
 20
121.96257807172196
 40
2
 50
180
 51
270
  0
ARC
  8
_0-0_
  6
CONTINUOUS
 62
    7
 10
72.387405947215711
 20
125.66257807172178
 40
2.200000000000033
 50
329.99999999999983
 51
0
  0
ARC
  8
_0-0_
  6
CONTINUOUS
 62
    7
 10
72.387405947215711
 20
125.66257807172178
 40
2.200000000000109
 50
180
 51
210.00000000000011
  0
ARC
  8
_0-0_
  6
CONTINUOUS
 62
    7
 10
72.387405947215711
 20
125.66257807172178
 40
2.2000000000000388
 50
210.00000000000009
 51
329.99999999999983
  0
LINE
  8
_0-0_
  6
CONTINUOUS
 62
    7
 10
66.887405947215711
 20
134.46257807172196
 11
66.887405947215711
 21
121.96257807172196
  0
LINE
  8
_0-0_
  6
CONTINUOUS
 62
    7
 10
27.887405947215711
 20
134.96257807172196
 11
76.887405947215711
 21
134.96257807172196
  0
LINE
  8
_0-0_
  6
CONTINUOUS
 62
    7
 10
27.387405947215711
 20
142.46257462172184
 11
27.387405947215711
 21
109.96257807172196
  0
LINE
  8
_0-0_
  6
CONTINUOUS
 62
    7
 10
77.387405947215711
 20
142.46257462172184
 11
27.387405947215711
 21
142.46257462172184
  0
LINE
  8
_0-0_
  6
CONTINUOUS
 62
    7
 10
32.087405935294782
 20
128.21257462172207
 11
32.087405935294782
 21
128.86257459788021
  0
LINE
  8
_0-0_
  6
CONTINUOUS
 62
    7
 10
32.68740595913664
 20
128.21257462172207
 11
32.087405935294782
 21
128.21257462172207
  0
LINE
  8
_0-0_
  6
CONTINUOUS
 62
    7
 10
32.68740595913664
 20
128.86257459788021
 11
32.68740595913664
 21
128.21257462172207
  0
LINE
  8
_0-0_
  6
CONTINUOUS
 62
    7
 10
34.137405947215711
 20
129.66257460980114
 11
33.487405971057569
 21
129.66257460980114
  0
LINE
  8
_0-0_
  6
CONTINUOUS
 62
    7
 10
34.137405947215711
 20
130.262574633643
 11
34.137405947215711
 21
129.66257460980114
  0
LINE
  8
_0-0_
  6
CONTINUOUS
 62
    7
 10
33.487405971057569
 20
130.262574633643
 11
34.137405947215711
 21
130.262574633643
  0
LINE
  8
_0-0_
  6
CONTINUOUS
 62
    7
 10
32.68740595913664
 20
131.71257462172207
 11
32.68740595913664
 21
131.06257464556393
  0
LINE
  8
_0-0_
  6
CONTINUOUS
 62
    7
 10
32.087405935294782
 20
131.71257462172207
 11
32.68740595913664
 21
131.71257462172207
  0
LINE
  8
_0-0_
  6
CONTINUOUS
 62
    7
 10
32.087405935294782
 20
131.06257464556393
 11
32.087405935294782
 21
131.71257462172207
  0
LINE
  8
_0-0_
  6
CONTINUOUS
 62
    7
 10
30.637405947215711
 20
129.66257460980114
 11
30.637405947215711
 21
130.262574633643
  0
LINE
  8
_0-0_
  6
CONTINUOUS
 62
    7
 10
31.287405923373854
 20
129.66257460980114
 11
30.637405947215711
 21
129.66257460980114
  0
LINE
  8
_0-0_
  6
CONTINUOUS
 62
    7
 10
30.637405947215711
 20
130.262574633643
 11
31.287405923373854
 21
130.262574633643
  0
LINE
  8
_0-0_
  6
CONTINUOUS
 62
    7
 10
37.887405947215711
 20
121.96257807172196
 11
37.887405947215711
 21
134.46257807172196
  0
LINE
  8
_0-0_
  6
CONTINUOUS
 62
    7
 10
30.187405947215893
 20
125.66257807172178
 11
30.187405947215893
 21
126.76657698591816
  0
LINE
  8
_0-0_
  6
CONTINUOUS
 62
    7
 10
34.587405947216439
 20
125.66257807172178
 11
34.587405947216439
 21
126.76657698591907
  0
LINE
  8
_0-0_
  6
CONTINUOUS
 62
    7
 10
35.887405947215711
 20
119.96257807172196
 11
27.887405947215711
 21
119.96257807172196
  0
LINE
  8
_0-0_
  6
CONTINUOUS
 62
    7
 10
27.887405947215711
 20
117.96257807172196
 11
36.887405947215711
 21
117.96257807172196
  0
LINE
  8
_0-0_
  6
CONTINUOUS
 62
    7
 10
37.887405947215711
 20
114.46257807172196
 11
37.887405947215711
 21
116.96257807172196
  0
LINE
  8
_0-0_
  6
CONTINUOUS
 62
    7
 10
66.387405947215711
 20
113.96257807172196
 11
38.387405947215711
 21
113.96257807172196
  0
LINE
  8
_0-0_
  6
CONTINUOUS
 62
    7
 10
66.887405947215711
 20
116.96257807172196
 11
66.887405947215711
 21
114.46257807172196
  0
LINE
  8
_0-0_
  6
CONTINUOUS
 62
    7
 10
76.887405947215711
 20
117.96257807172196
 11
67.887405947215711
 21
117.96257807172196
  0
LINE
  8
_0-0_
  6
CONTINUOUS
 62
    7
 10
68.887405947215711
 20
119.96257807172196
 11
76.887405947215711
 21
119.96257807172196
  0
LINE
  8
_0-0_
  6
CONTINUOUS
 62
    7
 10
72.087405935294782
 20
131.71257462172207
 11
72.087405935294782
 21
131.06257464556393
  0
LINE
  8
_0-0_
  6
CONTINUOUS
 62
    7
 10
72.68740595913664
 20
131.71257462172207
 11
72.087405935294782
 21
131.71257462172207
  0
LINE
  8
_0-0_
  6
CONTINUOUS
 62
    7
 10
72.68740595913664
 20
131.06257464556393
 11
72.68740595913664
 21
131.71257462172207
  0
LINE
  8
_0-0_
  6
CONTINUOUS
 62
    7
 10
74.137405947215711
 20
130.262574633643
 11
73.487405971057569
 21
130.262574633643
  0
LINE
  8
_0-0_
  6
CONTINUOUS
 62
    7
 10
74.137405947215711
 20
129.66257460980114
 11
74.137405947215711
 21
130.262574633643
  0
LINE
  8
_0-0_
  6
CONTINUOUS
 62
    7
 10
73.487405971057569
 20
129.66257460980114
 11
74.137405947215711
 21
129.66257460980114
  0
LINE
  8
_0-0_
  6
CONTINUOUS
 62
    7
 10
72.68740595913664
 20
128.21257462172207
 11
72.68740595913664
 21
128.86257459788021
  0
LINE
  8
_0-0_
  6
CONTINUOUS
 62
    7
 10
72.087405935294782
 20
128.21257462172207
 11
72.68740595913664
 21
128.21257462172207
  0
LINE
  8
_0-0_
  6
CONTINUOUS
 62
    7
 10
72.087405935294782
 20
128.86257459788021
 11
72.087405935294782
 21
128.21257462172207
  0
LINE
  8
_0-0_
  6
CONTINUOUS
 62
    7
 10
71.287405923373854
 20
129.66257460980114
 11
70.637405947215711
 21
129.66257460980114
  0
LINE
  8
_0-0_
  6
CONTINUOUS
 62
    7
 10
70.637405947215711
 20
130.262574633643
 11
71.287405923373854
 21
130.262574633643
  0
LINE
  8
_0-0_
  6
CONTINUOUS
 62
    7
 10
70.637405947215711
 20
129.66257460980114
 11
70.637405947215711
 21
130.262574633643
  0
LINE
  8
_0-0_
  6
CONTINUOUS
 62
    7
 10
70.187405947214984
 20
125.66257807172178
 11
70.187405947214984
 21
126.76657698591907
  0
LINE
  8
_0-0_
  6
CONTINUOUS
 62
    7
 10
74.58740594721553
 20
125.66257807172178
 11
74.58740594721553
 21
126.76657698591816
  0
ARC
  8
_0-0_
  6
CONTINUOUS
 62
    7
 10
132.73841034301023
 20
129.96257807172196
 40
7
 50
182.45628356933597
 51
196.25701904296878
  0
ARC
  8
_0-0_
  6
CONTINUOUS
 62
    7
 10
132.73841034301023
 20
129.96257807172196
 40
7
 50
163.74296569824216
 51
177.54370117187503
  0
ARC
  8
_0-0_
  6
CONTINUOUS
 62
    7
 10
126.97831725009183
 20
131.64225865758317
 40
1
 50
94.999984741210952
 51
163.74296569824222
  0
ARC
  8
_0-0_
  6
CONTINUOUS
 62
    7
 10
126.97831725009183
 20
128.28289748586076
 40
1
 50
196.25701904296872
 51
265
  0
ARC
  8
_0-0_
  6
CONTINUOUS
 62
    7
 10
138.23840919860123
 20
141.96257807172174
 40
0.5
 50
0
 51
89.999999999999986
  0
ARC
  8
_0-0_
  6
CONTINUOUS
 62
    7
 10
131.73840919860123
 20
141.96257807172174
 40
0.5
 50
90
 51
180
  0
ARC
  8
_0-0_
  6
CONTINUOUS
 62
    7
 10
139.23840919860123
 20
115.56257807172187
 40
0.5
 50
180
 51
270
  0
ARC
  8
_0-0_
  6
CONTINUOUS
 62
    7
 10
142.03840919860141
 20
115.56257807172187
 40
0.5
 50
270
 51
0
  0
ARC
  8
_0-0_
  6
CONTINUOUS
 62
    7
 10
143.03840919860141
 20
116.2554712905353
 40
0.5
 50
135.00000000000006
 51
180
  0
ARC
  8
_0-0_
  6
CONTINUOUS
 62
    7
 10
144.24551597978763
 20
117.46257807172196
 40
0.5
 50
90
 51
135
  0
ARC
  8
_0-0_
  6
CONTINUOUS
 62
    7
 10
146.03840919860136
 20
117.46257807172196
 40
0.5
 50
0
 51
90
  0
ARC
  8
_0-0_
  6
CONTINUOUS
 62
    7
 10
146.03840919860136
 20
112.1696848529084
 40
0.5
 50
315.00000000000006
 51
0
  0
ARC
  8
_0-0_
  6
CONTINUOUS
 62
    7
 10
144.33130241741475
 20
110.46257807172196
 40
0.5
 50
270
 51
315
  0
ARC
  8
_0-0_
  6
CONTINUOUS
 62
    7
 10
131.53840919860141
 20
139.36257807172183
 40
0.2999999999999998
 50
180
 51
270
  0
ARC
  8
_0-0_
  6
CONTINUOUS
 62
    7
 10
132.43840919860105
 20
139.36257807172183
 40
0.2999999999999998
 50
270
 51
0
  0
ARC
  8
_0-0_
  6
CONTINUOUS
 62
    7
 10
133.03840919860141
 20
139.96257807172174
 40
0.2999999999999998
 50
90
 51
180
  0
ARC
  8
_0-0_
  6
CONTINUOUS
 62
    7
 10
135.23840919860123
 20
139.96257807172174
 40
0.2999999999999998
 50
0
 51
90
  0
ARC
  8
_0-0_
  6
CONTINUOUS
 62
    7
 10
135.83840919860114
 20
139.36257807172183
 40
0.2999999999999998
 50
180
 51
270
  0
ARC
  8
_0-0_
  6
CONTINUOUS
 62
    7
 10
136.63840919860087
 20
138.76257807172192
 40
0.2999999999999998
 50
0
 51
90
  0
ARC
  8
_0-0_
  6
CONTINUOUS
 62
    7
 10
136.63840919860087
 20
136.16257807172178
 40
0.2999999999999998
 50
270
 51
0
  0
ARC
  8
_0-0_
  6
CONTINUOUS
 62
    7
 10
135.83840919860114
 20
135.56257807172187
 40
0.2999999999999998
 50
90
 51
180
  0
ARC
  8
_0-0_
  6
CONTINUOUS
 62
    7
 10
135.23840919860123
 20
134.96257807172196
 40
0.2999999999999998
 50
270
 51
0
  0
ARC
  8
_0-0_
  6
CONTINUOUS
 62
    7
 10
133.03840919860141
 20
134.96257807172196
 40
0.2999999999999998
 50
180
 51
270
  0
ARC
  8
_0-0_
  6
CONTINUOUS
 62
    7
 10
132.43840919860105
 20
135.56257807172187
 40
0.2999999999999998
 50
0
 51
89.999999999999986
  0
ARC
  8
_0-0_
  6
CONTINUOUS
 62
    7
 10
131.53840919860141
 20
135.56257807172187
 40
0.2999999999999998
 50
90
 51
180
  0
ARC
  8
_0-0_
  6
CONTINUOUS
 62
    7
 10
131.53840919860141
 20
131.86257807172183
 40
0.2999999999999998
 50
180
 51
270
  0
ARC
  8
_0-0_
  6
CONTINUOUS
 62
    7
 10
132.43840919860105
 20
131.86257807172183
 40
0.2999999999999998
 50
270
 51
0
  0
ARC
  8
_0-0_
  6
CONTINUOUS
 62
    7
 10
133.03840919860141
 20
132.46257807172196
 40
0.2999999999999998
 50
90
 51
180
  0
ARC
  8
_0-0_
  6
CONTINUOUS
 62
    7
 10
135.23840919860123
 20
132.46257807172196
 40
0.2999999999999998
 50
0
 51
90
  0
ARC
  8
_0-0_
  6
CONTINUOUS
 62
    7
 10
135.83840919860114
 20
131.86257807172183
 40
0.2999999999999998
 50
180
 51
270
  0
ARC
  8
_0-0_
  6
CONTINUOUS
 62
    7
 10
136.63840919860087
 20
131.26257807172169
 40
0.2999999999999998
 50
0
 51
90
  0
ARC
  8
_0-0_
  6
CONTINUOUS
 62
    7
 10
136.63840919860087
 20
128.66257807172178
 40
0.2999999999999998
 50
270
 51
0
  0
ARC
  8
_0-0_
  6
CONTINUOUS
 62
    7
 10
135.83840919860114
 20
128.06257807172187
 40
0.2999999999999998
 50
90
 51
180
  0
ARC
  8
_0-0_
  6
CONTINUOUS
 62
    7
 10
135.23840919860123
 20
127.46257807172196
 40
0.2999999999999998
 50
270
 51
0
  0
ARC
  8
_0-0_
  6
CONTINUOUS
 62
    7
 10
133.03840919860141
 20
127.46257807172196
 40
0.2999999999999998
 50
180
 51
270
  0
ARC
  8
_0-0_
  6
CONTINUOUS
 62
    7
 10
132.43840919860105
 20
128.06257807172187
 40
0.2999999999999998
 50
0
 51
89.999999999999986
  0
ARC
  8
_0-0_
  6
CONTINUOUS
 62
    7
 10
131.53840919860141
 20
128.06257807172187
 40
0.2999999999999998
 50
90
 51
180
  0
ARC
  8
_0-0_
  6
CONTINUOUS
 62
    7
 10
131.53840919860141
 20
124.36257807172183
 40
0.2999999999999998
 50
180
 51
270
  0
ARC
  8
_0-0_
  6
CONTINUOUS
 62
    7
 10
132.43840919860105
 20
124.36257807172183
 40
0.2999999999999998
 50
270
 51
0
  0
ARC
  8
_0-0_
  6
CONTINUOUS
 62
    7
 10
133.03840919860141
 20
124.96257807172196
 40
0.2999999999999998
 50
90
 51
180
  0
ARC
  8
_0-0_
  6
CONTINUOUS
 62
    7
 10
135.23840919860123
 20
124.96257807172196
 40
0.2999999999999998
 50
0
 51
90
  0
ARC
  8
_0-0_
  6
CONTINUOUS
 62
    7
 10
135.83840919860114
 20
124.36257807172183
 40
0.2999999999999998
 50
180
 51
270
  0
ARC
  8
_0-0_
  6
CONTINUOUS
 62
    7
 10
136.63840919860087
 20
123.76257807172169
 40
0.2999999999999998
 50
0
 51
90
  0
ARC
  8
_0-0_
  6
CONTINUOUS
 62
    7
 10
136.63840919860087
 20
121.16257807172178
 40
0.2999999999999998
 50
270
 51
0
  0
ARC
  8
_0-0_
  6
CONTINUOUS
 62
    7
 10
135.83840919860114
 20
120.56257807172187
 40
0.2999999999999998
 50
90
 51
180
  0
ARC
  8
_0-0_
  6
CONTINUOUS
 62
    7
 10
135.23840919860123
 20
119.96257807172196
 40
0.2999999999999998
 50
270
 51
0
  0
ARC
  8
_0-0_
  6
CONTINUOUS
 62
    7
 10
133.03840919860141
 20
119.96257807172196
 40
0.2999999999999998
 50
180
 51
270
  0
ARC
  8
_0-0_
  6
CONTINUOUS
 62
    7
 10
132.43840919860105
 20
120.56257807172187
 40
0.2999999999999998
 50
0
 51
89.999999999999986
  0
ARC
  8
_0-0_
  6
CONTINUOUS
 62
    7
 10
131.53840919860141
 20
120.56257807172187
 40
0.2999999999999998
 50
90
 51
180
  0
ARC
  8
_0-0_
  6
CONTINUOUS
 62
    7
 10
131.73840919860123
 20
110.46257807172196
 40
0.5
 50
180
 51
270
  0
ARC
  8
_0-0_
  6
CONTINUOUS
 62
    7
 10
131.53840919860141
 20
116.86257807172183
 40
0.2999999999999998
 50
180
 51
270
  0
ARC
  8
_0-0_
  6
CONTINUOUS
 62
    7
 10
132.43840919860105
 20
116.86257807172183
 40
0.2999999999999998
 50
270
 51
0
  0
ARC
  8
_0-0_
  6
CONTINUOUS
 62
    7
 10
133.03840919860141
 20
117.46257807172196
 40
0.2999999999999998
 50
90
 51
180
  0
ARC
  8
_0-0_
  6
CONTINUOUS
 62
    7
 10
135.23840919860123
 20
117.46257807172196
 40
0.2999999999999998
 50
0
 51
90
  0
ARC
  8
_0-0_
  6
CONTINUOUS
 62
    7
 10
135.83840919860114
 20
116.86257807172183
 40
0.2999999999999998
 50
180
 51
270
  0
ARC
  8
_0-0_
  6
CONTINUOUS
 62
    7
 10
136.63840919860087
 20
116.26257807172169
 40
0.2999999999999998
 50
0
 51
90
  0
ARC
  8
_0-0_
  6
CONTINUOUS
 62
    7
 10
136.63840919860087
 20
113.66257807172178
 40
0.2999999999999998
 50
270
 51
0
  0
ARC
  8
_0-0_
  6
CONTINUOUS
 62
    7
 10
135.83840919860114
 20
113.06257807172187
 40
0.2999999999999998
 50
90
 51
180
  0
ARC
  8
_0-0_
  6
CONTINUOUS
 62
    7
 10
135.23840919860123
 20
112.46257807172196
 40
0.2999999999999998
 50
270
 51
0
  0
ARC
  8
_0-0_
  6
CONTINUOUS
 62
    7
 10
133.03840919860141
 20
112.46257807172196
 40
0.2999999999999998
 50
180
 51
270
  0
ARC
  8
_0-0_
  6
CONTINUOUS
 62
    7
 10
132.43840919860105
 20
113.06257807172187
 40
0.2999999999999998
 50
0
 51
89.999999999999986
  0
ARC
  8
_0-0_
  6
CONTINUOUS
 62
    7
 10
131.53840919860141
 20
113.06257807172187
 40
0.2999999999999998
 50
90
 51
180
  0
ARC
  8
_0-0_
  6
CONTINUOUS
 62
    7
 10
118.73841034301023
 20
120.46257771128194
 40
0.5
 50
180
 51
270
  0
ARC
  8
_0-0_
  6
CONTINUOUS
 62
    7
 10
118.73841034301023
 20
117.46257771128194
 40
0.5
 50
90
 51
180
  0
ARC
  8
_0-0_
  6
CONTINUOUS
 62
    7
 10
118.73841034301023
 20
114.46257771128194
 40
0.5
 50
180
 51
270
  0
ARC
  8
_0-0_
  6
CONTINUOUS
 62
    7
 10
118.73841034301023
 20
134.46257771128194
 40
0.5
 50
90
 51
180
  0
ARC
  8
_0-0_
  6
CONTINUOUS
 62
    7
 10
127.73841034301023
 20
120.46257771128194
 40
0.5
 50
270
 51
0
  0
ARC
  8
_0-0_
  6
CONTINUOUS
 62
    7
 10
130.73841034301023
 20
114.46257771128194
 40
0.5
 50
270
 51
0
  0
LINE
  8
_0-0_
  6
CONTINUOUS
 62
    7
 10
127.73841034301023
 20
132.71257807172196
 11
126.89116155036191
 21
132.63845349706071
  0
LINE
  8
_0-0_
  6
CONTINUOUS
 62
    7
 10
128.23841034301023
 20
126.1125781670894
 11
127.73841034301023
 21
126.1125781670894
  0
LINE
  8
_0-0_
  6
CONTINUOUS
 62
    7
 10
132.43840919860105
 20
120.86257807172183
 11
131.53840919860141
 21
120.86257807172183
  0
LINE
  8
_0-0_
  6
CONTINUOUS
 62
    7
 10
132.73840919860123
 20
120.56257807172187
 11
132.73840919860123
 21
119.96257807172196
  0
LINE
  8
_0-0_
  6
CONTINUOUS
 62
    7
 10
132.43840919860105
 20
124.06257807172187
 11
131.53840919860141
 21
124.06257807172187
  0
LINE
  8
_0-0_
  6
CONTINUOUS
 62
    7
 10
132.73840919860123
 20
124.96257807172196
 11
132.73840919860123
 21
124.36257807172183
  0
LINE
  8
_0-0_
  6
CONTINUOUS
 62
    7
 10
135.23840919860123
 20
125.26257807172169
 11
133.03840919860141
 21
125.26257807172169
  0
LINE
  8
_0-0_
  6
CONTINUOUS
 62
    7
 10
135.53840919860141
 20
124.36257807172183
 11
135.53840919860141
 21
124.96257807172196
  0
LINE
  8
_0-0_
  6
CONTINUOUS
 62
    7
 10
136.63840919860087
 20
124.06257807172187
 11
135.83840919860114
 21
124.06257807172187
  0
LINE
  8
_0-0_
  6
CONTINUOUS
 62
    7
 10
136.93840919860105
 20
121.16257807172178
 11
136.93840919860105
 21
123.76257807172169
  0
LINE
  8
_0-0_
  6
CONTINUOUS
 62
    7
 10
135.83840919860114
 20
120.86257807172183
 11
136.63840919860087
 21
120.86257807172183
  0
LINE
  8
_0-0_
  6
CONTINUOUS
 62
    7
 10
135.53840919860141
 20
119.96257807172196
 11
135.53840919860141
 21
120.56257807172187
  0
LINE
  8
_0-0_
  6
CONTINUOUS
 62
    7
 10
133.03840919860141
 20
119.66257807172178
 11
135.23840919860123
 21
119.66257807172178
  0
LINE
  8
_0-0_
  6
CONTINUOUS
 62
    7
 10
136.93840919860105
 20
116.26257807172169
 11
136.93840919860105
 21
113.66257807172178
  0
LINE
  8
_0-0_
  6
CONTINUOUS
 62
    7
 10
135.83840919860114
 20
116.56257807172187
 11
136.63840919860087
 21
116.56257807172187
  0
LINE
  8
_0-0_
  6
CONTINUOUS
 62
    7
 10
135.53840919860141
 20
117.46257807172196
 11
135.53840919860141
 21
116.86257807172183
  0
LINE
  8
_0-0_
  6
CONTINUOUS
 62
    7
 10
133.03840919860141
 20
117.76257807172169
 11
135.23840919860123
 21
117.76257807172169
  0
LINE
  8
_0-0_
  6
CONTINUOUS
 62
    7
 10
132.73840919860123
 20
116.86257807172183
 11
132.73840919860123
 21
117.46257807172196
  0
LINE
  8
_0-0_
  6
CONTINUOUS
 62
    7
 10
131.53840919860141
 20
116.56257807172187
 11
132.43840919860105
 21
116.56257807172187
  0
LINE
  8
_0-0_
  6
CONTINUOUS
 62
    7
 10
118.73841034301023
 20
117.96257771128194
 11
131.23841034301023
 21
117.96257771128194
  0
LINE
  8
_0-0_
  6
CONTINUOUS
 62
    7
 10
127.73841034301023
 20
119.96257771128194
 11
118.73841034301023
 21
119.96257771128194
  0
LINE
  8
_0-0_
  6
CONTINUOUS
 62
    7
 10
128.23841034301023
 20
134.96257771128194
 11
128.23841034301023
 21
120.46257771128194
  0
LINE
  8
_0-0_
  6
CONTINUOUS
 62
    7
 10
127.73841034301023
 20
133.81257797635453
 11
128.23841034301023
 21
133.81257797635453
  0
LINE
  8
_0-0_
  6
CONTINUOUS
 62
    7
 10
127.73841034301023
 20
126.1125781670894
 11
127.73841034301023
 21
133.81257797635453
  0
LINE
  8
_0-0_
  6
CONTINUOUS
 62
    7
 10
126.89116155036191
 20
127.28670264638322
 11
127.73841034301023
 21
127.21257807172196
  0
LINE
  8
_0-0_
  6
CONTINUOUS
 62
    7
 10
125.96068965323667
 20
129.66257805980104
 11
125.74484192260007
 21
129.66257805980104
  0
LINE
  8
_0-0_
  6
CONTINUOUS
 62
    7
 10
125.96068965323667
 20
130.26257808364289
 11
125.96068965323667
 21
129.66257805980104
  0
LINE
  8
_0-0_
  6
CONTINUOUS
 62
    7
 10
125.74484192260007
 20
130.26257808364289
 11
125.96068965323667
 21
130.26257808364289
  0
LINE
  8
_0-0_
  6
CONTINUOUS
 62
    7
 10
136.93840919860105
 20
128.66257807172178
 11
136.93840919860105
 21
131.26257807172169
  0
LINE
  8
_0-0_
  6
CONTINUOUS
 62
    7
 10
135.83840919860114
 20
128.36257807172183
 11
136.63840919860087
 21
128.36257807172183
  0
LINE
  8
_0-0_
  6
CONTINUOUS
 62
    7
 10
135.53840919860141
 20
127.46257807172196
 11
135.53840919860141
 21
128.06257807172187
  0
LINE
  8
_0-0_
  6
CONTINUOUS
 62
    7
 10
133.03840919860141
 20
127.16257807172178
 11
135.23840919860123
 21
127.16257807172178
  0
LINE
  8
_0-0_
  6
CONTINUOUS
 62
    7
 10
132.73840919860123
 20
128.06257807172187
 11
132.73840919860123
 21
127.46257807172196
  0
LINE
  8
_0-0_
  6
CONTINUOUS
 62
    7
 10
131.53840919860141
 20
128.36257807172183
 11
132.43840919860105
 21
128.36257807172183
  0
LINE
  8
_0-0_
  6
CONTINUOUS
 62
    7
 10
132.43840919860105
 20
131.56257807172187
 11
131.53840919860141
 21
131.56257807172187
  0
LINE
  8
_0-0_
  6
CONTINUOUS
 62
    7
 10
132.73840919860123
 20
132.46257807172196
 11
132.73840919860123
 21
131.86257807172183
  0
LINE
  8
_0-0_
  6
CONTINUOUS
 62
    7
 10
135.23840919860123
 20
132.76257807172169
 11
133.03840919860141
 21
132.76257807172169
  0
LINE
  8
_0-0_
  6
CONTINUOUS
 62
    7
 10
135.53840919860141
 20
131.86257807172183
 11
135.53840919860141
 21
132.46257807172196
  0
LINE
  8
_0-0_
  6
CONTINUOUS
 62
    7
 10
136.63840919860087
 20
131.56257807172187
 11
135.83840919860114
 21
131.56257807172187
  0
LINE
  8
_0-0_
  6
CONTINUOUS
 62
    7
 10
118.73841034301023
 20
134.96257771128194
 11
131.23841034301023
 21
134.96257771128194
  0
LINE
  8
_0-0_
  6
CONTINUOUS
 62
    7
 10
118.23841034301023
 20
114.46257771128194
 11
118.23841034301023
 21
134.46257771128194
  0
LINE
  8
_0-0_
  6
CONTINUOUS
 62
    7
 10
130.73841034301023
 20
113.96257771128194
 11
118.73841034301023
 21
113.96257771128194
  0
LINE
  8
_0-0_
  6
CONTINUOUS
 62
    7
 10
131.23840919860123
 20
135.56257807172187
 11
131.23840919860123
 21
114.46257771128194
  0
LINE
  8
_0-0_
  6
CONTINUOUS
 62
    7
 10
132.43840919860105
 20
135.86257807172183
 11
131.53840919860141
 21
135.86257807172183
  0
LINE
  8
_0-0_
  6
CONTINUOUS
 62
    7
 10
132.73840919860123
 20
134.96257807172196
 11
132.73840919860123
 21
135.56257807172187
  0
LINE
  8
_0-0_
  6
CONTINUOUS
 62
    7
 10
135.23840919860123
 20
134.66257807172178
 11
133.03840919860141
 21
134.66257807172178
  0
LINE
  8
_0-0_
  6
CONTINUOUS
 62
    7
 10
135.53840919860141
 20
135.56257807172187
 11
135.53840919860141
 21
134.96257807172196
  0
LINE
  8
_0-0_
  6
CONTINUOUS
 62
    7
 10
136.63840919860087
 20
135.86257807172183
 11
135.83840919860114
 21
135.86257807172183
  0
LINE
  8
_0-0_
  6
CONTINUOUS
 62
    7
 10
136.93840919860105
 20
138.76257807172192
 11
136.93840919860105
 21
136.16257807172178
  0
LINE
  8
_0-0_
  6
CONTINUOUS
 62
    7
 10
135.83840919860114
 20
139.06257807172187
 11
136.63840919860087
 21
139.06257807172187
  0
LINE
  8
_0-0_
  6
CONTINUOUS
 62
    7
 10
135.53840919860141
 20
139.96257807172174
 11
135.53840919860141
 21
139.36257807172183
  0
LINE
  8
_0-0_
  6
CONTINUOUS
 62
    7
 10
133.03840919860141
 20
140.26257807172192
 11
135.23840919860123
 21
140.26257807172192
  0
LINE
  8
_0-0_
  6
CONTINUOUS
 62
    7
 10
132.73840919860123
 20
139.36257807172183
 11
132.73840919860123
 21
139.96257807172174
  0
LINE
  8
_0-0_
  6
CONTINUOUS
 62
    7
 10
131.53840919860141
 20
139.06257807172187
 11
132.43840919860105
 21
139.06257807172187
  0
LINE
  8
_0-0_
  6
CONTINUOUS
 62
    7
 10
131.23840919860123
 20
141.96257807172174
 11
131.23840919860123
 21
139.36257807172183
  0
LINE
  8
_0-0_
  6
CONTINUOUS
 62
    7
 10
138.23840919860123
 20
142.46257807172174
 11
131.73840919860123
 21
142.46257807172174
  0
LINE
  8
_0-0_
  6
CONTINUOUS
 62
    7
 10
138.73840919860123
 20
115.56257807172187
 11
138.73840919860123
 21
141.96257807172174
  0
LINE
  8
_0-0_
  6
CONTINUOUS
 62
    7
 10
142.03840919860141
 20
115.06257807172187
 11
139.23840919860123
 21
115.06257807172187
  0
LINE
  8
_0-0_
  6
CONTINUOUS
 62
    7
 10
142.53840919860141
 20
116.2554712905353
 11
142.53840919860141
 21
115.56257807172187
  0
LINE
  8
_0-0_
  6
CONTINUOUS
 62
    7
 10
143.89196258919429
 20
117.81613146231507
 11
142.68485580800808
 21
116.60902468112863
  0
LINE
  8
_0-0_
  6
CONTINUOUS
 62
    7
 10
146.03840919860136
 20
117.96257807172196
 11
144.24551597978763
 21
117.96257807172196
  0
LINE
  8
_0-0_
  6
CONTINUOUS
 62
    7
 10
146.53840919860141
 20
112.1696848529084
 11
146.53840919860141
 21
117.46257807172196
  0
LINE
  8
_0-0_
  6
CONTINUOUS
 62
    7
 10
144.68485580800808
 20
110.10902468112863
 11
146.39196258919435
 21
111.81613146231507
  0
LINE
  8
_0-0_
  6
CONTINUOUS
 62
    7
 10
131.23840919860123
 20
113.06257807172187
 11
131.23840919860123
 21
110.46257807172196
  0
LINE
  8
_0-0_
  6
CONTINUOUS
 62
    7
 10
132.43840919860105
 20
113.36257807172183
 11
131.53840919860141
 21
113.36257807172183
  0
LINE
  8
_0-0_
  6
CONTINUOUS
 62
    7
 10
132.73840919860123
 20
112.46257807172196
 11
132.73840919860123
 21
113.06257807172187
  0
LINE
  8
_0-0_
  6
CONTINUOUS
 62
    7
 10
135.23840919860123
 20
112.16257807172178
 11
133.03840919860141
 21
112.16257807172178
  0
LINE
  8
_0-0_
  6
CONTINUOUS
 62
    7
 10
135.53840919860141
 20
113.06257807172187
 11
135.53840919860141
 21
112.46257807172196
  0
LINE
  8
_0-0_
  6
CONTINUOUS
 62
    7
 10
136.63840919860087
 20
113.36257807172183
 11
135.83840919860114
 21
113.36257807172183
  0
LINE
  8
_0-0_
  6
CONTINUOUS
 62
    7
 10
145.53843919860066
 20
103.47159807172193
 11
145.53843919860066
 21
109.46257807172174
  0
LINE
  8
_0-0_
  6
CONTINUOUS
 62
    7
 10
145.53843919860066
 20
109.16257807172178
 11
148.23843919860138
 21
109.16257807172178
  0
LINE
  8
_0-0_
  6
CONTINUOUS
 62
    7
 10
148.23843919860138
 20
109.16257807172178
 11
148.73843919860138
 21
108.66257807172178
  0
LINE
  8
_0-0_
  6
CONTINUOUS
 62
    7
 10
148.73843919860138
 20
108.66257807172178
 11
148.73843919860138
 21
106.66257807172178
  0
LINE
  8
_0-0_
  6
CONTINUOUS
 62
    7
 10
148.73843919860138
 20
106.66257807172178
 11
148.23843919860138
 21
106.16257807172178
  0
LINE
  8
_0-0_
  6
CONTINUOUS
 62
    7
 10
148.23843919860138
 20
106.16257807172178
 11
145.53843919860066
 21
106.16257807172178
  0
ARC
  8
_0-0_
  6
CONTINUOUS
 62
    7
 10
145.03843919860066
 20
103.47159807172193
 40
0.5
 50
243.43494000000001
 51
0
  0
ARC
  8
_0-0_
  6
CONTINUOUS
 62
    7
 10
140.23843919860138
 20
109.46257807172174
 40
0.5
 50
90
 51
180
  0
ARC
  8
_0-0_
  6
CONTINUOUS
 62
    7
 10
140.23843919860138
 20
108.79649807172177
 40
0.5
 50
180
 51
210.00067999999999
  0
ARC
  8
_0-0_
  6
CONTINUOUS
 62
    7
 10
139.73842919860073
 20
107.66255807172183
 40
0.5
 50
330.00262000000009
 51
30.000684000000163
  0
ARC
  8
_0-0_
  6
CONTINUOUS
 62
    7
 10
140.23843919860138
 20
106.52854807172162
 40
0.5
 50
150.00262000000001
 51
180
  0
ARC
  8
_0-0_
  6
CONTINUOUS
 62
    7
 10
140.23843919860138
 20
105.87159807172202
 40
0.5
 50
180
 51
243.43494000000001
  0
ARC
  8
_0-0_
  6
CONTINUOUS
 62
    7
 10
145.03843919860066
 20
109.46257807172174
 40
0.5
 50
0
 51
90
  0
LINE
  8
_0-0_
  6
CONTINUOUS
 62
    7
 10
131.73840919860123
 20
109.96257807172196
 11
145.03843919860066
 21
109.96257807172196
  0
LINE
  8
_0-0_
  6
CONTINUOUS
 62
    7
 10
139.73843919860138
 20
105.56257807172165
 11
144.81483919860131
 21
103.02437807172169
  0
LINE
  8
_0-0_
  6
CONTINUOUS
 62
    7
 10
77.387405947215711
 20
105.56257807172165
 11
57.387405947215711
 21
105.56257807172165
  0
LINE
  8
_0-0_
  6
CONTINUOUS
 62
    7
 10
77.387405947215711
 20
109.96257807172196
 11
77.387405947215711
 21
142.46257462172184
  0
LINE
  8
_0-0_
  6
CONTINUOUS
 62
    7
 10
27.387405947215711
 20
109.96257807172196
 11
77.387405947215711
 21
109.96257807172196
  0
LINE
  8
_0-0_
  6
CONTINUOUS
 62
    7
 10
57.387405947215711
 20
104.86257807172194
 11
57.387405947215711
 21
109.96257807172196
  0
LINE
  8
_0-0_
  6
CONTINUOUS
 62
    7
 10
77.387405947215711
 20
104.86257807172194
 11
77.387405947215711
 21
109.96257807172196
  0
LINE
  8
_0-0_
  6
CONTINUOUS
 62
    7
 10
140.31577438042967
 20
107.66258321211569
 11
139.73843919860138
 21
106.66250296722274
  0
LINE
  8
_0-0_
  6
CONTINUOUS
 62
    7
 10
139.73843919860138
 20
106.66250296722274
 11
139.73843919860138
 21
105.87159807172202
  0
LINE
  8
_0-0_
  6
CONTINUOUS
 62
    7
 10
139.73843919860138
 20
108.66251304590151
 11
140.31577438042967
 21
107.66258321211569
  0
LINE
  8
_0-0_
  6
CONTINUOUS
 62
    7
 10
139.73843919860138
 20
109.46257807172174
 11
139.73843919860138
 21
108.66251304590151
  0
LINE
  8
_0-0_
  6
CONTINUOUS
 62
    7
 10
27.387405947215711
 20
105.56257807172165
 11
47.387405947215711
 21
105.56257807172165
  0
LINE
  8
_0-0_
  6
CONTINUOUS
 62
    7
 10
47.387405947215711
 20
104.86257807172194
 11
47.387405947215711
 21
109.96257807172196
  0
LINE
  8
_0-0_
  6
CONTINUOUS
 62
    7
 10
27.387405947215711
 20
104.86257807172194
 11
27.387405947215711
 21
109.96257807172196
  0
ARC
  8
_0-0_
  6
CONTINUOUS
 62
    7
 10
292.98691004377366
 20
113.55845430560407
 40
1.5
 50
90
 51
180
  0
LINE
  8
_0-0_
  6
CONTINUOUS
 62
    7
 10
321.98691004377366
 20
115.05845430560407
 11
292.98691004377366
 21
115.05845430560407
  0
ARC
  8
_0-0_
  6
CONTINUOUS
 62
    7
 10
321.98691004377366
 20
113.55845430560407
 40
1.5
 50
0
 51
90
  0
LINE
  8
_0-0_
  6
CONTINUOUS
 62
    7
 10
323.48691004377366
 20
94.558454305604073
 11
323.48691004377366
 21
113.55845430560407
  0
ARC
  8
_0-0_
  6
CONTINUOUS
 62
    7
 10
321.98691004377366
 20
94.558454305604073
 40
1.5
 50
270
 51
0
  0
LINE
  8
_0-0_
  6
CONTINUOUS
 62
    7
 10
292.98691004377366
 20
93.058454305604073
 11
321.98691004377366
 21
93.058454305604073
  0
LINE
  8
_0-0_
  6
CONTINUOUS
 62
    7
 10
291.48691004377366
 20
94.558454305604073
 11
291.48691004377366
 21
113.55845430560407
  0
ARC
  8
_0-0_
  6
CONTINUOUS
 62
    7
 10
292.98691004377366
 20
94.558454305604073
 40
1.5
 50
180
 51
270
  0
LINE
  8
_0-0_
  6
CONTINUOUS
 62
    7
 10
331.12179913174992
 20
93.058454305604073
 11
335.12179913174992
 21
93.058454305604073
  0
LINE
  8
_0-0_
  6
CONTINUOUS
 62
    7
 10
331.12179913174992
 20
93.058454305604073
 11
331.12179913174992
 21
115.05845430560407
  0
LINE
  8
_0-0_
  6
CONTINUOUS
 62
    7
 10
331.12179913174992
 20
115.05845430560407
 11
335.12179913174992
 21
115.05845430560407
  0
LINE
  8
_0-0_
  6
CONTINUOUS
 62
    7
 10
335.12179913174992
 20
115.05845430560407
 11
335.12179913174992
 21
93.058454305604073
  0
ARC
  8
_0-1_
  6
CONTINUOUS
 62
  152
 10
207.83298591162117
 20
112.87835378289788
 40
2.2000000000000459
 50
180
 51
0
  0
ARC
  8
_0-1_
  6
CONTINUOUS
 62
  152
 10
207.83298591162117
 20
117.47835378289778
 40
2.2000000000001019
 50
0
 51
180
  0
ARC
  8
_0-1_
  6
CONTINUOUS
 62
  152
 10
247.83298591162117
 20
117.47835378289778
 40
2.2000000000000961
 50
149.9999999999973
 51
180
  0
ARC
  8
_0-1_
  6
CONTINUOUS
 62
  152
 10
247.83298591162117
 20
112.87835378289788
 40
2.200000000000033
 50
329.99999999999983
 51
0
  0
ARC
  8
_0-1_
  6
CONTINUOUS
 62
  152
 10
247.83298591162117
 20
117.47835378289778
 40
2.1999999999999029
 50
0
 51
30.000000000002753
  0
ARC
  8
_0-1_
  6
CONTINUOUS
 62
  152
 10
247.83298591162117
 20
117.47835378289778
 40
2.2000000000000899
 50
30.000000000002753
 51
149.99999999999727
  0
ARC
  8
_0-1_
  6
CONTINUOUS
 62
  152
 10
247.83298591162117
 20
112.87835378289788
 40
2.200000000000109
 50
180
 51
210.00000000000011
  0
ARC
  8
_0-1_
  6
CONTINUOUS
 62
  152
 10
247.83298591162117
 20
112.87835378289788
 40
2.2000000000000388
 50
210.00000000000009
 51
329.99999999999983
  0
LINE
  8
_0-1_
  6
CONTINUOUS
 62
  152
 10
219.72078220503232
 20
103.1783537828976
 11
219.72078220503232
 21
106.1783537828976
  0
LINE
  8
_0-1_
  6
CONTINUOUS
 62
  152
 10
218.47078220503232
 20
103.1783537828976
 11
219.72078220503232
 21
103.1783537828976
  0
LINE
  8
_0-1_
  6
CONTINUOUS
 62
  152
 10
220.47078220503232
 20
101.1783537828976
 11
218.47078220503232
 21
103.1783537828976
  0
LINE
  8
_0-1_
  6
CONTINUOUS
 62
  152
 10
222.47078220503232
 20
103.1783537828976
 11
220.47078220503232
 21
101.1783537828976
  0
LINE
  8
_0-1_
  6
CONTINUOUS
 62
  152
 10
221.22078220503232
 20
103.1783537828976
 11
222.47078220503232
 21
103.1783537828976
  0
LINE
  8
_0-1_
  6
CONTINUOUS
 62
  152
 10
221.22078220503232
 20
106.1783537828976
 11
221.22078220503232
 21
103.1783537828976
  0
LINE
  8
_0-1_
  6
CONTINUOUS
 62
  152
 10
219.72078220503232
 20
106.1783537828976
 11
221.22078220503232
 21
106.1783537828976
  0
LINE
  8
_0-1_
  6
CONTINUOUS
 62
  152
 10
205.92773002329528
 20
111.77835378289797
 11
203.46950106576702
 21
111.77835378289797
  0
LINE
  8
_0-1_
  6
CONTINUOUS
 62
  152
 10
212.19647075747531
 20
111.77835378289797
 11
209.73824179994705
 21
111.77835378289797
  0
LINE
  8
_0-1_
  6
CONTINUOUS
 62
  152
 10
204.06490947927529
 20
110.41835378289784
 11
211.60106234396704
 21
110.41835378289784
  0
LINE
  8
_0-1_
  6
CONTINUOUS
 62
  152
 10
210.21155691119208
 20
109.05835378289817
 11
205.45441491205025
 21
109.05835378289817
  0
LINE
  8
_0-1_
  6
CENTER1
 62
  152
 10
207.83298591162117
 20
120.69077807950794
 11
207.83298591162117
 21
109.60216197612431
  0
LINE
  8
_0-1_
  6
CONTINUOUS
 62
  152
 10
210.21155691119208
 20
121.29835378289749
 11
205.45441491205025
 21
121.29835378289749
  0
LINE
  8
_0-1_
  6
CONTINUOUS
 62
  152
 10
212.19647075747531
 20
118.57835378289769
 11
209.73824179994705
 21
118.57835378289769
  0
LINE
  8
_0-1_
  6
CONTINUOUS
 62
  152
 10
204.06490947927529
 20
119.93835378289782
 11
211.60106234396704
 21
119.93835378289782
  0
LINE
  8
_0-1_
  6
CONTINUOUS
 62
  152
 10
205.92773002329528
 20
118.57835378289769
 11
203.46950106576702
 21
118.57835378289769
  0
LINE
  8
_0-1_
  6
CONTINUOUS
 62
  152
 10
203.33298591162117
 20
115.85835378289789
 11
205.63298591162135
 21
115.85835378289789
  0
LINE
  8
_0-1_
  6
CONTINUOUS
 62
  152
 10
205.63298591162135
 20
117.21835378289802
 11
203.33298591162117
 21
117.21835378289802
  0
LINE
  8
_0-1_
  6
CONTINUOUS
 62
  152
 10
205.63298591162135
 20
112.87835378289788
 11
205.63298591162135
 21
117.47835378289778
  0
LINE
  8
_0-1_
  6
CONTINUOUS
 62
  152
 10
203.33298591162117
 20
113.13835378289764
 11
205.63298591162135
 21
113.13835378289764
  0
LINE
  8
_0-1_
  6
CONTINUOUS
 62
  152
 10
205.63298591162135
 20
114.49835378289731
 11
203.33298591162117
 21
114.49835378289731
  0
LINE
  8
_0-1_
  6
CENTER1
 62
  152
 10
211.16334294746645
 20
115.1783537828976
 11
204.58505045870612
 21
115.1783537828976
  0
LINE
  8
_0-1_
  6
CONTINUOUS
 62
  152
 10
210.03298591162144
 20
115.85835378289789
 11
212.33298591162117
 21
115.85835378289789
  0
LINE
  8
_0-1_
  6
CONTINUOUS
 62
  152
 10
212.33298591162117
 20
114.49835378289731
 11
210.03298591162144
 21
114.49835378289731
  0
LINE
  8
_0-1_
  6
CONTINUOUS
 62
  152
 10
210.03298591162144
 20
113.13835378289764
 11
212.33298591162117
 21
113.13835378289764
  0
LINE
  8
_0-1_
  6
CONTINUOUS
 62
  152
 10
210.03298591162144
 20
117.47835378289778
 11
210.03298591162144
 21
112.87835378289788
  0
LINE
  8
_0-1_
  6
CONTINUOUS
 62
  152
 10
212.33298591162117
 20
117.21835378289802
 11
210.03298591162144
 21
117.21835378289802
  0
LINE
  8
_0-1_
  6
CONTINUOUS
 62
  152
 10
220.16631924495465
 20
116.6783537828976
 11
235.49965257828768
 21
116.6783537828976
  0
LINE
  8
_0-1_
  6
CONTINUOUS
 62
  152
 10
220.16631924495465
 20
109.34502044956412
 11
220.16631924495465
 21
116.6783537828976
  0
LINE
  8
_0-1_
  6
CONTINUOUS
 62
  152
 10
235.49965257828768
 20
109.34502044956412
 11
220.16631924495465
 21
109.34502044956412
  0
LINE
  8
_0-1_
  6
CONTINUOUS
 62
  152
 10
235.49965257828768
 20
116.6783537828976
 11
235.49965257828768
 21
109.34502044956412
  0
LINE
  8
_0-1_
  6
CONTINUOUS
 62
  152
 10
249.73824179994705
 20
111.77835378289797
 11
252.19647075747531
 21
111.77835378289797
  0
LINE
  8
_0-1_
  6
CONTINUOUS
 62
  152
 10
245.45441491205025
 20
109.05835378289817
 11
250.21155691119208
 21
109.05835378289817
  0
LINE
  8
_0-1_
  6
CENTER1
 62
  152
 10
247.83298591162117
 20
120.22624954909156
 11
247.83298591162117
 21
109.97968364743451
  0
LINE
  8
_0-1_
  6
CONTINUOUS
 62
  152
 10
245.45441491205025
 20
121.29835378289749
 11
250.21155691119208
 21
121.29835378289749
  0
LINE
  8
_0-1_
  6
CONTINUOUS
 62
  152
 10
243.46950106576656
 20
118.57835378289769
 11
245.92773002329528
 21
118.57835378289769
  0
LINE
  8
_0-1_
  6
CONTINUOUS
 62
  152
 10
251.60106234396704
 20
119.93835378289782
 11
244.06490947927529
 21
119.93835378289782
  0
LINE
  8
_0-1_
  6
CONTINUOUS
 62
  152
 10
249.73824179994705
 20
118.57835378289769
 11
252.19647075747531
 21
118.57835378289769
  0
LINE
  8
_0-1_
  6
CONTINUOUS
 62
  152
 10
252.33298591162117
 20
115.85835378289789
 11
250.03298591162098
 21
115.85835378289789
  0
LINE
  8
_0-1_
  6
CONTINUOUS
 62
  152
 10
250.03298591162098
 20
117.21835378289802
 11
252.33298591162117
 21
117.21835378289802
  0
LINE
  8
_0-1_
  6
CONTINUOUS
 62
  152
 10
250.03298591162098
 20
112.87835378289788
 11
250.03298591162098
 21
117.47835378289778
  0
LINE
  8
_0-1_
  6
CONTINUOUS
 62
  152
 10
252.33298591162117
 20
113.13835378289764
 11
250.03298591162098
 21
113.13835378289764
  0
LINE
  8
_0-1_
  6
CONTINUOUS
 62
  152
 10
250.03298591162098
 20
114.49835378289731
 11
252.33298591162117
 21
114.49835378289731
  0
LINE
  8
_0-1_
  6
CENTER1
 62
  152
 10
244.9401929511842
 20
115.1783537828976
 11
251.03733618631082
 21
115.1783537828976
  0
LINE
  8
_0-1_
  6
CONTINUOUS
 62
  152
 10
243.33298591162117
 20
113.13835378289764
 11
245.63298591162089
 21
113.13835378289764
  0
LINE
  8
_0-1_
  6
CONTINUOUS
 62
  152
 10
245.63298591162089
 20
114.49835378289731
 11
243.33298591162117
 21
114.49835378289731
  0
LINE
  8
_0-1_
  6
CONTINUOUS
 62
  152
 10
243.33298591162117
 20
115.85835378289789
 11
245.63298591162089
 21
115.85835378289789
  0
LINE
  8
_0-1_
  6
CONTINUOUS
 62
  152
 10
245.63298591162089
 20
117.21835378289802
 11
243.33298591162117
 21
117.21835378289802
  0
LINE
  8
_0-1_
  6
CONTINUOUS
 62
  152
 10
245.63298591162089
 20
112.87835378289788
 11
245.63298591162089
 21
117.47835378289778
  0
LINE
  8
_0-1_
  6
CONTINUOUS
 62
  152
 10
243.46950106576656
 20
111.77835378289797
 11
245.92773002329528
 21
111.77835378289797
  0
LINE
  8
_0-1_
  6
CONTINUOUS
 62
  152
 10
251.60106234396704
 20
110.41835378289784
 11
244.06490947927529
 21
110.41835378289784
  0
LINE
  8
_0-1_
  6
CONTINUOUS
 62
  152
 10
233.19518961821001
 20
103.1783537828976
 11
235.19518961821001
 21
101.1783537828976
  0
LINE
  8
_0-1_
  6
CONTINUOUS
 62
  152
 10
234.44518961821001
 20
103.1783537828976
 11
233.19518961821001
 21
103.1783537828976
  0
LINE
  8
_0-1_
  6
CONTINUOUS
 62
  152
 10
234.44518961821001
 20
106.1783537828976
 11
234.44518961821001
 21
103.1783537828976
  0
LINE
  8
_0-1_
  6
CONTINUOUS
 62
  152
 10
235.94518961821001
 20
106.1783537828976
 11
234.44518961821001
 21
106.1783537828976
  0
LINE
  8
_0-1_
  6
CONTINUOUS
 62
  152
 10
235.94518961821001
 20
103.1783537828976
 11
235.94518961821001
 21
106.1783537828976
  0
LINE
  8
_0-1_
  6
CONTINUOUS
 62
  152
 10
237.19518961821001
 20
103.1783537828976
 11
235.94518961821001
 21
103.1783537828976
  0
LINE
  8
_0-1_
  6
CONTINUOUS
 62
  152
 10
235.19518961821001
 20
101.1783537828976
 11
237.19518961821001
 21
103.1783537828976
  0
LINE
  8
_0-1_
  6
CENTER1
 62
  152
 10
227.83298591162117
 20
50.382248674491848
 11
227.83298591162117
 21
69.706488890107494
  0
LINE
  8
_0-1_
  6
DASHED2
 62
  152
 10
245.63298591162089
 20
56.578847671453559
 11
245.63298591162089
 21
53.578847671453559
  0
LINE
  8
_0-1_
  6
DASHED2
 62
  152
 10
250.03298591162098
 20
53.578847671453559
 11
250.03298591162098
 21
56.578847671453559
  0
LINE
  8
_0-1_
  6
CENTER1
 62
  152
 10
247.83298591162117
 20
58.982220497929802
 11
247.83298591162117
 21
51.030023715049765
  0
LINE
  8
_0-1_
  6
DASHED2
 62
  152
 10
210.03298591162144
 20
56.578847671453559
 11
210.03298591162144
 21
53.578847671453559
  0
LINE
  8
_0-1_
  6
CENTER1
 62
  152
 10
207.83298591162117
 20
51.775312480937146
 11
207.83298591162117
 21
59.727509263818547
  0
LINE
  8
_0-1_
  6
DASHED2
 62
  152
 10
205.63298591162135
 20
56.578847671453559
 11
205.63298591162135
 21
53.578847671453559
  0
LINE
  8
_0-1_
  6
DASHED2
 62
  152
 10
302.37261502688767
 20
56.578847671453559
 11
302.37261502688767
 21
53.578847671453559
  0
LINE
  8
_0-1_
  6
CENTER1
 62
  152
 10
306.87261502688767
 20
51.030023715049765
 11
306.87261502688767
 21
58.982220497929802
  0
LINE
  8
_0-1_
  6
DASHED2
 62
  152
 10
311.37261502688767
 20
56.578847671453559
 11
311.37261502688767
 21
53.578847671453559
  0
LINE
  8
_0-1_
  6
CENTER1
 62
  152
 10
67.387405947215711
 20
50.853107912767143
 11
67.387405947215711
 21
39.711378405197934
  0
LINE
  8
_0-1_
  6
CENTER1
 62
  152
 10
37.387405947215711
 20
50.853107912767143
 11
37.387405947215711
 21
39.711378405197934
  0
LINE
  8
_0-1_
  6
CONTINUOUS
 62
  152
 10
66.387405947215484
 20
43.381967628406187
 11
66.387405947215484
 21
40.181967628405459
  0
LINE
  8
_0-1_
  6
CONTINUOUS
 62
  152
 10
65.887405947215484
 20
40.681967628405459
 11
68.887405947215484
 21
40.681967628405459
  0
LINE
  8
_0-1_
  6
CONTINUOUS
 62
  152
 10
68.387405947215484
 20
40.181967628405459
 11
68.387405947215484
 21
43.381967628406187
  0
LINE
  8
_0-1_
  6
CONTINUOUS
 62
  152
 10
36.387405947215484
 20
43.381967628406187
 11
36.387405947215484
 21
40.181967628405459
  0
LINE
  8
_0-1_
  6
CONTINUOUS
 62
  152
 10
35.887405947215484
 20
40.681967628405459
 11
38.887405947215484
 21
40.681967628405459
  0
LINE
  8
_0-1_
  6
CONTINUOUS
 62
  152
 10
38.387405947215484
 20
40.181967628405459
 11
38.387405947215484
 21
43.381967628406187
  0
LINE
  8
_0-1_
  6
DASHED2
 62
  152
 10
70.187405947215439
 20
60.68199762840618
 11
70.187405947215439
 21
57.68199762840618
  0
LINE
  8
_0-1_
  6
DASHED2
 62
  152
 10
74.58740594721553
 20
57.68199762840618
 11
74.58740594721553
 21
60.68199762840618
  0
LINE
  8
_0-1_
  6
CENTER1
 62
  152
 10
72.387405947215711
 20
63.085370454882423
 11
72.387405947215711
 21
55.133173672002386
  0
LINE
  8
_0-1_
  6
DASHED2
 62
  152
 10
34.587405947215984
 20
60.68199762840618
 11
34.587405947215984
 21
57.68199762840618
  0
LINE
  8
_0-1_
  6
CENTER1
 62
  152
 10
32.387405947215711
 20
55.878462437889766
 11
32.387405947215711
 21
63.830659220771167
  0
LINE
  8
_0-1_
  6
DASHED2
 62
  152
 10
30.187405947215893
 20
60.68199762840618
 11
30.187405947215893
 21
57.68199762840618
  0
LINE
  8
_0-1_
  6
CENTER1
 62
  152
 10
52.387405947215711
 20
54.485398631444468
 11
52.387405947215711
 21
73.809638847060114
  0
LINE
  8
_0-1_
  6
CENTER1
 62
  152
 10
144.23840919860123
 20
57.181997626395855
 11
144.23840919860123
 21
50.709691505922706
  0
LINE
  8
_0-1_
  6
CENTER1
 62
  152
 10
136.73840919860123
 20
50.709691505922706
 11
136.73840919860123
 21
57.181997626395855
  0
LINE
  8
_0-1_
  6
CENTER1
 62
  152
 10
151.73840919860123
 20
50.709691505922706
 11
151.73840919860123
 21
63.881996529670573
  0
LINE
  8
_0-1_
  6
CENTER1
 62
  152
 10
159.23840919860123
 20
57.181997626395855
 11
159.23840919860123
 21
50.709691505922706
  0
LINE
  8
_0-1_
  6
CONTINUOUS
 62
  152
 10
128.43840919860105
 20
43.381967626396431
 11
128.43840919860105
 21
40.181967626395704
  0
LINE
  8
_0-1_
  6
CONTINUOUS
 62
  152
 10
127.93840919860105
 20
40.681967626395704
 11
130.93840919860105
 21
40.681967626395704
  0
LINE
  8
_0-1_
  6
CONTINUOUS
 62
  152
 10
130.43840919860105
 20
40.181967626395704
 11
130.43840919860105
 21
43.381967626396431
  0
LINE
  8
_0-1_
  6
CENTER2
 62
  152
 10
136.73843919860116
 20
30.18197762639636
 11
126.73838919860128
 21
30.18197762639636
  0
LINE
  8
_0-1_
  6
CENTER2
 62
  152
 10
131.73841919860121
 20
35.181997626395855
 11
131.73841919860121
 21
25.181957626395956
  0
LINE
  8
_0-1_
  6
CENTER1
 62
  152
 10
129.43840919860122
 20
49.442868393740582
 11
129.43840919860122
 21
39.546512458993561
  0
LINE
  8
_0-1_
  6
PHANTOM1
 62
  152
 10
111.73841919860121
 20
10.18197762639636
 11
151.73841919860121
 21
10.18197762639636
  0
LINE
  8
_0-1_
  6
PHANTOM1
 62
  152
 10
151.73841919860121
 20
10.18197762639636
 11
151.73841919860121
 21
50.18197762639636
  0
LINE
  8
_0-1_
  6
PHANTOM1
 62
  152
 10
151.73841919860121
 20
50.18197762639636
 11
111.73841919860121
 21
50.18197762639636
  0
LINE
  8
_0-1_
  6
PHANTOM1
 62
  152
 10
111.73841919860121
 20
50.18197762639636
 11
111.73841919860121
 21
10.18197762639636
  0
LINE
  8
_0-1_
  6
PHANTOM1
 62
  152
 10
92.887606800756885
 20
10.18197762639636
 11
28.81126739366573
 21
10.18197762639636
  0
LINE
  8
_0-1_
  6
PHANTOM1
 62
  152
 10
82.16963910351194
 20
50.18197762639636
 11
18.093299696420672
 21
50.18197762639636
  0
LINE
  8
_0-1_
  6
PHANTOM1
 62
  152
 10
17.417540917017732
 20
52.703943724789326
 11
29.71440717212522
 21
6.8114140868487425
  0
LINE
  8
_0-1_
  6
PHANTOM1
 62
  152
 10
81.543265329149563
 20
52.519636376845824
 11
93.790746579216432
 21
6.8114140868487425
  0
LINE
  8
_0-1_
  6
CENTER1
 62
  152
 10
52.387405947215711
 20
102.97163842798454
 11
52.387405947215711
 21
142.46257462172184
  0
LINE
  8
_0-1_
  6
CONTINUOUS
 62
  152
 10
76.750890793069857
 20
131.3625780717216
 11
76.006023256085655
 21
131.3625780717216
  0
LINE
  8
_0-1_
  6
CONTINUOUS
 62
  152
 10
27.387405947215711
 20
139.06257690672214
 11
77.387405947215711
 21
139.06257690672214
  0
LINE
  8
_0-1_
  6
CONTINUOUS
 62
  152
 10
77.387405947215711
 20
135.86257995872211
 11
27.387405947215711
 21
135.86257995872211
  0
LINE
  8
_0-1_
  6
CONTINUOUS
 62
  152
 10
77.387405947215711
 20
113.36258067372228
 11
27.387405947215711
 21
113.36258067372228
  0
LINE
  8
_0-1_
  6
CONTINUOUS
 62
  152
 10
66.887405947215711
 20
116.56257738372233
 11
77.387405947215711
 21
116.56257738372233
  0
LINE
  8
_0-1_
  6
CONTINUOUS
 62
  152
 10
58.999609653804555
 20
115.96257807172196
 11
58.999609653804555
 21
118.96257807172196
  0
LINE
  8
_0-1_
  6
CONTINUOUS
 62
  152
 10
57.749609653804555
 20
115.96257807172196
 11
58.999609653804555
 21
115.96257807172196
  0
LINE
  8
_0-1_
  6
CONTINUOUS
 62
  152
 10
59.749609653804555
 20
113.96257807172196
 11
57.749609653804555
 21
115.96257807172196
  0
LINE
  8
_0-1_
  6
CONTINUOUS
 62
  152
 10
61.749609653804555
 20
115.96257807172196
 11
59.749609653804555
 21
113.96257807172196
  0
LINE
  8
_0-1_
  6
CONTINUOUS
 62
  152
 10
60.499609653804555
 20
115.96257807172196
 11
61.749609653804555
 21
115.96257807172196
  0
LINE
  8
_0-1_
  6
CONTINUOUS
 62
  152
 10
60.499609653804555
 20
118.96257807172196
 11
60.499609653804555
 21
115.96257807172196
  0
LINE
  8
_0-1_
  6
CONTINUOUS
 62
  152
 10
58.999609653804555
 20
118.96257807172196
 11
60.499609653804555
 21
118.96257807172196
  0
LINE
  8
_0-1_
  6
CONTINUOUS
 62
  152
 10
45.775202240626868
 20
118.96257807172196
 11
44.275202240626868
 21
118.96257807172196
  0
LINE
  8
_0-1_
  6
CONTINUOUS
 62
  152
 10
45.775202240626868
 20
115.96257807172196
 11
45.775202240626868
 21
118.96257807172196
  0
LINE
  8
_0-1_
  6
CONTINUOUS
 62
  152
 10
47.025202240626868
 20
115.96257807172196
 11
45.775202240626868
 21
115.96257807172196
  0
LINE
  8
_0-1_
  6
CONTINUOUS
 62
  152
 10
45.025202240626868
 20
113.96257807172196
 11
47.025202240626868
 21
115.96257807172196
  0
LINE
  8
_0-1_
  6
CONTINUOUS
 62
  152
 10
43.025202240626868
 20
115.96257807172196
 11
45.025202240626868
 21
113.96257807172196
  0
LINE
  8
_0-1_
  6
CONTINUOUS
 62
  152
 10
44.275202240626868
 20
115.96257807172196
 11
43.025202240626868
 21
115.96257807172196
  0
LINE
  8
_0-1_
  6
CONTINUOUS
 62
  152
 10
44.275202240626868
 20
118.96257807172196
 11
44.275202240626868
 21
115.96257807172196
  0
LINE
  8
_0-1_
  6
CONTINUOUS
 62
  152
 10
60.054072613881772
 20
129.46257807172196
 11
44.720739280548742
 21
129.46257807172196
  0
LINE
  8
_0-1_
  6
CONTINUOUS
 62
  152
 10
60.054072613881772
 20
122.12924473838802
 11
60.054072613881772
 21
129.46257807172196
  0
LINE
  8
_0-1_
  6
CONTINUOUS
 62
  152
 10
44.720739280548742
 20
122.12924473838802
 11
60.054072613881772
 21
122.12924473838802
  0
LINE
  8
_0-1_
  6
CONTINUOUS
 62
  152
 10
44.720739280548742
 20
129.46257807172196
 11
44.720739280548742
 21
122.12924473838802
  0
LINE
  8
_0-1_
  6
CONTINUOUS
 62
  152
 10
36.006023256085655
 20
131.3625780717216
 11
36.750890793070766
 21
131.3625780717216
  0
LINE
  8
_0-1_
  6
CENTER1
 62
  152
 10
32.387405947215711
 20
133.84257473616299
 11
32.387405947215711
 21
123.46257807172196
  0
LINE
  8
_0-1_
  6
CONTINUOUS
 62
  152
 10
28.768788638345768
 20
131.3625780717216
 11
28.023921101361566
 21
131.3625780717216
  0
LINE
  8
_0-1_
  6
CONTINUOUS
 62
  152
 10
29.660359588230904
 20
132.72257807172173
 11
28.619329514869833
 21
132.72257807172173
  0
LINE
  8
_0-1_
  6
CONTINUOUS
 62
  152
 10
34.765976946787532
 20
134.08257807172185
 11
30.00883494764571
 21
134.08257807172185
  0
LINE
  8
_0-1_
  6
CONTINUOUS
 62
  152
 10
36.15548237956159
 20
132.72257807172173
 11
35.114452306200519
 21
132.72257807172173
  0
LINE
  8
_0-1_
  6
CONTINUOUS
 62
  152
 10
30.00883494764571
 20
121.84257807172207
 11
34.765976946787532
 21
121.84257807172207
  0
LINE
  8
_0-1_
  6
CONTINUOUS
 62
  152
 10
30.482150058890738
 20
124.56257807172187
 11
28.023921101361566
 21
124.56257807172187
  0
LINE
  8
_0-1_
  6
CONTINUOUS
 62
  152
 10
27.887405947215711
 20
125.922578071722
 11
30.187405947215893
 21
125.922578071722
  0
LINE
  8
_0-1_
  6
CONTINUOUS
 62
  152
 10
29.581694026856212
 20
127.28257807172167
 11
27.887405947215711
 21
127.28257807172167
  0
LINE
  8
_0-1_
  6
CONTINUOUS
 62
  152
 10
27.887405947215711
 20
128.64257807172226
 11
28.738843217036674
 21
128.64257807172226
  0
LINE
  8
_0-1_
  6
CONTINUOUS
 62
  152
 10
28.50761205938511
 20
130.00257807172193
 11
27.887405947215711
 21
130.00257807172193
  0
LINE
  8
_0-1_
  6
CENTER1
 62
  152
 10
36.267406061656629
 20
129.96257462172207
 11
28.507405832774793
 21
129.96257462172207
  0
LINE
  8
_0-1_
  6
CONTINUOUS
 62
  152
 10
36.887405947215711
 20
130.00257807172193
 11
36.267199835046313
 21
130.00257807172193
  0
LINE
  8
_0-1_
  6
CONTINUOUS
 62
  152
 10
36.035968677394749
 20
128.64257807172226
 11
36.887405947215711
 21
128.64257807172226
  0
LINE
  8
_0-1_
  6
CONTINUOUS
 62
  152
 10
36.887405947215711
 20
127.28257807172167
 11
35.193117867575211
 21
127.28257807172167
  0
LINE
  8
_0-1_
  6
CONTINUOUS
 62
  152
 10
34.587405947216439
 20
125.922578071722
 11
36.887405947215711
 21
125.922578071722
  0
LINE
  8
_0-1_
  6
CONTINUOUS
 62
  152
 10
36.750890793070766
 20
124.56257807172187
 11
34.292661835541594
 21
124.56257807172187
  0
LINE
  8
_0-1_
  6
CONTINUOUS
 62
  152
 10
28.619329514869833
 20
123.20257807172175
 11
36.15548237956159
 21
123.20257807172175
  0
LINE
  8
_0-1_
  6
CONTINUOUS
 62
  152
 10
37.887405947215711
 20
116.56257738372233
 11
27.387405947215711
 21
116.56257738372233
  0
LINE
  8
_0-1_
  6
CONTINUOUS
 62
  152
 10
74.765976946785713
 20
121.84257807172207
 11
70.008834947643891
 21
121.84257807172207
  0
LINE
  8
_0-1_
  6
CENTER1
 62
  152
 10
72.387405947215711
 20
133.84257473616299
 11
72.387405947215711
 21
123.46257807172196
  0
LINE
  8
_0-1_
  6
CONTINUOUS
 62
  152
 10
68.738843217036674
 20
128.64257807172226
 11
67.887405947215711
 21
128.64257807172226
  0
LINE
  8
_0-1_
  6
CONTINUOUS
 62
  152
 10
67.887405947215711
 20
127.28257807172167
 11
69.581694026856212
 21
127.28257807172167
  0
LINE
  8
_0-1_
  6
CONTINUOUS
 62
  152
 10
70.187405947214984
 20
125.922578071722
 11
67.887405947215711
 21
125.922578071722
  0
LINE
  8
_0-1_
  6
CONTINUOUS
 62
  152
 10
68.023921101360656
 20
124.56257807172187
 11
70.482150058889829
 21
124.56257807172187
  0
LINE
  8
_0-1_
  6
CONTINUOUS
 62
  152
 10
76.15548237956159
 20
123.20257807172175
 11
68.619329514869833
 21
123.20257807172175
  0
LINE
  8
_0-1_
  6
CONTINUOUS
 62
  152
 10
74.292661835540684
 20
124.56257807172187
 11
76.750890793069857
 21
124.56257807172187
  0
LINE
  8
_0-1_
  6
CONTINUOUS
 62
  152
 10
76.887405947215711
 20
125.922578071722
 11
74.58740594721553
 21
125.922578071722
  0
LINE
  8
_0-1_
  6
CONTINUOUS
 62
  152
 10
75.193117867575211
 20
127.28257807172167
 11
76.887405947215711
 21
127.28257807172167
  0
LINE
  8
_0-1_
  6
CONTINUOUS
 62
  152
 10
76.887405947215711
 20
128.64257807172226
 11
76.035968677394749
 21
128.64257807172226
  0
LINE
  8
_0-1_
  6
CONTINUOUS
 62
  152
 10
76.267199835046313
 20
130.00257807172193
 11
76.887405947215711
 21
130.00257807172193
  0
LINE
  8
_0-1_
  6
CENTER1
 62
  152
 10
68.507405832774793
 20
129.96257462172207
 11
76.267406061656629
 21
129.96257462172207
  0
LINE
  8
_0-1_
  6
CONTINUOUS
 62
  152
 10
67.887405947215711
 20
130.00257807172193
 11
68.50761205938511
 21
130.00257807172193
  0
LINE
  8
_0-1_
  6
CONTINUOUS
 62
  152
 10
68.768788638345768
 20
131.3625780717216
 11
68.023921101360656
 21
131.3625780717216
  0
LINE
  8
_0-1_
  6
CONTINUOUS
 62
  152
 10
69.660359588230904
 20
132.72257807172173
 11
68.619329514869833
 21
132.72257807172173
  0
LINE
  8
_0-1_
  6
CONTINUOUS
 62
  152
 10
74.765976946785713
 20
134.08257807172185
 11
70.008834947643891
 21
134.08257807172185
  0
LINE
  8
_0-1_
  6
CONTINUOUS
 62
  152
 10
76.15548237956159
 20
132.72257807172173
 11
75.114452306200519
 21
132.72257807172173
  0
LINE
  8
_0-1_
  6
PHANTOM1
 62
  152
 10
17.417540917017732
 20
132.48454417011493
 11
29.71440717212522
 21
86.592014532174346
  0
LINE
  8
_0-1_
  6
PHANTOM1
 62
  152
 10
81.543265329149563
 20
132.30023682217143
 11
93.790746579216432
 21
86.592014532174346
  0
LINE
  8
_0-1_
  6
PHANTOM1
 62
  152
 10
28.811267393665503
 20
89.962578071721964
 11
92.887606800756828
 21
89.962578071721964
  0
LINE
  8
_0-1_
  6
PHANTOM1
 62
  152
 10
82.16963910351194
 20
129.96257807172196
 11
77.387405947215711
 21
129.96257807172196
  0
LINE
  8
_0-1_
  6
PHANTOM1
 62
  152
 10
27.387405947215711
 20
129.96257807172196
 11
18.093299696420672
 21
129.96257807172196
  0
LINE
  8
_0-1_
  6
CENTER1
 62
  152
 10
131.73840919860123
 20
122.46257807172196
 11
138.21071531907438
 21
122.46257807172196
  0
LINE
  8
_0-1_
  6
CENTER1
 62
  152
 10
138.21071531907438
 20
114.96257807172196
 11
131.73840919860123
 21
114.96257807172196
  0
LINE
  8
_0-1_
  6
CENTER1
 62
  152
 10
138.21071531907438
 20
129.96257807172196
 11
125.03841029532651
 21
129.96257807172196
  0
LINE
  8
_0-1_
  6
CENTER1
 62
  152
 10
131.73840919860123
 20
137.46257807172196
 11
138.21071531907438
 21
137.46257807172196
  0
LINE
  8
_0-1_
  6
CONTINUOUS
 62
  152
 10
145.53843919860066
 20
106.66257807172178
 11
148.73843919860138
 21
106.66257807172178
  0
LINE
  8
_0-1_
  6
CONTINUOUS
 62
  152
 10
148.23843919860138
 20
106.16257807172178
 11
148.23843919860138
 21
109.16257807172178
  0
LINE
  8
_0-1_
  6
CONTINUOUS
 62
  152
 10
148.73843919860138
 20
108.66257807172178
 11
145.53843919860066
 21
108.66257807172178
  0
LINE
  8
_0-1_
  6
CENTER1
 62
  152
 10
139.47753843125651
 20
107.66257807172201
 11
149.37389436600353
 21
107.66257807172201
  0
LINE
  8
_0-1_
  6
CENTER1
 62
  152
 10
64.740342102602654
 20
107.66257807172167
 11
69.930595400300717
 21
107.66257807172167
  0
LINE
  8
_0-1_
  6
CENTER1
 62
  152
 10
67.387405947215711
 20
110.79422361137961
 11
67.387405947215711
 21
104.56591965414179
  0
CIRCLE
  8
_0-1_
  6
CONTINUOUS
 62
  152
 10
67.387405947215711
 20
107.66257807172167
 40
1.5
  0
CIRCLE
  8
_0-1_
  6
CONTINUOUS
 62
  152
 10
67.387405947215711
 20
107.66257807172167
 40
1.2999999523162842
  0
LINE
  8
_0-1_
  6
CONTINUOUS
 62
  152
 10
77.387405947215711
 20
108.66265317572163
 11
68.505372756364977
 21
108.66265317572163
  0
LINE
  8
_0-1_
  6
CONTINUOUS
 62
  152
 10
66.269439138066446
 20
108.66265317572163
 11
57.387405947215711
 21
108.66265317572163
  0
LINE
  8
_0-1_
  6
CONTINUOUS
 62
  152
 10
77.387405947215711
 20
107.66257807172167
 11
68.887405947215711
 21
107.66257807172167
  0
LINE
  8
_0-1_
  6
CONTINUOUS
 62
  152
 10
65.887405947215711
 20
107.66257807172167
 11
57.387405947215711
 21
107.66257807172167
  0
LINE
  8
_0-1_
  6
CONTINUOUS
 62
  152
 10
77.387405947215711
 20
106.66250296772171
 11
68.505372756364977
 21
106.66250296772171
  0
LINE
  8
_0-1_
  6
CONTINUOUS
 62
  152
 10
66.269439138066446
 20
106.66250296772171
 11
57.387405947215711
 21
106.66250296772171
  0
LINE
  8
_0-1_
  6
CENTER1
 62
  152
 10
40.034469791828769
 20
107.66257807172167
 11
34.844216494130478
 21
107.66257807172167
  0
LINE
  8
_0-1_
  6
CENTER1
 62
  152
 10
37.387405947215711
 20
110.79422361137961
 11
37.387405947215711
 21
104.56591965414179
  0
CIRCLE
  8
_0-1_
  6
CONTINUOUS
 62
  152
 10
37.387405947215711
 20
107.66257807172167
 40
1.5
  0
CIRCLE
  8
_0-1_
  6
CONTINUOUS
 62
  152
 10
37.387405947215711
 20
107.66257807172167
 40
1.2999999523162842
  0
LINE
  8
_0-1_
  6
CONTINUOUS
 62
  152
 10
27.387405947215711
 20
108.66265317572163
 11
36.269439138066446
 21
108.66265317572163
  0
LINE
  8
_0-1_
  6
CONTINUOUS
 62
  152
 10
38.505372756364977
 20
108.66265317572163
 11
47.387405947215711
 21
108.66265317572163
  0
LINE
  8
_0-1_
  6
CONTINUOUS
 62
  152
 10
27.387405947215711
 20
107.66257807172167
 11
35.887405947215711
 21
107.66257807172167
  0
LINE
  8
_0-1_
  6
CONTINUOUS
 62
  152
 10
38.887405947215711
 20
107.66257807172167
 11
47.387405947215711
 21
107.66257807172167
  0
LINE
  8
_0-1_
  6
CONTINUOUS
 62
  152
 10
27.387405947215711
 20
106.66250296772171
 11
36.269439138066446
 21
106.66250296772171
  0
LINE
  8
_0-1_
  6
CONTINUOUS
 62
  152
 10
38.505372756364977
 20
106.66250296772171
 11
47.387405947215711
 21
106.66250296772171
  0
TEXT
  8
_0-1_
 62
    7
 10
21.492275688284735
 20
146.15944912827774
 40
4.2999999999999998
 41
0.744186046511628
 50
0
  1
MC40-S
  0
TEXT
  8
_0-1_
 62
    7
 10
200.45757559193152
 20
127.37881695481701
 40
4.2999999999999998
 41
0.744186046511628
 50
0
  1
MC40-N
  0
LINE
  8
_0-1_
  6
CENTER1
 62
  152
 10
304.48691004377366
 20
111.62753775806175
 11
304.48691004377366
 21
101.95530874641247
  0
LINE
  8
_0-1_
  6
CENTER1
 62
  152
 10
299.47295125235155
 20
106.55845430560407
 11
309.51718907214115
 21
106.55845430560407
  0
ENDSEC
  0
EOF
