  0
SECTION
  2
HEADER
  9
$ACADVER
  1
AC1009
  9
$INSBASE
 10
0
 20
0
 30
0
  9
$EXTMIN
 10
0
 20
0
  9
$EXTMAX
 10
1189
 20
841
  9
$LIMMIN
 10
0
 20
0
  9
$LIMMAX
 10
1189
 20
841
  9
$LTSCALE
 40
1
  0
ENDSEC
  0
SECTION
  2
TABLES
  0
TABLE
  2
LTYPE
 70
     9
  0
LTYPE
  2
CONTINUOUS
 70
    64
  3
実線
 72
    65
 73
     0
 40
0.0
  0
LTYPE
  2
DASHED1
 70
    64
  3
--  --  --  --  --  --  --  --  
 72
    65
 73
     2
 40
2.5
 49
1.25
 49
-1.25
  0
LTYPE
  2
DASHED2
 70
    64
  3
----    ----    ----    ----    
 72
    65
 73
     2
 40
5.0
 49
2.5
 49
-2.5
  0
LTYPE
  2
DASHED3
 70
    64
  3
------  ------  ------  ------  
 72
    65
 73
     2
 40
5.0
 49
3.75
 49
-1.25
  0
LTYPE
  2
CENTER1
 70
    64
  3
----- - ----- - ----- - ----- - 
 72
    65
 73
     4
 40
10.0
 49
6.25
 49
-1.25
 49
1.25
 49
-1.25
  0
LTYPE
  2
CENTER2
 70
    64
  3
----------  --  ----------  --  
 72
    65
 73
     4
 40
20.0
 49
12.5
 49
-2.5
 49
2.5
 49
-2.5
  0
LTYPE
  2
PHANTOM1
 70
    64
  3
--- - - --- - - --- - - --- - - 
 72
    65
 73
     6
 40
10.0
 49
3.25
 49
-1.25
 49
1.25
 49
-1.25
 49
1.25
 49
-1.25
  0
LTYPE
  2
PHANTOM2
 70
    64
  3
--------  -  -  --------  -  -  
 72
    65
 73
     6
 40
20.0
 49
10.0
 49
-2.5
 49
1.25
 49
-2.5
 49
1.25
 49
-2.5
  0
LTYPE
  2
DOT
 70
    64
  3
-   -   -   -   -   -   -   -   
 72
    65
 73
     2
 40
2.5
 49
0.625
 49
-1.875
  0
LTYPE
  2
DUMMY
 70
    64
  3
ダミー
 72
    65
 73
     0
 40
0.0
  0
LTYPE
  2
RAND1
 70
    64
  3
ランダム線1
 72
    65
 73
     4
 40
10.0
 49
1.0
 49
-2.0
 49
3.0
 49
-4.0
  0
LTYPE
  2
RAND2
 70
    64
  3
ランダム線2
 72
    65
 73
     4
 40
14.0
 49
2.0
 49
-3.0
 49
4.0
 49
-5.0
  0
LTYPE
  2
RAND3
 70
    64
  3
ランダム線3
 72
    65
 73
     4
 40
18.0
 49
3.0
 49
-4.0
 49
5.0
 49
-6.0
  0
LTYPE
  2
RAND4
 70
    64
  3
ランダム線4
 72
    65
 73
     4
 40
22.0
 49
4.0
 49
-5.0
 49
6.0
 49
-7.0
  0
LTYPE
  2
RAND5
 70
    64
  3
ランダム線5
 72
    65
 73
     4
 40
26.0
 49
5.0
 49
-6.0
 49
7.0
 49
-8.0
  0
LTYPE
  2
LONG1
 70
    64
  3
----------  --  ----------  --  
 72
    65
 73
     4
 40
40.0
 49
32.5
 49
-2.5
 49
2.5
 49
-2.5
  0
LTYPE
  2
LONG2
 70
    64
  3
--------  -  -  --------  -  -  
 72
    65
 73
     6
 40
40.0
 49
30.0
 49
-2.5
 49
1.25
 49
-2.5
 49
1.25
 49
-2.5
  0
LTYPE
  2
LONG3
 70
    64
  3
+++++++++++++++..+++++++++++++++
 72
    65
 73
     2
 40
40.0
 49
37.5
 49
-2.5
  0
LTYPE
  2
LONG4
 70
    64
  3
+++++++++++++++..+++++++++++++++
 72
    65
 73
     2
 40
80.0
 49
75.0
 49
-5.0
  0
LTYPE
  2
LONG5
 70
    64
  3
----------  --  ----------  --  
 72
    65
 73
     4
 40
60.0
 49
37.5
 49
-7.5
 49
7.5
 49
-7.5
  0
LTYPE
  2
dashed
 70
   64
  3
-------   -------------   ------
 72
   65
 73
    2
 40
7.5
 49
6
 49
-1.5
  0
LTYPE
  2
dashed_spaced
 70
   64
  3
----        --------        ----
 72
   65
 73
    2
 40
12
 49
6
 49
-6
  0
LTYPE
  2
long_dashed_dotted
 70
   64
  3
------------- --- --------------
 72
   65
 73
    4
 40
15.25
 49
12
 49
-1.5
 49
0.25
 49
-1.5
  0
LTYPE
  2
long_dashed_double-dotted
 70
   64
  3
----------- --- --- ------------
 72
   65
 73
    6
 40
17
 49
12
 49
-1.5
 49
0.25
 49
-1.5
 49
0.25
 49
-1.5
  0
LTYPE
  2
long_dashed_triplicate-dotted
 70
   64
  3
--------- --- --- --- ----------
 72
   65
 73
    8
 40
18.75
 49
12
 49
-1.5
 49
0.25
 49
-1.5
 49
0.25
 49
-1.5
 49
0.25
 49
-1.5
  0
LTYPE
  2
dotted
 70
   64
  3
   -       -       -       -    
 72
   65
 73
    2
 40
1.75
 49
0.25
 49
-1.5
  0
LTYPE
  2
chain
 70
   64
  3
-------------- -- --------------
 72
   65
 73
    4
 40
18.5
 49
12
 49
-1.5
 49
3.5
 49
-1.5
  0
LTYPE
  2
chain_double_dash
 70
   64
  3
------------ -- -- -------------
 72
   65
 73
    6
 40
23.5
 49
12
 49
-1.5
 49
3.5
 49
-1.5
 49
3.5
 49
-1.5
  0
LTYPE
  2
dashed_dotted
 70
   64
  3
-----------     -     ----------
 72
   65
 73
    4
 40
9.25
 49
6
 49
-1.5
 49
0.25
 49
-1.5
  0
LTYPE
  2
double-dashed_dotted
 70
   64
  3
------   -----------   -   -----
 72
   65
 73
    6
 40
16.75
 49
6
 49
-1.5
 49
6
 49
-1.5
 49
0.25
 49
-1.5
  0
LTYPE
  2
dashed_double-dotted
 70
   64
  3
---------    -    -    ---------
 72
   65
 73
    6
 40
11
 49
6
 49
-1.5
 49
0.25
 49
-1.5
 49
0.25
 49
-1.5
  0
LTYPE
  2
double-dashed_double-dotted
 70
   64
  3
-----   ---------   -   -   ----
 72
   65
 73
    8
 40
18.5
 49
6
 49
-1.5
 49
6
 49
-1.5
 49
0.25
 49
-1.5
 49
0.25
 49
-1.5
  0
LTYPE
  2
dashed_triplicate-dotted
 70
   64
  3
-------    -    -    -    ------
 72
   65
 73
    8
 40
12.75
 49
6
 49
-1.5
 49
0.25
 49
-1.5
 49
0.25
 49
-1.5
 49
0.25
 49
-1.5
  0
LTYPE
  2
double-dashed_triplicate-dotted
 70
   64
  3
-----  ---------  -  -  -  -----
 72
   65
 73
   10
 40
20.25
 49
6
 49
-1.5
 49
6
 49
-1.5
 49
0.25
 49
-1.5
 49
0.25
 49
-1.5
 49
0.25
 49
-1.5
  0
LTYPE
  2
undefined
 70
   64
  3
--------------------------------
 72
   65
 73
    0
 40
0
  0
ENDTAB
  0
TABLE
  2
STYLE
  5
3
100
AcDbSymbolTable
 70
     1
  0
STYLE
  5
10
100
AcDbSymbolTableRecord
100
AcDbTextStyleTableRecord
  2
STANDARD
 70
     0
 40
0.0
 41
1.0
 50
0.0
 71
     0
 42
0.2
  3
txt
  4
bigfont.shx
  0
STYLE
  5
26
100
AcDbSymbolTableRecord
100
AcDbTextStyleTableRecord
  2
TATEGAKI
 70
    68
 40
0.0
 41
1.0
 50
0.0
 71
     0
 42
1.0
  3
txt
  4
bigfont.shx
  0
ENDTAB
  0
TABLE
  2
LAYER
 70
    4
  0
LAYER
  2
_0-0_
 70
   64
 62
    7
  6
CONTINUOUS
  0
LAYER
  2
_0-1_
 70
   64
 62
    7
  6
CONTINUOUS
  0
LAYER
  2
_0-8_
 70
   64
 62
    7
  6
CONTINUOUS
  0
LAYER
  2
ADD_LINE
 70
   64
 62
    7
  6
CONTINUOUS
  0
ENDTAB
  0
ENDSEC
  0
SECTION
  2
BLOCKS
  0
ENDSEC
  0
SECTION
  2
ENTITIES
  0
ARC
  8
_0-0_
  6
CONTINUOUS
 62
    7
 10
197.47973950395709
 20
99.666911526378158
 40
0.5
 50
180
 51
270
  0
ARC
  8
_0-0_
  6
CONTINUOUS
 62
    7
 10
197.47973950395709
 20
101.66691152637816
 40
0.5
 50
180
 51
270
  0
ARC
  8
_0-0_
  6
CONTINUOUS
 62
    7
 10
207.97973950395755
 20
95.666911526378158
 40
0.5
 50
180
 51
270
  0
ARC
  8
_0-0_
  6
CONTINUOUS
 62
    7
 10
235.97973950395755
 20
95.666911526378158
 40
0.5
 50
270
 51
0
  0
ARC
  8
_0-0_
  6
CONTINUOUS
 62
    7
 10
246.47973950395755
 20
115.66691152637816
 40
0.5
 50
0
 51
90
  0
ARC
  8
_0-0_
  6
CONTINUOUS
 62
    7
 10
197.47973950395755
 20
115.66691152637816
 40
0.5
 50
90
 51
180
  0
ARC
  8
_0-0_
  6
CONTINUOUS
 62
    7
 10
207.97973950395755
 20
115.66691152637816
 40
0.5
 50
90
 51
180
  0
ARC
  8
_0-0_
  6
CONTINUOUS
 62
    7
 10
235.97973950395755
 20
115.66691152637816
 40
0.5
 50
0
 51
90
  0
ARC
  8
_0-0_
  6
CONTINUOUS
 62
    7
 10
246.47973950395755
 20
99.666911526378158
 40
0.5
 50
270
 51
0
  0
ARC
  8
_0-0_
  6
CONTINUOUS
 62
    7
 10
246.47973950395755
 20
101.66691152637816
 40
0.5
 50
270
 51
0
  0
ARC
  8
_0-0_
  6
CONTINUOUS
 62
    7
 10
237.47973950395755
 20
98.166911526378158
 40
1
 50
90
 51
180
  0
ARC
  8
_0-0_
  6
CONTINUOUS
 62
    7
 10
206.47973950395755
 20
98.166911526378158
 40
1
 50
0
 51
90
  0
ARC
  8
_0-0_
  6
CONTINUOUS
 62
    7
 10
205.47973950395755
 20
103.16691152637816
 40
2
 50
270
 51
0
  0
ARC
  8
_0-0_
  6
CONTINUOUS
 62
    7
 10
238.47973950395709
 20
103.16691152637816
 40
2
 50
180
 51
270
  0
ARC
  8
_0-0_
  6
CONTINUOUS
 62
    7
 10
292.51936861922405
 20
60.067405414934058
 40
0.5
 50
90
 51
180
  0
ARC
  8
_0-0_
  6
CONTINUOUS
 62
    7
 10
289.51936861922405
 20
60.067405414934058
 40
0.5
 50
0
 51
90
  0
ARC
  8
_0-0_
  6
CONTINUOUS
 62
    7
 10
286.51936861922405
 20
48.067405414934058
 40
0.5
 50
180
 51
270
  0
ARC
  8
_0-0_
  6
CONTINUOUS
 62
    7
 10
286.51936861922405
 20
60.067405414934058
 40
0.5
 50
90
 51
180
  0
ARC
  8
_0-0_
  6
CONTINUOUS
 62
    7
 10
306.51936861922405
 20
60.067405414934058
 40
0.5
 50
0
 51
90
  0
ARC
  8
_0-0_
  6
CONTINUOUS
 62
    7
 10
292.51936861922405
 20
51.067405414934058
 40
0.5
 50
180
 51
270
  0
CIRCLE
  8
_0-0_
  6
CONTINUOUS
 62
    7
 10
298.63366363611004
 20
100.54701204908463
 40
3.25
  0
CIRCLE
  8
_0-0_
  6
CONTINUOUS
 62
    7
 10
298.63366363611004
 20
100.54701204908463
 40
1.7000000476837158
  0
ARC
  8
_0-0_
  6
CONTINUOUS
 62
    7
 10
207.97973950395755
 20
60.067405414934058
 40
0.5
 50
90
 51
138.81407483428791
  0
ARC
  8
_0-0_
  6
CONTINUOUS
 62
    7
 10
197.47973950395755
 20
50.067405414934058
 40
0.5
 50
90
 51
138.81407483429649
  0
ARC
  8
_0-0_
  6
CONTINUOUS
 62
    7
 10
246.47973950395709
 20
50.067405414934058
 40
0.5
 50
0
 51
41.185925165710493
  0
ARC
  8
_0-0_
  6
CONTINUOUS
 62
    7
 10
235.97973950395755
 20
60.067405414934058
 40
0.5
 50
0
 51
41.185925165709953
  0
ARC
  8
_0-0_
  6
CONTINUOUS
 62
    7
 10
197.47973950395755
 20
50.067405414934058
 40
0.5000000000001395
 50
138.81407483429652
 51
180.00000000000011
  0
ARC
  8
_0-0_
  6
CONTINUOUS
 62
    7
 10
246.47973950395709
 20
50.067405414934058
 40
0.50000000000007
 50
41.185925165710493
 51
90
  0
ARC
  8
_0-0_
  6
CONTINUOUS
 62
    7
 10
207.97973950395755
 20
60.067405414934058
 40
0.5000000000000539
 50
138.81407483428791
 51
180
  0
ARC
  8
_0-0_
  6
CONTINUOUS
 62
    7
 10
235.97973950395755
 20
60.067405414934058
 40
0.5000000000000757
 50
41.185925165709953
 51
90
  0
ARC
  8
_0-0_
  6
CONTINUOUS
 62
    7
 10
235.97973950395755
 20
48.067405414934058
 40
0.5
 50
270
 51
0
  0
ARC
  8
_0-0_
  6
CONTINUOUS
 62
    7
 10
207.97973950395755
 20
48.067405414934058
 40
0.5
 50
180
 51
270
  0
ARC
  8
_0-0_
  6
CONTINUOUS
 62
    7
 10
236.97973950395755
 20
51.067405414934058
 40
0.5
 50
180
 51
270
  0
ARC
  8
_0-0_
  6
CONTINUOUS
 62
    7
 10
206.97973950395755
 20
51.067405414934058
 40
0.5
 50
270
 51
0
  0
LINE
  8
_0-0_
  6
CONTINUOUS
 62
    7
 10
207.47973950395755
 20
103.16691152637816
 11
207.47973950395755
 21
115.66691152637816
  0
LINE
  8
_0-0_
  6
CONTINUOUS
 62
    7
 10
197.47973950395709
 20
101.16691152637816
 11
205.47973950395755
 21
101.16691152637816
  0
LINE
  8
_0-0_
  6
CONTINUOUS
 62
    7
 10
236.47973950395709
 20
103.16691152637816
 11
236.47973950395755
 21
115.66691152637816
  0
LINE
  8
_0-0_
  6
CONTINUOUS
 62
    7
 10
238.47973950395709
 20
101.16691152637816
 11
246.47973950395755
 21
101.16691152637816
  0
LINE
  8
_0-0_
  6
CONTINUOUS
 62
    7
 10
236.47973950395755
 20
98.166911526378158
 11
236.47973950395755
 21
95.666911526378158
  0
LINE
  8
_0-0_
  6
CONTINUOUS
 62
    7
 10
246.47973950395755
 20
99.166911526378158
 11
237.47973950395755
 21
99.166911526378158
  0
LINE
  8
_0-0_
  6
CONTINUOUS
 62
    7
 10
246.97973950395755
 20
115.66691152637816
 11
246.97973950395755
 21
99.666911526378158
  0
LINE
  8
_0-0_
  6
CONTINUOUS
 62
    7
 10
197.47973950395755
 20
116.16691152637816
 11
246.47973950395755
 21
116.16691152637816
  0
LINE
  8
_0-0_
  6
CONTINUOUS
 62
    7
 10
196.97973950395709
 20
99.666911526378158
 11
196.97973950395755
 21
115.66691152637816
  0
LINE
  8
_0-0_
  6
CONTINUOUS
 62
    7
 10
206.47973950395755
 20
99.166911526378158
 11
197.47973950395709
 21
99.166911526378158
  0
LINE
  8
_0-0_
  6
CONTINUOUS
 62
    7
 10
207.47973950395755
 20
95.666911526378158
 11
207.47973950395755
 21
98.166911526378158
  0
LINE
  8
_0-0_
  6
CONTINUOUS
 62
    7
 10
235.97973950395755
 20
95.166911526378158
 11
207.97973950395755
 21
95.166911526378158
  0
LINE
  8
_0-0_
  6
CONTINUOUS
 62
    7
 10
207.97973950395755
 20
60.567405414934058
 11
235.97973950395755
 21
60.567405414934058
  0
LINE
  8
_0-0_
  6
CONTINUOUS
 62
    7
 10
206.97973950395755
 20
50.567405414934058
 11
197.47973950395755
 21
50.567405414934058
  0
LINE
  8
_0-0_
  6
CONTINUOUS
 62
    7
 10
207.47973950395755
 20
60.067405414934058
 11
207.47973950395755
 21
48.067405414934058
  0
LINE
  8
_0-0_
  6
CONTINUOUS
 62
    7
 10
197.10345115660385
 20
50.396657718868539
 11
207.60345115660431
 21
60.396657718868539
  0
LINE
  8
_0-0_
  6
CONTINUOUS
 62
    7
 10
196.97973950395755
 20
47.567405414934058
 11
196.97973950395755
 21
50.067405414934058
  0
LINE
  8
_0-0_
  6
CONTINUOUS
 62
    7
 10
246.97973950395709
 20
47.567405414934058
 11
196.97973950395755
 21
47.567405414934058
  0
LINE
  8
_0-0_
  6
CONTINUOUS
 62
    7
 10
246.97973950395709
 20
50.067405414934058
 11
246.97973950395709
 21
47.567405414934058
  0
LINE
  8
_0-0_
  6
CONTINUOUS
 62
    7
 10
236.97973950395755
 20
50.567405414934058
 11
246.47973950395709
 21
50.567405414934058
  0
LINE
  8
_0-0_
  6
CONTINUOUS
 62
    7
 10
236.47973950395755
 20
60.067405414934058
 11
236.47973950395755
 21
48.067405414934058
  0
LINE
  8
_0-0_
  6
CONTINUOUS
 62
    7
 10
246.85602785131078
 20
50.396657718868539
 11
236.35602785131078
 21
60.396657718868539
  0
LINE
  8
_0-0_
  6
CONTINUOUS
 62
    7
 10
290.01936861922405
 20
47.567405414934058
 11
290.01936861922405
 21
60.067405414934058
  0
LINE
  8
_0-0_
  6
CONTINUOUS
 62
    7
 10
286.51936861922405
 20
47.567405414934058
 11
307.01936861922405
 21
47.567405414934058
  0
LINE
  8
_0-0_
  6
CONTINUOUS
 62
    7
 10
286.01936861922405
 20
60.067405414934058
 11
286.01936861922405
 21
48.067405414934058
  0
LINE
  8
_0-0_
  6
CONTINUOUS
 62
    7
 10
306.51936861922405
 20
60.567405414934058
 11
286.51936861922405
 21
60.567405414934058
  0
LINE
  8
_0-0_
  6
CONTINUOUS
 62
    7
 10
307.01936861922405
 20
47.567405414934058
 11
307.01936861922405
 21
60.067405414934058
  0
LINE
  8
_0-0_
  6
CONTINUOUS
 62
    7
 10
292.51936861922405
 20
50.567405414934058
 11
307.01936861922405
 21
50.567405414934058
  0
LINE
  8
_0-0_
  6
CONTINUOUS
 62
    7
 10
292.01936861922405
 20
60.067405414934058
 11
292.01936861922405
 21
51.067405414934058
  0
ARC
  8
_0-0_
  6
CONTINUOUS
 62
    7
 10
287.13366363611004
 20
107.54701204908463
 40
1.5
 50
90
 51
180
  0
LINE
  8
_0-0_
  6
CONTINUOUS
 62
    7
 10
316.13366363611004
 20
109.04701204908463
 11
287.13366363611004
 21
109.04701204908463
  0
ARC
  8
_0-0_
  6
CONTINUOUS
 62
    7
 10
316.13366363611004
 20
107.54701204908463
 40
1.5
 50
0
 51
90
  0
LINE
  8
_0-0_
  6
CONTINUOUS
 62
    7
 10
317.63366363611004
 20
88.547012049084628
 11
317.63366363611004
 21
107.54701204908463
  0
ARC
  8
_0-0_
  6
CONTINUOUS
 62
    7
 10
316.13366363611004
 20
88.547012049084628
 40
1.5
 50
270
 51
0
  0
LINE
  8
_0-0_
  6
CONTINUOUS
 62
    7
 10
287.13366363611004
 20
87.047012049084628
 11
316.13366363611004
 21
87.047012049084628
  0
LINE
  8
_0-0_
  6
CONTINUOUS
 62
    7
 10
285.63366363611004
 20
88.547012049084628
 11
285.63366363611004
 21
107.54701204908463
  0
ARC
  8
_0-0_
  6
CONTINUOUS
 62
    7
 10
287.13366363611004
 20
88.547012049084628
 40
1.5
 50
180
 51
270
  0
LINE
  8
_0-0_
  6
CONTINUOUS
 62
    7
 10
325.26855272408631
 20
87.047012049084628
 11
329.26855272408631
 21
87.047012049084628
  0
LINE
  8
_0-0_
  6
CONTINUOUS
 62
    7
 10
325.26855272408631
 20
87.047012049084628
 11
325.26855272408631
 21
109.04701204908463
  0
LINE
  8
_0-0_
  6
CONTINUOUS
 62
    7
 10
325.26855272408631
 20
109.04701204908463
 11
329.26855272408631
 21
109.04701204908463
  0
LINE
  8
_0-0_
  6
CONTINUOUS
 62
    7
 10
329.26855272408631
 20
109.04701204908463
 11
329.26855272408631
 21
87.047012049084628
  0
LINE
  8
_0-0_
  6
CONTINUOUS
 62
    7
 10
148.47449069291559
 20
37.703797600629059
 11
135.09107144664648
 21
37.703797600629059
  0
LINE
  8
_0-0_
  6
CONTINUOUS
 62
    7
 10
134.83126382551114
 20
37.553797600628968
 11
133.561093233294
 21
35.353797600628695
  0
LINE
  8
_0-0_
  6
CONTINUOUS
 62
    7
 10
133.30128561215867
 20
35.203797600629059
 11
131.27449069291555
 21
35.203797600629059
  0
LINE
  8
_0-0_
  6
CONTINUOUS
 62
    7
 10
130.97449069291559
 20
35.503797600628786
 11
130.97449069291559
 21
36.403797600628877
  0
LINE
  8
_0-0_
  6
CONTINUOUS
 62
    7
 10
130.67449069291553
 20
36.703797600629059
 11
127.19875476162753
 21
36.703797600629059
  0
LINE
  8
_0-0_
  6
CONTINUOUS
 62
    7
 10
126.98662272727148
 20
36.615929634984695
 11
125.66235865855953
 21
35.291665566272968
  0
LINE
  8
_0-0_
  6
CONTINUOUS
 62
    7
 10
125.5744906929155
 20
35.07953353191715
 11
125.5744906929155
 21
33.703797600629059
  0
LINE
  8
_0-0_
  6
CONTINUOUS
 62
    7
 10
125.87449069291557
 20
33.403797600628877
 11
127.87449069291557
 21
33.403797600628877
  0
LINE
  8
_0-0_
  6
CONTINUOUS
 62
    7
 10
128.17449069291553
 20
33.103797600628695
 11
128.17449069291553
 21
31.703797600629059
  0
LINE
  8
_0-0_
  6
CONTINUOUS
 62
    7
 10
127.87449069291557
 20
31.403797600628877
 11
124.85990088954048
 21
31.403797600628877
  0
LINE
  8
_0-0_
  6
CONTINUOUS
 62
    7
 10
124.59157273224054
 20
31.569633521979085
 11
123.0061625356156
 21
34.740453915228954
  0
LINE
  8
_0-0_
  6
CONTINUOUS
 62
    7
 10
122.97449069291559
 20
34.874617993878928
 11
122.97449069291559
 21
35.57953353191715
  0
LINE
  8
_0-0_
  6
CONTINUOUS
 62
    7
 10
124.47449069291559
 20
37.328061669340912
 11
124.47449069291559
 21
44.203797600629002
  0
LINE
  8
_0-0_
  6
CONTINUOUS
 62
    7
 10
125.47449069291559
 20
45.203797600629002
 11
127.5744906929155
 21
45.203797600629002
  0
LINE
  8
_0-0_
  6
CONTINUOUS
 62
    7
 10
127.87449069291557
 20
44.90379760062882
 11
127.87449069291557
 21
44.003797600628786
  0
LINE
  8
_0-0_
  6
CONTINUOUS
 62
    7
 10
127.5744906929155
 20
43.703797600629059
 11
126.97449069291559
 21
43.703797600629059
  0
LINE
  8
_0-0_
  6
CONTINUOUS
 62
    7
 10
126.67449069291553
 20
43.403797600628877
 11
126.67449069291553
 21
41.203797600629059
  0
LINE
  8
_0-0_
  6
CONTINUOUS
 62
    7
 10
126.97449069291559
 20
40.903797600628877
 11
127.5744906929155
 21
40.903797600628877
  0
LINE
  8
_0-0_
  6
CONTINUOUS
 62
    7
 10
127.87449069291557
 20
40.603797600628695
 11
127.87449069291557
 21
39.803797600628968
  0
LINE
  8
_0-0_
  6
CONTINUOUS
 62
    7
 10
128.17449069291553
 20
39.503797600628786
 11
130.77449069291555
 21
39.503797600628786
  0
LINE
  8
_0-0_
  6
CONTINUOUS
 62
    7
 10
131.0744906929155
 20
39.803797600628968
 11
131.0744906929155
 21
40.603797600628695
  0
LINE
  8
_0-0_
  6
CONTINUOUS
 62
    7
 10
131.37449069291557
 20
40.903797600628877
 11
131.97449069291559
 21
40.903797600628877
  0
LINE
  8
_0-0_
  6
CONTINUOUS
 62
    7
 10
132.27449069291555
 20
41.203797600629059
 11
132.27449069291555
 21
43.403797600628877
  0
LINE
  8
_0-0_
  6
CONTINUOUS
 62
    7
 10
131.97449069291559
 20
43.703797600629059
 11
131.37449069291557
 21
43.703797600629059
  0
LINE
  8
_0-0_
  6
CONTINUOUS
 62
    7
 10
131.0744906929155
 20
44.003797600628786
 11
131.0744906929155
 21
44.90379760062882
  0
LINE
  8
_0-0_
  6
CONTINUOUS
 62
    7
 10
132.474490939129
 20
45.203797501452243
 11
132.474490939129
 21
57.703797501452243
  0
LINE
  8
_0-0_
  6
CONTINUOUS
 62
    7
 10
134.474490939129
 20
57.703797501452243
 11
134.474490939129
 21
48.703797501452243
  0
LINE
  8
_0-0_
  6
CONTINUOUS
 62
    7
 10
134.974490939129
 20
48.2037975014523
 11
149.474490939129
 21
48.2037975014523
  0
LINE
  8
_0-0_
  6
CONTINUOUS
 62
    7
 10
148.32449120420159
 20
48.203797501451845
 11
148.32449120420159
 21
48.703797501451845
  0
LINE
  8
_0-0_
  6
CONTINUOUS
 62
    7
 10
148.32449120420159
 20
48.703797501451845
 11
140.62449139493646
 21
48.703797501451845
  0
LINE
  8
_0-0_
  6
CONTINUOUS
 62
    7
 10
140.62449139493646
 20
48.703797501451845
 11
140.62449139493646
 21
48.203797501451845
  0
LINE
  8
_0-0_
  6
CONTINUOUS
 62
    7
 10
141.72449129956902
 20
48.703797501451845
 11
141.79861587423028
 21
49.551046294100161
  0
LINE
  8
_0-0_
  6
CONTINUOUS
 62
    7
 10
144.1744912876481
 20
50.481518191225405
 11
144.77449131148995
 21
50.481518191225405
  0
LINE
  8
_0-0_
  6
CONTINUOUS
 62
    7
 10
144.77449131148995
 20
50.481518191225405
 11
144.77449131148995
 21
50.697365921862001
  0
LINE
  8
_0-0_
  6
CONTINUOUS
 62
    7
 10
144.1744912876481
 20
50.697365921862001
 11
144.1744912876481
 21
50.481518191225405
  0
LINE
  8
_0-0_
  6
CONTINUOUS
 62
    7
 10
147.15036672490777
 20
49.551046294100161
 11
147.22449129956902
 21
48.703797501451845
  0
LINE
  8
_0-0_
  6
CONTINUOUS
 62
    7
 10
146.0744906929155
 20
44.903797600628877
 11
146.0744906929155
 21
44.003797600628786
  0
LINE
  8
_0-0_
  6
CONTINUOUS
 62
    7
 10
146.37449069291557
 20
43.703797600629059
 11
146.97449069291559
 21
43.703797600629059
  0
LINE
  8
_0-0_
  6
CONTINUOUS
 62
    7
 10
147.27449069291555
 20
43.403797600628877
 11
147.27449069291555
 21
41.203797600629059
  0
LINE
  8
_0-0_
  6
CONTINUOUS
 62
    7
 10
146.97449069291559
 20
40.903797600628877
 11
146.37449069291557
 21
40.903797600628877
  0
LINE
  8
_0-0_
  6
CONTINUOUS
 62
    7
 10
146.0744906929155
 20
40.603797600628695
 11
146.0744906929155
 21
39.803797600628968
  0
LINE
  8
_0-0_
  6
CONTINUOUS
 62
    7
 10
145.77449069291555
 20
39.503797600628786
 11
143.17449069291553
 21
39.503797600628786
  0
LINE
  8
_0-0_
  6
CONTINUOUS
 62
    7
 10
142.87449069291557
 20
39.803797600628968
 11
142.87449069291557
 21
40.603797600628695
  0
LINE
  8
_0-0_
  6
CONTINUOUS
 62
    7
 10
142.5744906929155
 20
40.903797600628877
 11
141.97449069291559
 21
40.903797600628877
  0
LINE
  8
_0-0_
  6
CONTINUOUS
 62
    7
 10
141.67449069291553
 20
41.203797600629059
 11
141.67449069291553
 21
43.403797600628877
  0
LINE
  8
_0-0_
  6
CONTINUOUS
 62
    7
 10
141.97449069291559
 20
43.703797600629059
 11
142.5744906929155
 21
43.703797600629059
  0
LINE
  8
_0-0_
  6
CONTINUOUS
 62
    7
 10
142.87449069291557
 20
44.003797600628786
 11
142.87449069291557
 21
44.903797600628877
  0
LINE
  8
_0-0_
  6
CONTINUOUS
 62
    7
 10
138.5744906929155
 20
44.90379760062882
 11
138.5744906929155
 21
44.003797600628786
  0
LINE
  8
_0-0_
  6
CONTINUOUS
 62
    7
 10
138.87449069291557
 20
43.703797600629059
 11
139.47449069291559
 21
43.703797600629059
  0
LINE
  8
_0-0_
  6
CONTINUOUS
 62
    7
 10
139.77449069291555
 20
43.403797600628877
 11
139.77449069291555
 21
41.203797600629059
  0
LINE
  8
_0-0_
  6
CONTINUOUS
 62
    7
 10
139.47449069291559
 20
40.903797600628877
 11
138.87449069291557
 21
40.903797600628877
  0
LINE
  8
_0-0_
  6
CONTINUOUS
 62
    7
 10
138.5744906929155
 20
40.603797600628695
 11
138.5744906929155
 21
39.803797600628968
  0
LINE
  8
_0-0_
  6
CONTINUOUS
 62
    7
 10
138.27449069291555
 20
39.503797600628786
 11
135.67449069291553
 21
39.503797600628786
  0
LINE
  8
_0-0_
  6
CONTINUOUS
 62
    7
 10
135.37449069291557
 20
39.803797600628968
 11
135.37449069291557
 21
40.603797600628695
  0
LINE
  8
_0-0_
  6
CONTINUOUS
 62
    7
 10
135.0744906929155
 20
40.903797600628877
 11
134.47449069291559
 21
40.903797600628877
  0
LINE
  8
_0-0_
  6
CONTINUOUS
 62
    7
 10
134.17449069291553
 20
41.203797600629059
 11
134.17449069291553
 21
43.403797600628877
  0
LINE
  8
_0-0_
  6
CONTINUOUS
 62
    7
 10
134.47449069291559
 20
43.703797600629059
 11
135.0744906929155
 21
43.703797600629059
  0
LINE
  8
_0-0_
  6
CONTINUOUS
 62
    7
 10
135.37449069291557
 20
44.003797600628786
 11
135.37449069291557
 21
44.90379760062882
  0
LINE
  8
_0-0_
  6
CONTINUOUS
 62
    7
 10
128.974490939129
 20
45.2037975014523
 11
149.474490939129
 21
45.2037975014523
  0
LINE
  8
_0-0_
  6
CONTINUOUS
 62
    7
 10
149.474490939129
 20
45.2037975014523
 11
149.474490939129
 21
57.7037975014523
  0
LINE
  8
_0-0_
  6
CONTINUOUS
 62
    7
 10
148.974490939129
 20
58.2037975014523
 11
128.974490939129
 21
58.2037975014523
  0
LINE
  8
_0-0_
  6
CONTINUOUS
 62
    7
 10
128.474490939129
 20
57.703797501452243
 11
128.474490939129
 21
45.703797501452243
  0
LINE
  8
_0-0_
  6
CONTINUOUS
 62
    7
 10
122.91268093912885
 20
34.927407501452308
 11
125.31268093912894
 21
30.127407501452581
  0
LINE
  8
_0-0_
  6
CONTINUOUS
 62
    7
 10
124.86547093912912
 20
29.403797501452573
 11
118.87449093912863
 21
29.403797501452573
  0
LINE
  8
_0-0_
  6
CONTINUOUS
 62
    7
 10
119.27449093912918
 20
29.403797501452573
 11
119.67449093912882
 21
29.003797501452027
  0
LINE
  8
_0-0_
  6
CONTINUOUS
 62
    7
 10
119.67449093912882
 20
29.003797501452027
 11
121.67449093912882
 21
29.003797501452027
  0
LINE
  8
_0-0_
  6
CONTINUOUS
 62
    7
 10
121.67449093912882
 20
29.003797501452027
 11
122.07449093912891
 21
29.403797501452573
  0
LINE
  8
_0-0_
  6
CONTINUOUS
 62
    7
 10
118.37449093912909
 20
29.903797501452573
 11
118.37449093912909
 21
34.7037975014523
  0
LINE
  8
_0-0_
  6
CONTINUOUS
 62
    7
 10
118.87449093912863
 20
35.2037975014523
 11
119.54057093912905
 21
35.2037975014523
  0
LINE
  8
_0-0_
  6
CONTINUOUS
 62
    7
 10
119.79058093912926
 20
35.13680750145204
 11
120.42450093912902
 21
34.770797501452307
  0
LINE
  8
_0-0_
  6
CONTINUOUS
 62
    7
 10
120.92448093912907
 20
34.77078750145256
 11
121.55854093912893
 21
35.136817501452242
  0
LINE
  8
_0-0_
  6
CONTINUOUS
 62
    7
 10
121.80852093912898
 20
35.2037975014523
 11
122.46547093912903
 21
35.2037975014523
  0
LINE
  8
_0-0_
  6
CONTINUOUS
 62
    7
 10
149.47449069291559
 20
38.703797600629059
 11
149.47449069291559
 21
44.203797600629059
  0
ARC
  8
_0-0_
  6
CONTINUOUS
 62
    7
 10
121.80852093912898
 20
34.7037975014523
 40
0.5
 50
90
 51
119.99737
  0
ARC
  8
_0-0_
  6
CONTINUOUS
 62
    7
 10
119.54057093912905
 20
34.7037975014523
 40
0.5
 50
59.99931000000003
 51
90.000000000000028
  0
ARC
  8
_0-0_
  6
CONTINUOUS
 62
    7
 10
120.67450093912902
 20
35.203807501452047
 40
0.5
 50
239.99931000000001
 51
299.99737599999997
  0
ARC
  8
_0-0_
  6
CONTINUOUS
 62
    7
 10
122.46547093912903
 20
34.7037975014523
 40
0.5
 50
26.565050000000021
 51
90.000000000000057
  0
ARC
  8
_0-0_
  6
CONTINUOUS
 62
    7
 10
118.87449093912863
 20
34.7037975014523
 40
0.5
 50
90
 51
180
  0
ARC
  8
_0-0_
  6
CONTINUOUS
 62
    7
 10
118.87449093912863
 20
29.903797501452573
 40
0.5
 50
180
 51
270
  0
ARC
  8
_0-0_
  6
CONTINUOUS
 62
    7
 10
124.86547093912912
 20
29.903797501452573
 40
0.5
 50
270
 51
26.565050000000021
  0
ARC
  8
_0-0_
  6
CONTINUOUS
 62
    7
 10
128.974490939129
 20
45.703797501452243
 40
0.5
 50
180
 51
270
  0
ARC
  8
_0-0_
  6
CONTINUOUS
 62
    7
 10
134.974490939129
 20
48.703797501452243
 40
0.5
 50
180
 51
270
  0
ARC
  8
_0-0_
  6
CONTINUOUS
 62
    7
 10
128.974490939129
 20
57.703797501452243
 40
0.5
 50
90
 51
180
  0
ARC
  8
_0-0_
  6
CONTINUOUS
 62
    7
 10
134.974490939129
 20
57.703797501452243
 40
0.5
 50
90
 51
180
  0
ARC
  8
_0-0_
  6
CONTINUOUS
 62
    7
 10
131.974490939129
 20
57.703797501452243
 40
0.5
 50
0
 51
90
  0
ARC
  8
_0-0_
  6
CONTINUOUS
 62
    7
 10
148.974490939129
 20
57.7037975014523
 40
0.5
 50
0
 51
90
  0
ARC
  8
_0-0_
  6
CONTINUOUS
 62
    7
 10
148.47449069291559
 20
38.703797600629059
 40
1
 50
270
 51
0
  0
ARC
  8
_0-0_
  6
CONTINUOUS
 62
    7
 10
148.47449069291559
 20
44.203797600629059
 40
1
 50
0.0000000000000127
 51
90
  0
ARC
  8
_0-0_
  6
CONTINUOUS
 62
    7
 10
146.37449069291557
 20
44.903797600628877
 40
0.2999999999999999
 50
90
 51
180
  0
ARC
  8
_0-0_
  6
CONTINUOUS
 62
    7
 10
146.37449069291557
 20
44.003797600628786
 40
0.2999999999999999
 50
180
 51
270
  0
ARC
  8
_0-0_
  6
CONTINUOUS
 62
    7
 10
146.97449069291559
 20
43.403797600628877
 40
0.2999999999999999
 50
0
 51
90
  0
ARC
  8
_0-0_
  6
CONTINUOUS
 62
    7
 10
146.97449069291559
 20
41.203797600629059
 40
0.2999999999999999
 50
270
 51
0
  0
ARC
  8
_0-0_
  6
CONTINUOUS
 62
    7
 10
146.37449069291557
 20
40.603797600628695
 40
0.2999999999999999
 50
90
 51
180
  0
ARC
  8
_0-0_
  6
CONTINUOUS
 62
    7
 10
145.77449069291555
 20
39.803797600628968
 40
0.2999999999999999
 50
270
 51
0
  0
ARC
  8
_0-0_
  6
CONTINUOUS
 62
    7
 10
142.5744906929155
 20
44.903797600628877
 40
0.2999999999999999
 50
0
 51
90
  0
ARC
  8
_0-0_
  6
CONTINUOUS
 62
    7
 10
142.5744906929155
 20
44.003797600628786
 40
0.2999999999999999
 50
270
 51
0
  0
ARC
  8
_0-0_
  6
CONTINUOUS
 62
    7
 10
141.97449069291559
 20
43.403797600628877
 40
0.2999999999999999
 50
90
 51
180
  0
ARC
  8
_0-0_
  6
CONTINUOUS
 62
    7
 10
141.97449069291559
 20
41.203797600629059
 40
0.2999999999999999
 50
180
 51
270
  0
ARC
  8
_0-0_
  6
CONTINUOUS
 62
    7
 10
142.5744906929155
 20
40.603797600628695
 40
0.2999999999999999
 50
0
 51
90
  0
ARC
  8
_0-0_
  6
CONTINUOUS
 62
    7
 10
143.17449069291553
 20
39.803797600628968
 40
0.2999999999999999
 50
180
 51
270
  0
ARC
  8
_0-0_
  6
CONTINUOUS
 62
    7
 10
138.87449069291557
 20
44.90379760062882
 40
0.2999999999999999
 50
90
 51
180
  0
ARC
  8
_0-0_
  6
CONTINUOUS
 62
    7
 10
138.87449069291557
 20
44.003797600628786
 40
0.2999999999999999
 50
180
 51
270
  0
ARC
  8
_0-0_
  6
CONTINUOUS
 62
    7
 10
139.47449069291559
 20
43.403797600628877
 40
0.2999999999999999
 50
0
 51
90
  0
ARC
  8
_0-0_
  6
CONTINUOUS
 62
    7
 10
139.47449069291559
 20
41.203797600629059
 40
0.2999999999999999
 50
270
 51
0
  0
ARC
  8
_0-0_
  6
CONTINUOUS
 62
    7
 10
138.87449069291557
 20
40.603797600628695
 40
0.2999999999999999
 50
90
 51
180
  0
ARC
  8
_0-0_
  6
CONTINUOUS
 62
    7
 10
138.27449069291555
 20
39.803797600628968
 40
0.2999999999999999
 50
270
 51
0
  0
ARC
  8
_0-0_
  6
CONTINUOUS
 62
    7
 10
135.0744906929155
 20
44.90379760062882
 40
0.2999999999999999
 50
0
 51
90
  0
ARC
  8
_0-0_
  6
CONTINUOUS
 62
    7
 10
135.0744906929155
 20
44.003797600628786
 40
0.2999999999999999
 50
270
 51
0
  0
ARC
  8
_0-0_
  6
CONTINUOUS
 62
    7
 10
134.47449069291559
 20
43.403797600628877
 40
0.2999999999999999
 50
90
 51
180
  0
ARC
  8
_0-0_
  6
CONTINUOUS
 62
    7
 10
134.47449069291559
 20
41.203797600629059
 40
0.2999999999999999
 50
180
 51
270
  0
ARC
  8
_0-0_
  6
CONTINUOUS
 62
    7
 10
135.0744906929155
 20
40.603797600628695
 40
0.2999999999999999
 50
0
 51
90
  0
ARC
  8
_0-0_
  6
CONTINUOUS
 62
    7
 10
135.67449069291553
 20
39.803797600628968
 40
0.2999999999999999
 50
180
 51
270
  0
ARC
  8
_0-0_
  6
CONTINUOUS
 62
    7
 10
131.37449069291557
 20
44.90379760062882
 40
0.2999999999999999
 50
90
 51
180
  0
ARC
  8
_0-0_
  6
CONTINUOUS
 62
    7
 10
131.37449069291557
 20
44.003797600628786
 40
0.2999999999999999
 50
180
 51
270
  0
ARC
  8
_0-0_
  6
CONTINUOUS
 62
    7
 10
131.97449069291559
 20
43.403797600628877
 40
0.2999999999999999
 50
0
 51
90
  0
ARC
  8
_0-0_
  6
CONTINUOUS
 62
    7
 10
131.97449069291559
 20
41.203797600629059
 40
0.2999999999999999
 50
270
 51
0
  0
ARC
  8
_0-0_
  6
CONTINUOUS
 62
    7
 10
131.37449069291557
 20
40.603797600628695
 40
0.2999999999999999
 50
90
 51
180
  0
ARC
  8
_0-0_
  6
CONTINUOUS
 62
    7
 10
130.77449069291555
 20
39.803797600628968
 40
0.2999999999999999
 50
270
 51
0
  0
ARC
  8
_0-0_
  6
CONTINUOUS
 62
    7
 10
127.5744906929155
 20
44.90379760062882
 40
0.2999999999999999
 50
0
 51
90
  0
ARC
  8
_0-0_
  6
CONTINUOUS
 62
    7
 10
127.5744906929155
 20
44.003797600628786
 40
0.2999999999999999
 50
270
 51
0
  0
ARC
  8
_0-0_
  6
CONTINUOUS
 62
    7
 10
126.97449069291559
 20
43.403797600628877
 40
0.2999999999999999
 50
90
 51
180
  0
ARC
  8
_0-0_
  6
CONTINUOUS
 62
    7
 10
126.97449069291559
 20
41.203797600629059
 40
0.2999999999999999
 50
180
 51
270
  0
ARC
  8
_0-0_
  6
CONTINUOUS
 62
    7
 10
127.5744906929155
 20
40.603797600628695
 40
0.2999999999999999
 50
0
 51
90
  0
ARC
  8
_0-0_
  6
CONTINUOUS
 62
    7
 10
128.17449069291553
 20
39.803797600628968
 40
0.2999999999999999
 50
180
 51
270
  0
ARC
  8
_0-0_
  6
CONTINUOUS
 62
    7
 10
125.47449069291559
 20
44.203797600629059
 40
1
 50
90
 51
180
  0
ARC
  8
_0-0_
  6
CONTINUOUS
 62
    7
 10
123.27449069291555
 20
34.874617993878928
 40
0.2999999999999999
 50
180.00000000000006
 51
206.56505117707803
  0
ARC
  8
_0-0_
  6
CONTINUOUS
 62
    7
 10
124.85990088954048
 20
31.703797600629059
 40
0.2999999999999999
 50
206.565051177078
 51
270
  0
ARC
  8
_0-0_
  6
CONTINUOUS
 62
    7
 10
127.87449069291557
 20
31.703797600629059
 40
0.2999999999999999
 50
270
 51
0
  0
ARC
  8
_0-0_
  6
CONTINUOUS
 62
    7
 10
127.87449069291557
 20
33.103797600628695
 40
0.2999999999999999
 50
0.0000000000000127
 51
90
  0
ARC
  8
_0-0_
  6
CONTINUOUS
 62
    7
 10
125.87449069291557
 20
33.703797600629059
 40
0.2999999999999999
 50
180
 51
270
  0
ARC
  8
_0-0_
  6
CONTINUOUS
 62
    7
 10
125.87449069291557
 20
35.07953353191715
 40
0.2999999999999999
 50
135
 51
180
  0
ARC
  8
_0-0_
  6
CONTINUOUS
 62
    7
 10
127.19875476162753
 20
36.403797600628877
 40
0.2999999999999999
 50
90.000000000000028
 51
135.00000000000006
  0
ARC
  8
_0-0_
  6
CONTINUOUS
 62
    7
 10
130.67449069291553
 20
36.403797600628877
 40
0.2999999999999999
 50
0
 51
90
  0
ARC
  8
_0-0_
  6
CONTINUOUS
 62
    7
 10
131.27449069291555
 20
35.503797600628786
 40
0.2999999999999999
 50
180
 51
270
  0
ARC
  8
_0-0_
  6
CONTINUOUS
 62
    7
 10
133.30128561215867
 20
35.503797600628786
 40
0.2999999999999999
 50
270
 51
330.00000000000006
  0
ARC
  8
_0-0_
  6
CONTINUOUS
 62
    7
 10
135.09107144664648
 20
37.403797600628877
 40
0.2999999999999999
 50
90.000000000000028
 51
150.00000000000003
  0
ARC
  8
_0-0_
  6
CONTINUOUS
 62
    7
 10
144.47449129956902
 20
43.703797501451845
 40
7
 50
92.456283569335938
 51
106.25701904296875
  0
ARC
  8
_0-0_
  6
CONTINUOUS
 62
    7
 10
144.47449129956902
 20
43.703797501451845
 40
7
 50
73.742965698242187
 51
87.543701171874986
  0
ARC
  8
_0-0_
  6
CONTINUOUS
 62
    7
 10
146.15417188543023
 20
49.463890594370241
 40
1
 50
4.9999847412109482
 51
73.742965698242187
  0
ARC
  8
_0-0_
  6
CONTINUOUS
 62
    7
 10
142.79481071370782
 20
49.463890594370241
 40
1
 50
106.25701904296875
 51
175
  0
LINE
  8
_0-0_
  6
CONTINUOUS
 62
    7
 10
20.12348804818339
 20
45.203798647871565
 11
70.12348804818339
 21
45.203798647871565
  0
ARC
  8
_0-0_
  6
CONTINUOUS
 62
    7
 10
31.12348804818339
 20
57.703798647871565
 40
0.5
 50
90
 51
138.81407483428791
  0
ARC
  8
_0-0_
  6
CONTINUOUS
 62
    7
 10
20.62348804818339
 20
47.703798647871565
 40
0.5
 50
90
 51
138.81407483429649
  0
ARC
  8
_0-0_
  6
CONTINUOUS
 62
    7
 10
69.623488048182935
 20
47.703798647871565
 40
0.5
 50
0
 51
41.185925165710493
  0
ARC
  8
_0-0_
  6
CONTINUOUS
 62
    7
 10
59.12348804818339
 20
57.703798647871565
 40
0.5
 50
0
 51
41.185925165709953
  0
ARC
  8
_0-0_
  6
CONTINUOUS
 62
    7
 10
20.62348804818339
 20
47.703798647871565
 40
0.5000000000001395
 50
138.81407483429652
 51
180.00000000000011
  0
ARC
  8
_0-0_
  6
CONTINUOUS
 62
    7
 10
69.623488048182935
 20
47.703798647871565
 40
0.50000000000007
 50
41.185925165710493
 51
90
  0
ARC
  8
_0-0_
  6
CONTINUOUS
 62
    7
 10
31.12348804818339
 20
57.703798647871565
 40
0.5000000000000539
 50
138.81407483428791
 51
180
  0
ARC
  8
_0-0_
  6
CONTINUOUS
 62
    7
 10
59.12348804818339
 20
57.703798647871565
 40
0.5000000000000757
 50
41.185925165709953
 51
90
  0
ARC
  8
_0-0_
  6
CONTINUOUS
 62
    7
 10
59.12348804818339
 20
45.703798647871565
 40
0.5
 50
270
 51
0
  0
ARC
  8
_0-0_
  6
CONTINUOUS
 62
    7
 10
31.12348804818339
 20
45.703798647871565
 40
0.5
 50
180
 51
270
  0
ARC
  8
_0-0_
  6
CONTINUOUS
 62
    7
 10
60.12348804818339
 20
48.703798647871565
 40
0.5
 50
180
 51
270
  0
ARC
  8
_0-0_
  6
CONTINUOUS
 62
    7
 10
30.12348804818339
 20
48.703798647871565
 40
0.5
 50
270
 51
0
  0
LINE
  8
_0-0_
  6
CONTINUOUS
 62
    7
 10
31.12348804818339
 20
58.203798647871565
 11
59.12348804818339
 21
58.203798647871565
  0
LINE
  8
_0-0_
  6
CONTINUOUS
 62
    7
 10
30.12348804818339
 20
48.203798647871565
 11
20.62348804818339
 21
48.203798647871565
  0
LINE
  8
_0-0_
  6
CONTINUOUS
 62
    7
 10
30.62348804818339
 20
57.703798647871565
 11
30.62348804818339
 21
45.703798647871565
  0
LINE
  8
_0-0_
  6
CONTINUOUS
 62
    7
 10
20.247199700829697
 20
48.033050951806047
 11
30.747199700830151
 21
58.033050951806047
  0
LINE
  8
_0-0_
  6
CONTINUOUS
 62
    7
 10
20.12348804818339
 20
45.203798647871565
 11
20.12348804818339
 21
47.703798647871565
  0
LINE
  8
_0-0_
  6
CONTINUOUS
 62
    7
 10
70.123488048182935
 20
45.203798647871565
 11
20.12348804818339
 21
45.203798647871565
  0
LINE
  8
_0-0_
  6
CONTINUOUS
 62
    7
 10
70.123488048182935
 20
47.703798647871565
 11
70.123488048182935
 21
45.203798647871565
  0
LINE
  8
_0-0_
  6
CONTINUOUS
 62
    7
 10
60.12348804818339
 20
48.203798647871565
 11
69.623488048182935
 21
48.203798647871565
  0
LINE
  8
_0-0_
  6
CONTINUOUS
 62
    7
 10
59.62348804818339
 20
57.703798647871565
 11
59.62348804818339
 21
45.703798647871565
  0
LINE
  8
_0-0_
  6
CONTINUOUS
 62
    7
 10
69.999776395536628
 20
48.033050951806047
 11
59.499776395536628
 21
58.033050951806047
  0
LINE
  8
_0-0_
  6
CONTINUOUS
 62
    7
 10
70.12348804818339
 20
134.95970370136865
 11
20.12348804818339
 21
134.95970370136865
  0
LINE
  8
_0-0_
  6
CONTINUOUS
 62
    7
 10
20.12348804818339
 20
108.45970406236847
 11
70.12348804818339
 21
108.45970406236847
  0
LINE
  8
_0-0_
  6
CONTINUOUS
 62
    7
 10
65.423488060104319
 20
131.70970025136876
 11
64.823488036262461
 21
131.70970025136876
  0
LINE
  8
_0-0_
  6
CONTINUOUS
 62
    7
 10
64.823488036262461
 20
131.70970025136876
 11
64.823488036262461
 21
131.05970027521062
  0
LINE
  8
_0-0_
  6
CONTINUOUS
 62
    7
 10
65.423488060104319
 20
131.05970027521062
 11
65.423488060104319
 21
131.70970025136876
  0
LINE
  8
_0-0_
  6
CONTINUOUS
 62
    7
 10
66.223488072025248
 20
130.25970026328969
 11
66.87348804818339
 21
130.25970026328969
  0
LINE
  8
_0-0_
  6
CONTINUOUS
 62
    7
 10
66.87348804818339
 20
130.25970026328969
 11
66.87348804818339
 21
129.65970023944783
  0
LINE
  8
_0-0_
  6
CONTINUOUS
 62
    7
 10
66.87348804818339
 20
129.65970023944783
 11
66.223488072025248
 21
129.65970023944783
  0
LINE
  8
_0-0_
  6
CONTINUOUS
 62
    7
 10
65.423488060104319
 20
128.8597002275269
 11
65.423488060104319
 21
128.20970025136876
  0
LINE
  8
_0-0_
  6
CONTINUOUS
 62
    7
 10
65.423488060104319
 20
128.20970025136876
 11
64.823488036262461
 21
128.20970025136876
  0
LINE
  8
_0-0_
  6
CONTINUOUS
 62
    7
 10
64.823488036262461
 20
128.20970025136876
 11
64.823488036262461
 21
128.8597002275269
  0
LINE
  8
_0-0_
  6
CONTINUOUS
 62
    7
 10
64.023488024341532
 20
129.65970023944783
 11
63.37348804818339
 21
129.65970023944783
  0
LINE
  8
_0-0_
  6
CONTINUOUS
 62
    7
 10
63.37348804818339
 20
129.65970023944783
 11
63.37348804818339
 21
130.25970026328969
  0
LINE
  8
_0-0_
  6
CONTINUOUS
 62
    7
 10
63.37348804818339
 20
130.25970026328969
 11
64.023488024341532
 21
130.25970026328969
  0
LINE
  8
_0-0_
  6
CONTINUOUS
 62
    7
 10
62.923488048182662
 20
126.76370261556576
 11
62.923488048182662
 21
125.65970370136847
  0
LINE
  8
_0-0_
  6
CONTINUOUS
 62
    7
 10
67.323488048183208
 20
125.65970370136847
 11
67.323488048183208
 21
126.76370261556485
  0
LINE
  8
_0-0_
  6
CONTINUOUS
 62
    7
 10
69.62348804818339
 20
119.95970370136865
 11
61.62348804818339
 21
119.95970370136865
  0
LINE
  8
_0-0_
  6
CONTINUOUS
 62
    7
 10
60.62348804818339
 20
117.95970370136865
 11
69.62348804818339
 21
117.95970370136865
  0
LINE
  8
_0-0_
  6
CONTINUOUS
 62
    7
 10
70.12348804818339
 20
109.95970418136858
 11
20.12348804818339
 21
109.95970418136858
  0
LINE
  8
_0-0_
  6
CONTINUOUS
 62
    7
 10
20.62348804818339
 20
117.95970370136865
 11
29.62348804818339
 21
117.95970370136865
  0
LINE
  8
_0-0_
  6
CONTINUOUS
 62
    7
 10
30.62348804818339
 20
116.95970370136865
 11
30.62348804818339
 21
114.45970370136865
  0
LINE
  8
_0-0_
  6
CONTINUOUS
 62
    7
 10
31.12348804818339
 20
113.95970370136865
 11
59.12348804818339
 21
113.95970370136865
  0
LINE
  8
_0-0_
  6
CONTINUOUS
 62
    7
 10
59.62348804818339
 20
114.45970370136865
 11
59.62348804818339
 21
116.95970370136865
  0
LINE
  8
_0-0_
  6
CONTINUOUS
 62
    7
 10
59.62348804818339
 20
121.95970370136865
 11
59.62348804818339
 21
134.45970370136865
  0
LINE
  8
_0-0_
  6
CONTINUOUS
 62
    7
 10
30.62348804818339
 20
134.45970370136865
 11
30.62348804818339
 21
121.95970370136865
  0
LINE
  8
_0-0_
  6
CONTINUOUS
 62
    7
 10
28.62348804818339
 20
119.95970370136865
 11
20.62348804818339
 21
119.95970370136865
  0
LINE
  8
_0-0_
  6
CONTINUOUS
 62
    7
 10
22.923488048183572
 20
125.65970370136847
 11
22.923488048183572
 21
126.76370261556485
  0
LINE
  8
_0-0_
  6
CONTINUOUS
 62
    7
 10
23.37348804818339
 20
129.65970023944783
 11
23.37348804818339
 21
130.25970026328969
  0
LINE
  8
_0-0_
  6
CONTINUOUS
 62
    7
 10
23.37348804818339
 20
130.25970026328969
 11
24.023488024341532
 21
130.25970026328969
  0
LINE
  8
_0-0_
  6
CONTINUOUS
 62
    7
 10
24.023488024341532
 20
129.65970023944783
 11
23.37348804818339
 21
129.65970023944783
  0
LINE
  8
_0-0_
  6
CONTINUOUS
 62
    7
 10
24.823488036262461
 20
128.8597002275269
 11
24.823488036262461
 21
128.20970025136876
  0
LINE
  8
_0-0_
  6
CONTINUOUS
 62
    7
 10
24.823488036262461
 20
128.20970025136876
 11
25.423488060104319
 21
128.20970025136876
  0
LINE
  8
_0-0_
  6
CONTINUOUS
 62
    7
 10
25.423488060104319
 20
128.20970025136876
 11
25.423488060104319
 21
128.8597002275269
  0
LINE
  8
_0-0_
  6
CONTINUOUS
 62
    7
 10
26.223488072025248
 20
129.65970023944783
 11
26.87348804818339
 21
129.65970023944783
  0
LINE
  8
_0-0_
  6
CONTINUOUS
 62
    7
 10
26.87348804818339
 20
129.65970023944783
 11
26.87348804818339
 21
130.25970026328969
  0
LINE
  8
_0-0_
  6
CONTINUOUS
 62
    7
 10
26.87348804818339
 20
130.25970026328969
 11
26.223488072025248
 21
130.25970026328969
  0
LINE
  8
_0-0_
  6
CONTINUOUS
 62
    7
 10
25.423488060104319
 20
131.05970027521062
 11
25.423488060104319
 21
131.70970025136876
  0
LINE
  8
_0-0_
  6
CONTINUOUS
 62
    7
 10
25.423488060104319
 20
131.70970025136876
 11
24.823488036262461
 21
131.70970025136876
  0
LINE
  8
_0-0_
  6
CONTINUOUS
 62
    7
 10
24.823488036262461
 20
131.70970025136876
 11
24.823488036262461
 21
131.05970027521062
  0
LINE
  8
_0-0_
  6
CONTINUOUS
 62
    7
 10
27.323488048184117
 20
126.76370261556576
 11
27.323488048184117
 21
125.65970370136847
  0
CIRCLE
  8
_0-0_
  6
CONTINUOUS
 62
    7
 10
25.12348804818339
 20
129.95970025136876
 40
3.880000114440918
  0
ARC
  8
_0-0_
  6
CONTINUOUS
 62
    7
 10
26.223488072025248
 20
131.05970027521062
 40
0.8000000119209289
 50
180
 51
270
  0
ARC
  8
_0-0_
  6
CONTINUOUS
 62
    7
 10
26.223488072025248
 20
128.8597002275269
 40
0.8000000119209289
 50
90
 51
180
  0
ARC
  8
_0-0_
  6
CONTINUOUS
 62
    7
 10
24.023488024341532
 20
128.8597002275269
 40
0.8000000119209289
 50
0
 51
90
  0
ARC
  8
_0-0_
  6
CONTINUOUS
 62
    7
 10
24.023488024341532
 20
131.05970027521062
 40
0.8000000119209289
 50
270
 51
0
  0
CIRCLE
  8
_0-0_
  6
CONTINUOUS
 62
    7
 10
25.12348804818339
 20
129.95970025136876
 40
2.75
  0
ARC
  8
_0-0_
  6
CONTINUOUS
 62
    7
 10
25.12348804818339
 20
125.65970370136847
 40
2.200000000000033
 50
180
 51
210.0000000000002
  0
ARC
  8
_0-0_
  6
CONTINUOUS
 62
    7
 10
25.12348804818339
 20
125.65970370136847
 40
2.200000000000109
 50
329.99999999999989
 51
0
  0
ARC
  8
_0-0_
  6
CONTINUOUS
 62
    7
 10
25.12348804818339
 20
125.65970370136847
 40
2.2000000000000388
 50
210.00000000000023
 51
329.99999999999994
  0
CIRCLE
  8
_0-0_
  6
CONTINUOUS
 62
    7
 10
65.12348804818339
 20
129.95970025136876
 40
3.880000114440918
  0
ARC
  8
_0-0_
  6
CONTINUOUS
 62
    7
 10
64.023488024341532
 20
131.05970027521062
 40
0.8000000119209289
 50
270
 51
0
  0
ARC
  8
_0-0_
  6
CONTINUOUS
 62
    7
 10
64.023488024341532
 20
128.8597002275269
 40
0.8000000119209289
 50
0
 51
90
  0
ARC
  8
_0-0_
  6
CONTINUOUS
 62
    7
 10
66.223488072025248
 20
128.8597002275269
 40
0.8000000119209289
 50
90
 51
180
  0
ARC
  8
_0-0_
  6
CONTINUOUS
 62
    7
 10
66.223488072025248
 20
131.05970027521062
 40
0.8000000119209289
 50
180
 51
270
  0
CIRCLE
  8
_0-0_
  6
CONTINUOUS
 62
    7
 10
65.12348804818339
 20
129.95970025136876
 40
2.75
  0
ARC
  8
_0-0_
  6
CONTINUOUS
 62
    7
 10
65.12348804818339
 20
125.65970370136847
 40
2.200000000000033
 50
329.99999999999983
 51
0
  0
ARC
  8
_0-0_
  6
CONTINUOUS
 62
    7
 10
65.12348804818339
 20
125.65970370136847
 40
2.200000000000109
 50
180
 51
210.00000000000011
  0
ARC
  8
_0-0_
  6
CONTINUOUS
 62
    7
 10
65.12348804818339
 20
125.65970370136847
 40
2.2000000000000388
 50
210.00000000000009
 51
329.99999999999983
  0
ARC
  8
_0-0_
  6
CONTINUOUS
 62
    7
 10
20.62348804818339
 20
118.45970370136865
 40
0.5
 50
180
 51
270
  0
ARC
  8
_0-0_
  6
CONTINUOUS
 62
    7
 10
20.62348804818339
 20
120.45970370136865
 40
0.5
 50
180
 51
270
  0
ARC
  8
_0-0_
  6
CONTINUOUS
 62
    7
 10
31.12348804818339
 20
114.45970370136865
 40
0.5
 50
180
 51
270
  0
ARC
  8
_0-0_
  6
CONTINUOUS
 62
    7
 10
59.12348804818339
 20
114.45970370136865
 40
0.5
 50
270
 51
0
  0
ARC
  8
_0-0_
  6
CONTINUOUS
 62
    7
 10
69.62348804818339
 20
134.45970370136865
 40
0.5
 50
0
 51
90
  0
ARC
  8
_0-0_
  6
CONTINUOUS
 62
    7
 10
20.62348804818339
 20
134.45970370136865
 40
0.5
 50
90
 51
180
  0
ARC
  8
_0-0_
  6
CONTINUOUS
 62
    7
 10
31.12348804818339
 20
134.45970370136865
 40
0.5
 50
90
 51
180
  0
ARC
  8
_0-0_
  6
CONTINUOUS
 62
    7
 10
59.12348804818339
 20
134.45970370136865
 40
0.5
 50
0
 51
90
  0
ARC
  8
_0-0_
  6
CONTINUOUS
 62
    7
 10
69.62348804818339
 20
118.45970370136865
 40
0.5
 50
270
 51
0
  0
ARC
  8
_0-0_
  6
CONTINUOUS
 62
    7
 10
69.62348804818339
 20
120.45970370136865
 40
0.5
 50
270
 51
0
  0
ARC
  8
_0-0_
  6
CONTINUOUS
 62
    7
 10
60.62348804818339
 20
116.95970370136865
 40
1
 50
90
 51
180
  0
ARC
  8
_0-0_
  6
CONTINUOUS
 62
    7
 10
29.62348804818339
 20
116.95970370136865
 40
1
 50
0
 51
90
  0
ARC
  8
_0-0_
  6
CONTINUOUS
 62
    7
 10
28.62348804818339
 20
121.95970370136865
 40
2
 50
270
 51
0
  0
ARC
  8
_0-0_
  6
CONTINUOUS
 62
    7
 10
61.62348804818339
 20
121.95970370136865
 40
2
 50
180
 51
270
  0
LINE
  8
_0-0_
  6
CONTINUOUS
 62
    7
 10
50.12348804818339
 20
35.203797499452548
 11
50.12348804818339
 21
29.403797501452573
  0
LINE
  8
_0-0_
  6
CONTINUOUS
 62
    7
 10
40.12348804818339
 20
35.203797499452548
 11
40.12348804818339
 21
29.403797501452573
  0
LINE
  8
_0-0_
  6
CONTINUOUS
 62
    7
 10
20.12348804818339
 20
45.203798647871565
 11
20.12348804818339
 21
29.403797501452573
  0
LINE
  8
_0-0_
  6
CONTINUOUS
 62
    7
 10
40.12348804818339
 20
35.203797499452548
 11
20.12348804818339
 21
35.203797499452548
  0
LINE
  8
_0-0_
  6
CONTINUOUS
 62
    7
 10
40.12348804818339
 20
29.403797501452573
 11
20.12348804818339
 21
29.403797501452573
  0
LINE
  8
_0-0_
  6
CONTINUOUS
 62
    7
 10
70.12348804818339
 20
45.203798647871565
 11
70.12348804818339
 21
29.403797501452573
  0
LINE
  8
_0-0_
  6
CONTINUOUS
 62
    7
 10
50.12348804818339
 20
35.203797499452548
 11
70.12348804818339
 21
35.203797499452548
  0
LINE
  8
_0-0_
  6
CONTINUOUS
 62
    7
 10
50.12348804818339
 20
29.403797501452573
 11
70.12348804818339
 21
29.403797501452573
  0
LINE
  8
_0-0_
  6
CONTINUOUS
 62
    7
 10
61.123488048183276
 20
29.003797501452027
 11
59.123488048183276
 21
29.003797501452027
  0
LINE
  8
_0-0_
  6
CONTINUOUS
 62
    7
 10
31.12348804818339
 20
29.003797501452027
 11
29.12348804818339
 21
29.003797501452027
  0
LINE
  8
_0-0_
  6
CONTINUOUS
 62
    7
 10
29.12348804818339
 20
29.003797501452027
 11
28.723488048182844
 21
29.403797501452573
  0
LINE
  8
_0-0_
  6
CONTINUOUS
 62
    7
 10
31.523488048183935
 20
29.403797501452573
 11
31.12348804818339
 21
29.003797501452027
  0
LINE
  8
_0-0_
  6
CONTINUOUS
 62
    7
 10
59.123488048183276
 20
29.003797501452027
 11
58.72348804818273
 21
29.403797501452573
  0
LINE
  8
_0-0_
  6
CONTINUOUS
 62
    7
 10
61.523488048183822
 20
29.403797501452573
 11
61.123488048183276
 21
29.003797501452027
  0
LINE
  8
_0-0_
  6
CONTINUOUS
 62
    7
 10
20.12348804818339
 20
134.95970370136865
 11
20.12348804818339
 21
103.85970370136829
  0
LINE
  8
_0-0_
  6
CONTINUOUS
 62
    7
 10
70.12348804818339
 20
103.85970370136829
 11
70.12348804818339
 21
134.95970370136865
  0
ARC
  8
_0-0_
  6
CONTINUOUS
 62
    7
 10
124.17449069291553
 20
37.328061669340912
 40
0.2999999999999999
 50
315
 51
0
  0
LINE
  8
_0-0_
  6
CONTINUOUS
 62
    7
 10
123.06235865855967
 20
35.791665566273025
 11
124.38662272727163
 21
37.115929634984809
  0
ARC
  8
_0-0_
  6
CONTINUOUS
 62
    7
 10
123.27449069291555
 20
35.57953353191715
 40
0.2999999999999999
 50
135
 51
180
  0
ARC
  8
_0-1_
  6
CONTINUOUS
 62
  152
 10
201.97973950395755
 20
106.86691152637843
 40
2.2000000000000459
 50
180
 51
0
  0
ARC
  8
_0-1_
  6
CONTINUOUS
 62
  152
 10
201.97973950395755
 20
111.46691152637834
 40
2.2000000000001019
 50
0
 51
180
  0
ARC
  8
_0-1_
  6
CONTINUOUS
 62
  152
 10
241.97973950395755
 20
111.46691152637834
 40
2.2000000000000961
 50
149.9999999999973
 51
180
  0
ARC
  8
_0-1_
  6
CONTINUOUS
 62
  152
 10
241.97973950395755
 20
106.86691152637843
 40
2.200000000000033
 50
329.99999999999983
 51
0
  0
ARC
  8
_0-1_
  6
CONTINUOUS
 62
  152
 10
241.97973950395755
 20
111.46691152637834
 40
2.1999999999999029
 50
0
 51
30.000000000002753
  0
ARC
  8
_0-1_
  6
CONTINUOUS
 62
  152
 10
241.97973950395755
 20
111.46691152637834
 40
2.2000000000000899
 50
30.000000000002753
 51
149.99999999999727
  0
ARC
  8
_0-1_
  6
CONTINUOUS
 62
  152
 10
241.97973950395755
 20
106.86691152637843
 40
2.200000000000109
 50
180
 51
210.00000000000011
  0
ARC
  8
_0-1_
  6
CONTINUOUS
 62
  152
 10
241.97973950395755
 20
106.86691152637843
 40
2.2000000000000388
 50
210.00000000000009
 51
329.99999999999983
  0
LINE
  8
_0-1_
  6
CONTINUOUS
 62
  152
 10
213.8675357973687
 20
97.166911526378158
 11
213.8675357973687
 21
100.16691152637816
  0
LINE
  8
_0-1_
  6
CONTINUOUS
 62
  152
 10
212.6175357973687
 20
97.166911526378158
 11
213.8675357973687
 21
97.166911526378158
  0
LINE
  8
_0-1_
  6
CONTINUOUS
 62
  152
 10
214.6175357973687
 20
95.166911526378158
 11
212.6175357973687
 21
97.166911526378158
  0
LINE
  8
_0-1_
  6
CONTINUOUS
 62
  152
 10
216.6175357973687
 20
97.166911526378158
 11
214.6175357973687
 21
95.166911526378158
  0
LINE
  8
_0-1_
  6
CONTINUOUS
 62
  152
 10
215.3675357973687
 20
97.166911526378158
 11
216.6175357973687
 21
97.166911526378158
  0
LINE
  8
_0-1_
  6
CONTINUOUS
 62
  152
 10
215.3675357973687
 20
100.16691152637816
 11
215.3675357973687
 21
97.166911526378158
  0
LINE
  8
_0-1_
  6
CONTINUOUS
 62
  152
 10
213.8675357973687
 20
100.16691152637816
 11
215.3675357973687
 21
100.16691152637816
  0
LINE
  8
_0-1_
  6
CONTINUOUS
 62
  152
 10
200.07448361563166
 20
105.76691152637852
 11
197.6162546581034
 21
105.76691152637852
  0
LINE
  8
_0-1_
  6
CONTINUOUS
 62
  152
 10
206.34322434981169
 20
105.76691152637852
 11
203.88499539228343
 21
105.76691152637852
  0
LINE
  8
_0-1_
  6
CONTINUOUS
 62
  152
 10
198.21166307161167
 20
104.40691152637839
 11
205.74781593630343
 21
104.40691152637839
  0
LINE
  8
_0-1_
  6
CONTINUOUS
 62
  152
 10
204.35831050352846
 20
103.04691152637872
 11
199.60116850438664
 21
103.04691152637872
  0
LINE
  8
_0-1_
  6
CENTER1
 62
  152
 10
201.97973950395755
 20
114.67933582298849
 11
201.97973950395755
 21
103.59071971960486
  0
LINE
  8
_0-1_
  6
CONTINUOUS
 62
  152
 10
204.35831050352846
 20
115.28691152637805
 11
199.60116850438664
 21
115.28691152637805
  0
LINE
  8
_0-1_
  6
CONTINUOUS
 62
  152
 10
206.34322434981169
 20
112.56691152637825
 11
203.88499539228343
 21
112.56691152637825
  0
LINE
  8
_0-1_
  6
CONTINUOUS
 62
  152
 10
198.21166307161167
 20
113.92691152637838
 11
205.74781593630343
 21
113.92691152637838
  0
LINE
  8
_0-1_
  6
CONTINUOUS
 62
  152
 10
200.07448361563166
 20
112.56691152637825
 11
197.6162546581034
 21
112.56691152637825
  0
LINE
  8
_0-1_
  6
CONTINUOUS
 62
  152
 10
197.47973950395755
 20
109.84691152637845
 11
199.77973950395773
 21
109.84691152637845
  0
LINE
  8
_0-1_
  6
CONTINUOUS
 62
  152
 10
199.77973950395773
 20
111.20691152637858
 11
197.47973950395755
 21
111.20691152637858
  0
LINE
  8
_0-1_
  6
CONTINUOUS
 62
  152
 10
199.77973950395773
 20
106.86691152637843
 11
199.77973950395773
 21
111.46691152637834
  0
LINE
  8
_0-1_
  6
CONTINUOUS
 62
  152
 10
197.47973950395755
 20
107.12691152637819
 11
199.77973950395773
 21
107.12691152637819
  0
LINE
  8
_0-1_
  6
CONTINUOUS
 62
  152
 10
199.77973950395773
 20
108.48691152637787
 11
197.47973950395755
 21
108.48691152637787
  0
LINE
  8
_0-1_
  6
CENTER1
 62
  152
 10
205.31009653980283
 20
109.16691152637816
 11
198.7318040510425
 21
109.16691152637816
  0
LINE
  8
_0-1_
  6
CONTINUOUS
 62
  152
 10
204.17973950395782
 20
109.84691152637845
 11
206.47973950395755
 21
109.84691152637845
  0
LINE
  8
_0-1_
  6
CONTINUOUS
 62
  152
 10
206.47973950395755
 20
108.48691152637787
 11
204.17973950395782
 21
108.48691152637787
  0
LINE
  8
_0-1_
  6
CONTINUOUS
 62
  152
 10
204.17973950395782
 20
107.12691152637819
 11
206.47973950395755
 21
107.12691152637819
  0
LINE
  8
_0-1_
  6
CONTINUOUS
 62
  152
 10
204.17973950395782
 20
111.46691152637834
 11
204.17973950395782
 21
106.86691152637843
  0
LINE
  8
_0-1_
  6
CONTINUOUS
 62
  152
 10
206.47973950395755
 20
111.20691152637858
 11
204.17973950395782
 21
111.20691152637858
  0
LINE
  8
_0-1_
  6
CONTINUOUS
 62
  152
 10
214.31307283729103
 20
110.66691152637816
 11
229.64640617062406
 21
110.66691152637816
  0
LINE
  8
_0-1_
  6
CONTINUOUS
 62
  152
 10
214.31307283729103
 20
103.33357819304467
 11
214.31307283729103
 21
110.66691152637816
  0
LINE
  8
_0-1_
  6
CONTINUOUS
 62
  152
 10
229.64640617062406
 20
103.33357819304467
 11
214.31307283729103
 21
103.33357819304467
  0
LINE
  8
_0-1_
  6
CONTINUOUS
 62
  152
 10
229.64640617062406
 20
110.66691152637816
 11
229.64640617062406
 21
103.33357819304467
  0
LINE
  8
_0-1_
  6
CONTINUOUS
 62
  152
 10
243.88499539228343
 20
105.76691152637852
 11
246.34322434981169
 21
105.76691152637852
  0
LINE
  8
_0-1_
  6
CONTINUOUS
 62
  152
 10
239.60116850438664
 20
103.04691152637872
 11
244.35831050352846
 21
103.04691152637872
  0
LINE
  8
_0-1_
  6
CENTER1
 62
  152
 10
241.97973950395755
 20
114.21480729257212
 11
241.97973950395755
 21
103.96824139091507
  0
LINE
  8
_0-1_
  6
CONTINUOUS
 62
  152
 10
239.60116850438664
 20
115.28691152637805
 11
244.35831050352846
 21
115.28691152637805
  0
LINE
  8
_0-1_
  6
CONTINUOUS
 62
  152
 10
237.61625465810295
 20
112.56691152637825
 11
240.07448361563166
 21
112.56691152637825
  0
LINE
  8
_0-1_
  6
CONTINUOUS
 62
  152
 10
245.74781593630343
 20
113.92691152637838
 11
238.21166307161167
 21
113.92691152637838
  0
LINE
  8
_0-1_
  6
CONTINUOUS
 62
  152
 10
243.88499539228343
 20
112.56691152637825
 11
246.34322434981169
 21
112.56691152637825
  0
LINE
  8
_0-1_
  6
CONTINUOUS
 62
  152
 10
246.47973950395755
 20
109.84691152637845
 11
244.17973950395736
 21
109.84691152637845
  0
LINE
  8
_0-1_
  6
CONTINUOUS
 62
  152
 10
244.17973950395736
 20
111.20691152637858
 11
246.47973950395755
 21
111.20691152637858
  0
LINE
  8
_0-1_
  6
CONTINUOUS
 62
  152
 10
244.17973950395736
 20
106.86691152637843
 11
244.17973950395736
 21
111.46691152637834
  0
LINE
  8
_0-1_
  6
CONTINUOUS
 62
  152
 10
246.47973950395755
 20
107.12691152637819
 11
244.17973950395736
 21
107.12691152637819
  0
LINE
  8
_0-1_
  6
CONTINUOUS
 62
  152
 10
244.17973950395736
 20
108.48691152637787
 11
246.47973950395755
 21
108.48691152637787
  0
LINE
  8
_0-1_
  6
CENTER1
 62
  152
 10
239.08694654352058
 20
109.16691152637816
 11
245.18408977864721
 21
109.16691152637816
  0
LINE
  8
_0-1_
  6
CONTINUOUS
 62
  152
 10
237.47973950395755
 20
107.12691152637819
 11
239.77973950395727
 21
107.12691152637819
  0
LINE
  8
_0-1_
  6
CONTINUOUS
 62
  152
 10
239.77973950395727
 20
108.48691152637787
 11
237.47973950395755
 21
108.48691152637787
  0
LINE
  8
_0-1_
  6
CONTINUOUS
 62
  152
 10
237.47973950395755
 20
109.84691152637845
 11
239.77973950395727
 21
109.84691152637845
  0
LINE
  8
_0-1_
  6
CONTINUOUS
 62
  152
 10
239.77973950395727
 20
111.20691152637858
 11
237.47973950395755
 21
111.20691152637858
  0
LINE
  8
_0-1_
  6
CONTINUOUS
 62
  152
 10
239.77973950395727
 20
106.86691152637843
 11
239.77973950395727
 21
111.46691152637834
  0
LINE
  8
_0-1_
  6
CONTINUOUS
 62
  152
 10
237.61625465810295
 20
105.76691152637852
 11
240.07448361563166
 21
105.76691152637852
  0
LINE
  8
_0-1_
  6
CONTINUOUS
 62
  152
 10
245.74781593630343
 20
104.40691152637839
 11
238.21166307161167
 21
104.40691152637839
  0
LINE
  8
_0-1_
  6
CONTINUOUS
 62
  152
 10
227.34194321054639
 20
97.166911526378158
 11
229.34194321054639
 21
95.166911526378158
  0
LINE
  8
_0-1_
  6
CONTINUOUS
 62
  152
 10
228.59194321054639
 20
97.166911526378158
 11
227.34194321054639
 21
97.166911526378158
  0
LINE
  8
_0-1_
  6
CONTINUOUS
 62
  152
 10
228.59194321054639
 20
100.16691152637816
 11
228.59194321054639
 21
97.166911526378158
  0
LINE
  8
_0-1_
  6
CONTINUOUS
 62
  152
 10
230.09194321054639
 20
100.16691152637816
 11
228.59194321054639
 21
100.16691152637816
  0
LINE
  8
_0-1_
  6
CONTINUOUS
 62
  152
 10
230.09194321054639
 20
97.166911526378158
 11
230.09194321054639
 21
100.16691152637816
  0
LINE
  8
_0-1_
  6
CONTINUOUS
 62
  152
 10
231.34194321054639
 20
97.166911526378158
 11
230.09194321054639
 21
97.166911526378158
  0
LINE
  8
_0-1_
  6
CONTINUOUS
 62
  152
 10
229.34194321054639
 20
95.166911526378158
 11
231.34194321054639
 21
97.166911526378158
  0
LINE
  8
_0-1_
  6
CENTER1
 62
  152
 10
221.97973950395755
 20
44.370806417972346
 11
221.97973950395755
 21
63.695046633587992
  0
LINE
  8
_0-1_
  6
DASHED2
 62
  152
 10
239.77973950395727
 20
50.567405414934058
 11
239.77973950395727
 21
47.567405414934058
  0
LINE
  8
_0-1_
  6
DASHED2
 62
  152
 10
244.17973950395736
 20
47.567405414934058
 11
244.17973950395736
 21
50.567405414934058
  0
LINE
  8
_0-1_
  6
CENTER1
 62
  152
 10
241.97973950395755
 20
52.970778241410301
 11
241.97973950395755
 21
45.018581458530264
  0
LINE
  8
_0-1_
  6
DASHED2
 62
  152
 10
204.17973950395782
 20
50.567405414934058
 11
204.17973950395782
 21
47.567405414934058
  0
LINE
  8
_0-1_
  6
CENTER1
 62
  152
 10
201.97973950395755
 20
45.763870224417644
 11
201.97973950395755
 21
53.716067007299046
  0
LINE
  8
_0-1_
  6
DASHED2
 62
  152
 10
199.77973950395773
 20
50.567405414934058
 11
199.77973950395773
 21
47.567405414934058
  0
LINE
  8
_0-1_
  6
DASHED2
 62
  152
 10
296.51936861922405
 20
50.567405414934058
 11
296.51936861922405
 21
47.567405414934058
  0
LINE
  8
_0-1_
  6
CENTER1
 62
  152
 10
301.01936861922405
 20
45.018581458530264
 11
301.01936861922405
 21
52.970778241410301
  0
LINE
  8
_0-1_
  6
DASHED2
 62
  152
 10
305.51936861922405
 20
50.567405414934058
 11
305.51936861922405
 21
47.567405414934058
  0
LINE
  8
_0-1_
  6
CENTER1
 62
  152
 10
298.63366363611004
 20
105.61609550154219
 11
298.63366363611004
 21
95.943866489893026
  0
LINE
  8
_0-1_
  6
CENTER1
 62
  152
 10
293.61970484468793
 20
100.54701204908463
 11
303.66394266447753
 21
100.54701204908463
  0
LINE
  8
_0-1_
  6
CENTER1
 62
  152
 10
129.47449069291559
 20
45.203797600629002
 11
129.47449069291559
 21
39.477795526321188
  0
LINE
  8
_0-1_
  6
CENTER1
 62
  152
 10
136.97449069291559
 20
39.503797600628786
 11
136.97449069291559
 21
45.203797600629002
  0
LINE
  8
_0-1_
  6
CENTER1
 62
  152
 10
144.47449069291559
 20
45.203797600629059
 11
144.47449069291559
 21
39.503797600628786
  0
LINE
  8
_0-1_
  6
CENTER1
 62
  152
 10
144.47449129956902
 20
39.840213836429939
 11
144.47449129956902
 21
50.405625356520432
  0
LINE
  8
_0-1_
  6
CONTINUOUS
 62
  152
 10
121.67449093912882
 20
29.403797501452573
 11
121.67449093912882
 21
29.003797501452027
  0
LINE
  8
_0-1_
  6
CONTINUOUS
 62
  152
 10
119.67449093912882
 20
29.003797501452027
 11
119.67449093912882
 21
29.403797501452573
  0
LINE
  8
_0-1_
  6
CENTER2
 62
  152
 10
121.97448093912925
 20
26.953787501452553
 11
121.97448093912925
 21
18.453797501452243
  0
LINE
  8
_0-1_
  6
CENTER2
 62
  152
 10
117.7245009391292
 20
22.7037975014523
 11
126.224490939129
 21
22.7037975014523
  0
LINE
  8
_0-1_
  6
DASHED2
 62
  152
 10
62.923488048183117
 20
48.203798647871565
 11
62.923488048183117
 21
45.203798647871565
  0
LINE
  8
_0-1_
  6
DASHED2
 62
  152
 10
67.323488048183208
 20
45.203798647871565
 11
67.323488048183208
 21
48.203798647871565
  0
LINE
  8
_0-1_
  6
CENTER1
 62
  152
 10
65.12348804818339
 20
50.607171474347808
 11
65.12348804818339
 21
42.654974691467771
  0
LINE
  8
_0-1_
  6
DASHED2
 62
  152
 10
27.323488048183663
 20
48.203798647871565
 11
27.323488048183663
 21
45.203798647871565
  0
LINE
  8
_0-1_
  6
CENTER1
 62
  152
 10
25.12348804818339
 20
43.400263457355152
 11
25.12348804818339
 21
51.352460240236553
  0
LINE
  8
_0-1_
  6
DASHED2
 62
  152
 10
22.923488048183572
 20
48.203798647871565
 11
22.923488048183572
 21
45.203798647871565
  0
LINE
  8
_0-1_
  6
CENTER1
 62
  152
 10
45.12348804818339
 20
42.007199650909854
 11
45.12348804818339
 21
61.3314398665255
  0
LINE
  8
_0-1_
  6
CONTINUOUS
 62
  152
 10
21.355411615837511
 20
132.71970370136842
 11
22.396441689198582
 21
132.71970370136842
  0
LINE
  8
_0-1_
  6
CONTINUOUS
 62
  152
 10
22.744917048613388
 20
134.07970370136854
 11
27.50205904775521
 21
134.07970370136854
  0
LINE
  8
_0-1_
  6
CONTINUOUS
 62
  152
 10
27.850534407168198
 20
132.71970370136842
 11
28.891564480529269
 21
132.71970370136842
  0
LINE
  8
_0-1_
  6
CONTINUOUS
 62
  152
 10
28.742105357053333
 20
131.35970370136829
 11
29.486972894038445
 21
131.35970370136829
  0
LINE
  8
_0-1_
  6
CONTINUOUS
 62
  152
 10
29.62348804818339
 20
129.99970370136862
 11
29.003281936013991
 21
129.99970370136862
  0
LINE
  8
_0-1_
  6
CENTER1
 62
  152
 10
29.003488162624308
 20
129.95970025136876
 11
21.243487933742472
 21
129.95970025136876
  0
LINE
  8
_0-1_
  6
CONTINUOUS
 62
  152
 10
21.243694160352788
 20
129.99970370136862
 11
20.62348804818339
 21
129.99970370136862
  0
LINE
  8
_0-1_
  6
CONTINUOUS
 62
  152
 10
20.62348804818339
 20
128.63970370136894
 11
21.474925318004352
 21
128.63970370136894
  0
LINE
  8
_0-1_
  6
CONTINUOUS
 62
  152
 10
22.31777612782389
 20
127.27970370136836
 11
20.62348804818339
 21
127.27970370136836
  0
LINE
  8
_0-1_
  6
CONTINUOUS
 62
  152
 10
20.62348804818339
 20
125.91970370136869
 11
22.923488048183572
 21
125.91970370136869
  0
LINE
  8
_0-1_
  6
CONTINUOUS
 62
  152
 10
23.218232159858417
 20
124.55970370136856
 11
20.760003202329244
 21
124.55970370136856
  0
LINE
  8
_0-1_
  6
CONTINUOUS
 62
  152
 10
21.355411615837511
 20
123.19970370136843
 11
28.891564480529269
 21
123.19970370136843
  0
LINE
  8
_0-1_
  6
CONTINUOUS
 62
  152
 10
29.486972894038445
 20
124.55970370136856
 11
27.028743936509272
 21
124.55970370136856
  0
LINE
  8
_0-1_
  6
CONTINUOUS
 62
  152
 10
27.323488048184117
 20
125.91970370136869
 11
29.62348804818339
 21
125.91970370136869
  0
LINE
  8
_0-1_
  6
CONTINUOUS
 62
  152
 10
29.62348804818339
 20
127.27970370136836
 11
27.929199968542889
 21
127.27970370136836
  0
LINE
  8
_0-1_
  6
CONTINUOUS
 62
  152
 10
28.772050778362427
 20
128.63970370136894
 11
29.62348804818339
 21
128.63970370136894
  0
LINE
  8
_0-1_
  6
CONTINUOUS
 62
  152
 10
37.456821381517329
 20
129.45970370136865
 11
37.456821381517329
 21
122.12637036803471
  0
LINE
  8
_0-1_
  6
CONTINUOUS
 62
  152
 10
37.456821381517329
 20
122.12637036803471
 11
52.79015471484945
 21
122.12637036803471
  0
LINE
  8
_0-1_
  6
CONTINUOUS
 62
  152
 10
52.79015471484945
 20
122.12637036803471
 11
52.79015471484945
 21
129.45970370136865
  0
LINE
  8
_0-1_
  6
CONTINUOUS
 62
  152
 10
52.79015471484945
 20
129.45970370136865
 11
37.456821381517329
 21
129.45970370136865
  0
LINE
  8
_0-1_
  6
CONTINUOUS
 62
  152
 10
37.011284341594546
 20
118.95970370136865
 11
38.511284341594546
 21
118.95970370136865
  0
LINE
  8
_0-1_
  6
CONTINUOUS
 62
  152
 10
38.511284341594546
 20
118.95970370136865
 11
38.511284341594546
 21
115.95970370136865
  0
LINE
  8
_0-1_
  6
CONTINUOUS
 62
  152
 10
38.511284341594546
 20
115.95970370136865
 11
39.761284341594546
 21
115.95970370136865
  0
LINE
  8
_0-1_
  6
CONTINUOUS
 62
  152
 10
39.761284341594546
 20
115.95970370136865
 11
37.761284341594546
 21
113.95970370136865
  0
LINE
  8
_0-1_
  6
CONTINUOUS
 62
  152
 10
37.761284341594546
 20
113.95970370136865
 11
35.761284341594546
 21
115.95970370136865
  0
LINE
  8
_0-1_
  6
CONTINUOUS
 62
  152
 10
35.761284341594546
 20
115.95970370136865
 11
37.011284341594546
 21
115.95970370136865
  0
LINE
  8
_0-1_
  6
CONTINUOUS
 62
  152
 10
37.011284341594546
 20
115.95970370136865
 11
37.011284341594546
 21
118.95970370136865
  0
LINE
  8
_0-1_
  6
CONTINUOUS
 62
  152
 10
30.62348804818339
 20
116.5597036057361
 11
20.225617900037832
 21
116.5597036057361
  0
LINE
  8
_0-1_
  6
CONTINUOUS
 62
  152
 10
20.12348804818339
 20
114.35970379636865
 11
30.63359008023599
 21
114.35970379636865
  0
LINE
  8
_0-1_
  6
CONTINUOUS
 62
  152
 10
27.50205904775521
 20
121.83970370136876
 11
22.744917048613388
 21
121.83970370136876
  0
LINE
  8
_0-1_
  6
CENTER1
 62
  152
 10
25.12348804818339
 20
123.4597037013682
 11
25.12348804818339
 21
133.83970036580968
  0
LINE
  8
_0-1_
  6
CONTINUOUS
 62
  152
 10
21.504870739313446
 20
131.35970370136829
 11
20.760003202329244
 21
131.35970370136829
  0
LINE
  8
_0-1_
  6
CONTINUOUS
 62
  152
 10
20.225617900037832
 20
113.35970379673608
 11
70.12348804818339
 21
113.35970379673608
  0
LINE
  8
_0-1_
  6
CONTINUOUS
 62
  152
 10
70.12348804818339
 20
116.5597036057361
 11
59.62348804818339
 21
116.5597036057361
  0
LINE
  8
_0-1_
  6
CONTINUOUS
 62
  152
 10
54.485691754772233
 20
115.95970370136865
 11
52.485691754772233
 21
113.95970370136865
  0
LINE
  8
_0-1_
  6
CONTINUOUS
 62
  152
 10
52.485691754772233
 20
113.95970370136865
 11
50.485691754772233
 21
115.95970370136865
  0
LINE
  8
_0-1_
  6
CONTINUOUS
 62
  152
 10
50.485691754772233
 20
115.95970370136865
 11
51.735691754772233
 21
115.95970370136865
  0
LINE
  8
_0-1_
  6
CONTINUOUS
 62
  152
 10
51.735691754772233
 20
115.95970370136865
 11
51.735691754772233
 21
118.95970370136865
  0
LINE
  8
_0-1_
  6
CONTINUOUS
 62
  152
 10
51.735691754772233
 20
118.95970370136865
 11
53.235691754772233
 21
118.95970370136865
  0
LINE
  8
_0-1_
  6
CONTINUOUS
 62
  152
 10
53.235691754772233
 20
118.95970370136865
 11
53.235691754772233
 21
115.95970370136865
  0
LINE
  8
_0-1_
  6
CONTINUOUS
 62
  152
 10
53.235691754772233
 20
115.95970370136865
 11
54.485691754772233
 21
115.95970370136865
  0
LINE
  8
_0-1_
  6
CONTINUOUS
 62
  152
 10
61.355411615837511
 20
123.19970370136843
 11
68.891564480529269
 21
123.19970370136843
  0
LINE
  8
_0-1_
  6
CONTINUOUS
 62
  152
 10
69.486972894037535
 20
124.55970370136856
 11
67.028743936508363
 21
124.55970370136856
  0
LINE
  8
_0-1_
  6
CONTINUOUS
 62
  152
 10
67.323488048183208
 20
125.91970370136869
 11
69.62348804818339
 21
125.91970370136869
  0
LINE
  8
_0-1_
  6
CONTINUOUS
 62
  152
 10
69.62348804818339
 20
127.27970370136836
 11
67.929199968542889
 21
127.27970370136836
  0
LINE
  8
_0-1_
  6
CONTINUOUS
 62
  152
 10
68.772050778362427
 20
128.63970370136894
 11
69.62348804818339
 21
128.63970370136894
  0
LINE
  8
_0-1_
  6
CONTINUOUS
 62
  152
 10
69.62348804818339
 20
129.99970370136862
 11
69.003281936013991
 21
129.99970370136862
  0
LINE
  8
_0-1_
  6
CENTER1
 62
  152
 10
69.003488162624308
 20
129.95970025136876
 11
61.243487933742472
 21
129.95970025136876
  0
LINE
  8
_0-1_
  6
CONTINUOUS
 62
  152
 10
61.243694160352788
 20
129.99970370136862
 11
60.62348804818339
 21
129.99970370136862
  0
LINE
  8
_0-1_
  6
CONTINUOUS
 62
  152
 10
60.62348804818339
 20
128.63970370136894
 11
61.474925318004352
 21
128.63970370136894
  0
LINE
  8
_0-1_
  6
CONTINUOUS
 62
  152
 10
62.31777612782389
 20
127.27970370136836
 11
60.62348804818339
 21
127.27970370136836
  0
LINE
  8
_0-1_
  6
CONTINUOUS
 62
  152
 10
60.62348804818339
 20
125.91970370136869
 11
62.923488048182662
 21
125.91970370136869
  0
LINE
  8
_0-1_
  6
CONTINUOUS
 62
  152
 10
63.218232159857507
 20
124.55970370136856
 11
60.760003202328335
 21
124.55970370136856
  0
LINE
  8
_0-1_
  6
CONTINUOUS
 62
  152
 10
62.744917048611569
 20
121.83970370136876
 11
67.502059047753391
 21
121.83970370136876
  0
LINE
  8
_0-1_
  6
CENTER1
 62
  152
 10
65.12348804818339
 20
123.4597037013682
 11
65.12348804818339
 21
133.83970036580968
  0
LINE
  8
_0-1_
  6
CONTINUOUS
 62
  152
 10
67.502059047753391
 20
134.07970370136854
 11
62.744917048611569
 21
134.07970370136854
  0
LINE
  8
_0-1_
  6
CONTINUOUS
 62
  152
 10
62.396441689198582
 20
132.71970370136842
 11
61.355411615837511
 21
132.71970370136842
  0
LINE
  8
_0-1_
  6
CONTINUOUS
 62
  152
 10
61.504870739313446
 20
131.35970370136829
 11
60.760003202328335
 21
131.35970370136829
  0
LINE
  8
_0-1_
  6
CONTINUOUS
 62
  152
 10
68.742105357053333
 20
131.35970370136829
 11
69.486972894037535
 21
131.35970370136829
  0
LINE
  8
_0-1_
  6
CONTINUOUS
 62
  152
 10
68.891564480529269
 20
132.71970370136842
 11
67.850534407168198
 21
132.71970370136842
  0
LINE
  8
_0-1_
  6
CENTER2
 62
  152
 10
45.12348804818339
 20
134.95970370136865
 11
45.12348804818339
 21
108.45970406236847
  0
LINE
  8
_0-1_
  6
CENTER1
 62
  152
 10
60.12348804818339
 20
36.874937785813529
 11
60.12348804818339
 21
25.733208278244319
  0
LINE
  8
_0-1_
  6
CENTER1
 62
  152
 10
30.12348804818339
 20
36.874937785813529
 11
30.12348804818339
 21
25.733208278244319
  0
LINE
  8
_0-8_
  6
CONTINUOUS
 62
  152
 10
20.12348804818339
 20
37.203797600871553
 11
70.12348804818339
 21
37.203797600871553
  0
LINE
  8
_0-8_
  6
CONTINUOUS
 62
  152
 10
20.12348804818339
 20
35.703797600871553
 11
70.12348804818339
 21
35.703797600871553
  0
LINE
  8
_0-8_
  6
CONTINUOUS
 62
  152
 10
40.12348804818339
 20
31.403797600871542
 11
50.12348804818339
 21
31.403797600871542
  0
LINE
  8
_0-1_
  6
CONTINUOUS
 62
  152
 10
29.12348804818339
 20
29.403797501452573
 11
29.12348804818339
 21
29.003797501452027
  0
LINE
  8
_0-1_
  6
CONTINUOUS
 62
  152
 10
31.12348804818339
 20
29.003797501452027
 11
31.12348804818339
 21
29.403797501452573
  0
LINE
  8
_0-1_
  6
CONTINUOUS
 62
  152
 10
59.123488048183276
 20
29.403797501452573
 11
59.123488048183276
 21
29.003797501452027
  0
LINE
  8
_0-1_
  6
CONTINUOUS
 62
  152
 10
61.123488048183276
 20
29.003797501452027
 11
61.123488048183276
 21
29.403797501452573
  0
LINE
  8
_0-8_
  6
CONTINUOUS
 62
  152
 10
40.12348804818339
 20
103.85970370136829
 11
20.12348804818339
 21
103.85970370136829
  0
LINE
  8
_0-8_
  6
CONTINUOUS
 62
  152
 10
40.12348804818339
 20
103.85970370136829
 11
40.12348804818339
 21
108.45970406236847
  0
LINE
  8
_0-8_
  6
CONTINUOUS
 62
  152
 10
50.12348804818339
 20
103.85970370136829
 11
50.12348804818339
 21
108.45970406236847
  0
LINE
  8
_0-8_
  6
CONTINUOUS
 62
  152
 10
70.12348804818339
 20
103.85970370136829
 11
50.12348804818339
 21
103.85970370136829
  0
LINE
  8
_0-1_
  6
CENTER2
 62
  152
 10
30.12348804818339
 20
109.47462013880454
 11
30.12348804818339
 21
102.08493507624956
  0
LINE
  8
_0-1_
  6
CENTER2
 62
  152
 10
60.12348804818339
 20
109.47462013880454
 11
60.12348804818339
 21
102.08493507624956
  0
LINE
  8
_0-1_
  6
CENTER2
 62
  152
 10
24.606806088311487
 20
106.15970370136876
 11
36.66366066405908
 21
106.15970370136876
  0
LINE
  8
_0-1_
  6
CENTER2
 62
  152
 10
53.971080942148319
 20
106.15970370136876
 11
65.250073932363875
 21
106.15970370136876
  0
CIRCLE
  8
_0-1_
  6
CONTINUOUS
 62
  152
 10
30.12348804818339
 20
106.15970370136876
 40
1.5
  0
CIRCLE
  8
_0-1_
  6
CONTINUOUS
 62
  152
 10
30.12348804818339
 20
106.15970370136876
 40
1.2999999523162842
  0
LINE
  8
_0-1_
  6
CONTINUOUS
 62
  152
 10
31.241454857332656
 20
105.15962859736874
 11
40.12348804818339
 21
105.15962859736874
  0
LINE
  8
_0-1_
  6
CONTINUOUS
 62
  152
 10
31.241454857332656
 20
107.15977880536877
 11
40.12348804818339
 21
107.15977880536877
  0
LINE
  8
_0-1_
  6
CONTINUOUS
 62
  152
 10
20.12348804818339
 20
107.15977880536877
 11
29.005521239034124
 21
107.15977880536877
  0
LINE
  8
_0-1_
  6
CONTINUOUS
 62
  152
 10
20.12348804818339
 20
105.15962859736874
 11
29.005521239034124
 21
105.15962859736874
  0
CIRCLE
  8
_0-1_
  6
CONTINUOUS
 62
  152
 10
60.12348804818339
 20
106.15970370136876
 40
1.5
  0
CIRCLE
  8
_0-1_
  6
CONTINUOUS
 62
  152
 10
60.12348804818339
 20
106.15970370136876
 40
1.2999999523162842
  0
LINE
  8
_0-1_
  6
CONTINUOUS
 62
  152
 10
61.241454857332656
 20
105.15962859736874
 11
70.12348804818339
 21
105.15962859736874
  0
LINE
  8
_0-1_
  6
CONTINUOUS
 62
  152
 10
61.241454857332656
 20
107.15977880536877
 11
70.12348804818339
 21
107.15977880536877
  0
LINE
  8
_0-1_
  6
CONTINUOUS
 62
  152
 10
50.12348804818339
 20
107.15977880536877
 11
59.005521239034124
 21
107.15977880536877
  0
LINE
  8
_0-1_
  6
CONTINUOUS
 62
  152
 10
50.12348804818339
 20
105.15962859736874
 11
59.005521239034124
 21
105.15962859736874
  0
LINE
  8
_0-1_
  6
CENTER2
 62
  152
 10
109.47448093912925
 20
10.2037975014523
 11
134.47448093912925
 21
10.2037975014523
  0
LINE
  8
_0-1_
  6
CENTER2
 62
  152
 10
134.47448093912925
 20
10.2037975014523
 11
134.47448093912925
 21
35.2037975014523
  0
LINE
  8
_0-1_
  6
CENTER2
 62
  152
 10
134.47448093912925
 20
35.2037975014523
 11
109.47448093912925
 21
35.2037975014523
  0
LINE
  8
_0-1_
  6
CENTER2
 62
  152
 10
109.47448093912925
 20
35.2037975014523
 11
109.47448093912925
 21
10.2037975014523
  0
LINE
  8
_0-1_
  6
CENTER2
 62
  152
 10
8.6306530656863742
 20
37.927341603842308
 11
16.880008698262145
 21
7.1403272533649442
  0
LINE
  8
_0-1_
  6
CENTER2
 62
  152
 10
76.283519344997785
 20
37.927341603842308
 11
84.532874977573556
 21
7.1403272533649442
  0
LINE
  8
_0-1_
  6
CENTER2
 62
  152
 10
83.712020598561764
 20
10.2037975014523
 11
16.05915431925041
 21
10.2037975014523
  0
LINE
  8
_0-1_
  6
CENTER2
 62
  152
 10
8.6306530656863742
 20
122.68323780375891
 11
16.880008698262145
 21
91.89622345328155
  0
LINE
  8
_0-1_
  6
CENTER2
 62
  152
 10
83.712020598561764
 20
94.959693701368906
 11
16.05915431925041
 21
94.959693701368906
  0
LINE
  8
_0-1_
  6
CENTER2
 62
  152
 10
76.283519344997785
 20
122.68323780375891
 11
84.532874977573556
 21
91.89622345328155
  0
LINE
  8
_0-1_
  6
CENTER2
 62
  152
 10
77.013290787783717
 20
119.95969370136891
 11
70.12348804818339
 21
119.95969370136891
  0
LINE
  8
_0-1_
  6
CENTER2
 62
  152
 10
20.12348804818339
 20
119.95969370136891
 11
9.3604245084723061
 21
119.95969370136891
  0
LINE
  8
_0-1_
  6
CENTER2
 62
  152
 10
77.013290787783717
 20
35.2037975014523
 11
70.12348804818339
 21
35.2037975014523
  0
LINE
  8
_0-1_
  6
CENTER2
 62
  152
 10
20.12348804818339
 20
35.2037975014523
 11
9.3604245084723061
 21
35.2037975014523
  0
TEXT
  8
_0-1_
 62
    7
 10
10.83199534219375
 20
139.38405203707953
 40
4.2999999999999998
 41
0.744186046511628
 50
0
  1
MC25-S
  0
TEXT
  8
_0-1_
 62
    7
 10
194.6043291842679
 20
121.36737469829757
 40
4.2999999999999998
 41
0.744186046511628
 50
0
  1
MC25-N
  0
ENDSEC
  0
EOF
