  0
SECTION
  2
HEADER
  9
$ACADVER
  1
AC1009
  9
$INSBASE
 10
0
 20
0
 30
0
  9
$EXTMIN
 10
0
 20
0
  9
$EXTMAX
 10
1189
 20
841
  9
$LIMMIN
 10
0
 20
0
  9
$LIMMAX
 10
1189
 20
841
  9
$LTSCALE
 40
1
  0
ENDSEC
  0
SECTION
  2
TABLES
  0
TABLE
  2
LTYPE
 70
     9
  0
LTYPE
  2
CONTINUOUS
 70
    64
  3
実線
 72
    65
 73
     0
 40
0.0
  0
LTYPE
  2
DASHED1
 70
    64
  3
--  --  --  --  --  --  --  --  
 72
    65
 73
     2
 40
2.5
 49
1.25
 49
-1.25
  0
LTYPE
  2
DASHED2
 70
    64
  3
----    ----    ----    ----    
 72
    65
 73
     2
 40
5.0
 49
2.5
 49
-2.5
  0
LTYPE
  2
DASHED3
 70
    64
  3
------  ------  ------  ------  
 72
    65
 73
     2
 40
5.0
 49
3.75
 49
-1.25
  0
LTYPE
  2
CENTER1
 70
    64
  3
----- - ----- - ----- - ----- - 
 72
    65
 73
     4
 40
10.0
 49
6.25
 49
-1.25
 49
1.25
 49
-1.25
  0
LTYPE
  2
CENTER2
 70
    64
  3
----------  --  ----------  --  
 72
    65
 73
     4
 40
20.0
 49
12.5
 49
-2.5
 49
2.5
 49
-2.5
  0
LTYPE
  2
PHANTOM1
 70
    64
  3
--- - - --- - - --- - - --- - - 
 72
    65
 73
     6
 40
10.0
 49
3.25
 49
-1.25
 49
1.25
 49
-1.25
 49
1.25
 49
-1.25
  0
LTYPE
  2
PHANTOM2
 70
    64
  3
--------  -  -  --------  -  -  
 72
    65
 73
     6
 40
20.0
 49
10.0
 49
-2.5
 49
1.25
 49
-2.5
 49
1.25
 49
-2.5
  0
LTYPE
  2
DOT
 70
    64
  3
-   -   -   -   -   -   -   -   
 72
    65
 73
     2
 40
2.5
 49
0.625
 49
-1.875
  0
LTYPE
  2
DUMMY
 70
    64
  3
ダミー
 72
    65
 73
     0
 40
0.0
  0
LTYPE
  2
RAND1
 70
    64
  3
ランダム線1
 72
    65
 73
     4
 40
10.0
 49
1.0
 49
-2.0
 49
3.0
 49
-4.0
  0
LTYPE
  2
RAND2
 70
    64
  3
ランダム線2
 72
    65
 73
     4
 40
14.0
 49
2.0
 49
-3.0
 49
4.0
 49
-5.0
  0
LTYPE
  2
RAND3
 70
    64
  3
ランダム線3
 72
    65
 73
     4
 40
18.0
 49
3.0
 49
-4.0
 49
5.0
 49
-6.0
  0
LTYPE
  2
RAND4
 70
    64
  3
ランダム線4
 72
    65
 73
     4
 40
22.0
 49
4.0
 49
-5.0
 49
6.0
 49
-7.0
  0
LTYPE
  2
RAND5
 70
    64
  3
ランダム線5
 72
    65
 73
     4
 40
26.0
 49
5.0
 49
-6.0
 49
7.0
 49
-8.0
  0
LTYPE
  2
LONG1
 70
    64
  3
----------  --  ----------  --  
 72
    65
 73
     4
 40
40.0
 49
32.5
 49
-2.5
 49
2.5
 49
-2.5
  0
LTYPE
  2
LONG2
 70
    64
  3
--------  -  -  --------  -  -  
 72
    65
 73
     6
 40
40.0
 49
30.0
 49
-2.5
 49
1.25
 49
-2.5
 49
1.25
 49
-2.5
  0
LTYPE
  2
LONG3
 70
    64
  3
+++++++++++++++..+++++++++++++++
 72
    65
 73
     2
 40
40.0
 49
37.5
 49
-2.5
  0
LTYPE
  2
LONG4
 70
    64
  3
+++++++++++++++..+++++++++++++++
 72
    65
 73
     2
 40
80.0
 49
75.0
 49
-5.0
  0
LTYPE
  2
LONG5
 70
    64
  3
----------  --  ----------  --  
 72
    65
 73
     4
 40
60.0
 49
37.5
 49
-7.5
 49
7.5
 49
-7.5
  0
LTYPE
  2
dashed
 70
   64
  3
-------   -------------   ------
 72
   65
 73
    2
 40
7.5
 49
6
 49
-1.5
  0
LTYPE
  2
dashed_spaced
 70
   64
  3
----        --------        ----
 72
   65
 73
    2
 40
12
 49
6
 49
-6
  0
LTYPE
  2
long_dashed_dotted
 70
   64
  3
------------- --- --------------
 72
   65
 73
    4
 40
15.25
 49
12
 49
-1.5
 49
0.25
 49
-1.5
  0
LTYPE
  2
long_dashed_double-dotted
 70
   64
  3
----------- --- --- ------------
 72
   65
 73
    6
 40
17
 49
12
 49
-1.5
 49
0.25
 49
-1.5
 49
0.25
 49
-1.5
  0
LTYPE
  2
long_dashed_triplicate-dotted
 70
   64
  3
--------- --- --- --- ----------
 72
   65
 73
    8
 40
18.75
 49
12
 49
-1.5
 49
0.25
 49
-1.5
 49
0.25
 49
-1.5
 49
0.25
 49
-1.5
  0
LTYPE
  2
dotted
 70
   64
  3
   -       -       -       -    
 72
   65
 73
    2
 40
1.75
 49
0.25
 49
-1.5
  0
LTYPE
  2
chain
 70
   64
  3
-------------- -- --------------
 72
   65
 73
    4
 40
18.5
 49
12
 49
-1.5
 49
3.5
 49
-1.5
  0
LTYPE
  2
chain_double_dash
 70
   64
  3
------------ -- -- -------------
 72
   65
 73
    6
 40
23.5
 49
12
 49
-1.5
 49
3.5
 49
-1.5
 49
3.5
 49
-1.5
  0
LTYPE
  2
dashed_dotted
 70
   64
  3
-----------     -     ----------
 72
   65
 73
    4
 40
9.25
 49
6
 49
-1.5
 49
0.25
 49
-1.5
  0
LTYPE
  2
double-dashed_dotted
 70
   64
  3
------   -----------   -   -----
 72
   65
 73
    6
 40
16.75
 49
6
 49
-1.5
 49
6
 49
-1.5
 49
0.25
 49
-1.5
  0
LTYPE
  2
dashed_double-dotted
 70
   64
  3
---------    -    -    ---------
 72
   65
 73
    6
 40
11
 49
6
 49
-1.5
 49
0.25
 49
-1.5
 49
0.25
 49
-1.5
  0
LTYPE
  2
double-dashed_double-dotted
 70
   64
  3
-----   ---------   -   -   ----
 72
   65
 73
    8
 40
18.5
 49
6
 49
-1.5
 49
6
 49
-1.5
 49
0.25
 49
-1.5
 49
0.25
 49
-1.5
  0
LTYPE
  2
dashed_triplicate-dotted
 70
   64
  3
-------    -    -    -    ------
 72
   65
 73
    8
 40
12.75
 49
6
 49
-1.5
 49
0.25
 49
-1.5
 49
0.25
 49
-1.5
 49
0.25
 49
-1.5
  0
LTYPE
  2
double-dashed_triplicate-dotted
 70
   64
  3
-----  ---------  -  -  -  -----
 72
   65
 73
   10
 40
20.25
 49
6
 49
-1.5
 49
6
 49
-1.5
 49
0.25
 49
-1.5
 49
0.25
 49
-1.5
 49
0.25
 49
-1.5
  0
LTYPE
  2
undefined
 70
   64
  3
--------------------------------
 72
   65
 73
    0
 40
0
  0
ENDTAB
  0
TABLE
  2
STYLE
  5
3
100
AcDbSymbolTable
 70
     1
  0
STYLE
  5
10
100
AcDbSymbolTableRecord
100
AcDbTextStyleTableRecord
  2
STANDARD
 70
     0
 40
0.0
 41
1.0
 50
0.0
 71
     0
 42
0.2
  3
txt
  4
bigfont.shx
  0
STYLE
  5
26
100
AcDbSymbolTableRecord
100
AcDbTextStyleTableRecord
  2
TATEGAKI
 70
    68
 40
0.0
 41
1.0
 50
0.0
 71
     0
 42
1.0
  3
txt
  4
bigfont.shx
  0
ENDTAB
  0
TABLE
  2
LAYER
 70
    4
  0
LAYER
  2
_0-0_
 70
   64
 62
    7
  6
CONTINUOUS
  0
LAYER
  2
_0-1_
 70
   64
 62
    7
  6
CONTINUOUS
  0
LAYER
  2
_0-f_
 70
   64
 62
    7
  6
CONTINUOUS
  0
LAYER
  2
ADD_LINE
 70
   64
 62
    7
  6
CONTINUOUS
  0
ENDTAB
  0
ENDSEC
  0
SECTION
  2
BLOCKS
  0
ENDSEC
  0
SECTION
  2
ENTITIES
  0
TEXT
  8
_0-f_
 62
    7
 10
3.395595774282242
 20
2.8302456816402923
 40
4.2999999999999998
 41
0.744186046511628
 50
0
  1
LU40
  0
LINE
  8
_0-0_
  6
CONTINUOUS
 62
  250
 10
109.16139994917472
 20
81.812517240072282
 11
109.16139994917427
 21
10.812517240072282
  0
LINE
  8
_0-0_
  6
CONTINUOUS
 62
  250
 10
89.161399949174267
 20
10.812517240072282
 11
89.161399949174495
 21
36.312517240072282
  0
LINE
  8
_0-0_
  6
CONTINUOUS
 62
  250
 10
104.66139994917472
 20
56.312517240072282
 11
13.661399949174665
 21
56.312517240072282
  0
LINE
  8
_0-0_
  6
CONTINUOUS
 62
  250
 10
13.661399949174665
 20
36.312517240072282
 11
51.411399949174665
 21
36.312517240072282
  0
LINE
  8
_0-0_
  6
CONTINUOUS
 62
  250
 10
51.411399949174665
 20
33.307241279827792
 11
51.411399949174665
 21
42.245222077509823
  0
LINE
  8
_0-0_
  6
CONTINUOUS
 62
  250
 10
51.359056771100313
 20
42.307241279827792
 11
33.661406908125628
 21
42.307241279827792
  0
LINE
  8
_0-0_
  6
CONTINUOUS
 62
  250
 10
33.661406908125628
 20
42.307241279827792
 11
33.661406908125628
 21
50.307241279827792
  0
LINE
  8
_0-0_
  6
CONTINUOUS
 62
  250
 10
33.661406908125628
 20
50.307241279827792
 11
51.411399949174665
 21
50.307241279827792
  0
LINE
  8
_0-0_
  6
CONTINUOUS
 62
  250
 10
51.411399949174665
 20
50.369260482145762
 11
51.411399949174665
 21
54.307241279827792
  0
LINE
  8
_0-0_
  6
CONTINUOUS
 62
  250
 10
51.411399949174665
 20
56.307241279827792
 11
51.411399949174665
 21
57.307241279827792
  0
LINE
  8
_0-0_
  6
CONTINUOUS
 62
  250
 10
53.411399949174665
 20
56.307241279827792
 11
58.911399949174665
 21
56.307241279827792
  0
LINE
  8
_0-0_
  6
CONTINUOUS
 62
  250
 10
60.911399949174665
 20
56.307241279827792
 11
60.911399949174665
 21
57.307241279827792
  0
LINE
  8
_0-0_
  6
CONTINUOUS
 62
  250
 10
60.911399949174665
 20
54.307241279827792
 11
60.911399949174665
 21
50.369260482145762
  0
LINE
  8
_0-0_
  6
CONTINUOUS
 62
  250
 10
60.911399949174665
 20
36.312517240072282
 11
104.66139994917449
 21
36.312517240072282
  0
LINE
  8
_0-0_
  6
CONTINUOUS
 62
  250
 10
46.161399949174665
 20
81.807241279827792
 11
46.161399949174665
 21
56.307241279827792
  0
LINE
  8
_0-0_
  6
CONTINUOUS
 62
  250
 10
53.411399949174665
 20
59.307241279827792
 11
58.911399949174665
 21
59.307241279827792
  0
LINE
  8
_0-0_
  6
CONTINUOUS
 62
  250
 10
66.161399949174665
 20
56.307241279827792
 11
66.161399949174665
 21
81.807241279827792
  0
LINE
  8
_0-0_
  6
CONTINUOUS
 62
  250
 10
89.161399949174722
 20
81.812517240072282
 11
89.161399949174495
 21
56.312517240072282
  0
LINE
  8
_0-0_
  6
CONTINUOUS
 62
  250
 10
164.56069649038074
 20
86.312517240072282
 11
164.56069649038028
 21
6.3125172400722818
  0
LINE
  8
_0-0_
  6
CONTINUOUS
 62
  250
 10
164.56069649038028
 20
6.3125172400722818
 11
167.56069649038028
 21
6.3125172400722818
  0
LINE
  8
_0-0_
  6
CONTINUOUS
 62
  250
 10
167.56069649038028
 20
6.3125172400722818
 11
167.56069649038074
 21
86.312517240072282
  0
LINE
  8
_0-0_
  6
CONTINUOUS
 62
  250
 10
167.56069649038074
 20
86.312517240072282
 11
164.56069649038074
 21
86.312517240072282
  0
LINE
  8
_0-0_
  6
CONTINUOUS
 62
  250
 10
164.56069649038028
 20
56.312517240072282
 11
161.56069649038028
 21
56.312517240072282
  0
LINE
  8
_0-0_
  6
CONTINUOUS
 62
  250
 10
161.56069649038028
 20
56.312517240072282
 11
161.56069649038028
 21
36.312517240072282
  0
LINE
  8
_0-0_
  6
CONTINUOUS
 62
  250
 10
161.56069649038028
 20
36.312517240072282
 11
164.56069649038028
 21
36.312517240072282
  0
LINE
  8
_0-0_
  6
CONTINUOUS
 62
  250
 10
164.03128472567442
 20
33.343767618154686
 11
163.03128472567442
 21
33.343767618154686
  0
LINE
  8
_0-0_
  6
CONTINUOUS
 62
  250
 10
162.6783435492037
 20
30.364601203542577
 11
163.67834354920393
 21
30.364601203542577
  0
LINE
  8
_0-0_
  6
CONTINUOUS
 62
  250
 10
159.06069649038028
 20
37.812517240072282
 11
159.06069649038028
 21
40.562517240072282
  0
LINE
  8
_0-0_
  6
CONTINUOUS
 62
  250
 10
158.56069649038028
 20
40.562517240072282
 11
158.56069649038028
 21
52.062517240072282
  0
LINE
  8
_0-0_
  6
CONTINUOUS
 62
  250
 10
158.56069649038028
 20
52.062517240072282
 11
161.56069649038028
 21
52.062517240072282
  0
LINE
  8
_0-0_
  6
CONTINUOUS
 62
  250
 10
159.06069649038051
 20
52.062517240072282
 11
159.06069649038051
 21
56.312517240072282
  0
LINE
  8
_0-0_
  6
CONTINUOUS
 62
  250
 10
159.06069649038051
 20
56.312517240072282
 11
156.06069649038051
 21
56.312517240072282
  0
LINE
  8
_0-0_
  6
CONTINUOUS
 62
  250
 10
156.06069649038051
 20
56.312517240072282
 11
156.06069649038028
 21
37.812517240072282
  0
LINE
  8
_0-0_
  6
CONTINUOUS
 62
  250
 10
156.06069649038051
 20
42.812517240072282
 11
152.56069649038028
 21
42.812517240072282
  0
LINE
  8
_0-0_
  6
CONTINUOUS
 62
  250
 10
152.56069649038028
 20
43.812517240072282
 11
152.56069649038028
 21
39.812517240072282
  0
LINE
  8
_0-0_
  6
CONTINUOUS
 62
  250
 10
152.56069649038028
 20
39.812517240072282
 11
151.56069649038028
 21
38.812517240072282
  0
LINE
  8
_0-0_
  6
CONTINUOUS
 62
  250
 10
151.56069649038028
 20
38.812517240072282
 11
151.56069649038028
 21
43.812517240072282
  0
LINE
  8
_0-0_
  6
CONTINUOUS
 62
  250
 10
151.06069649038051
 20
43.812517240072509
 11
156.06069649038051
 21
43.812517240072282
  0
LINE
  8
_0-0_
  6
CONTINUOUS
 62
  250
 10
158.06069649038028
 20
41.312517240072282
 11
158.06069649038028
 21
51.312517240072282
  0
LINE
  8
_0-0_
  6
CONTINUOUS
 62
  250
 10
158.06069649038028
 20
51.312517240072282
 11
158.56069649038028
 21
52.062517240072282
  0
LINE
  8
_0-0_
  6
CONTINUOUS
 62
  250
 10
156.06069649038051
 20
49.812517240072282
 11
152.56069649038028
 21
49.812517240072282
  0
LINE
  8
_0-0_
  6
CONTINUOUS
 62
  250
 10
152.56069649038028
 20
48.812517240072282
 11
152.56069649038028
 21
52.812517240072282
  0
LINE
  8
_0-0_
  6
CONTINUOUS
 62
  250
 10
152.56069649038028
 20
52.812517240072282
 11
151.56069649038028
 21
53.812517240072282
  0
LINE
  8
_0-0_
  6
CONTINUOUS
 62
  250
 10
151.56069649038028
 20
53.812517240072282
 11
148.56069649038028
 21
53.812517240072282
  0
LINE
  8
_0-0_
  6
CONTINUOUS
 62
  250
 10
148.56069649038028
 20
53.812517240072282
 11
147.56069649038028
 21
52.812517240072282
  0
LINE
  8
_0-0_
  6
CONTINUOUS
 62
  250
 10
147.56069649038028
 20
52.812517240072282
 11
147.56069649038028
 21
52.312517240072282
  0
LINE
  8
_0-0_
  6
CONTINUOUS
 62
  250
 10
147.81069649038051
 20
52.562517240072509
 11
147.81069649038028
 21
40.062517240072509
  0
LINE
  8
_0-0_
  6
CONTINUOUS
 62
  250
 10
147.81069649038028
 20
40.062517240072509
 11
150.31069649038028
 21
40.062517240072509
  0
LINE
  8
_0-0_
  6
CONTINUOUS
 62
  250
 10
150.31069649038028
 20
40.062517240072509
 11
150.31069649038074
 21
52.562517240072509
  0
LINE
  8
_0-0_
  6
CONTINUOUS
 62
  250
 10
150.31069649038051
 20
52.562517240072509
 11
147.81069649038051
 21
52.562517240072509
  0
LINE
  8
_0-0_
  6
CONTINUOUS
 62
  250
 10
147.81069649038051
 20
52.562517240072509
 11
147.06069649038051
 21
51.812517240072509
  0
LINE
  8
_0-0_
  6
CONTINUOUS
 62
  250
 10
147.06069649038051
 20
51.812517240072509
 11
147.06069649038028
 21
40.812517240072509
  0
LINE
  8
_0-0_
  6
CONTINUOUS
 62
  250
 10
147.06069649038028
 20
40.812517240072509
 11
147.81069649038028
 21
40.062517240072509
  0
LINE
  8
_0-0_
  6
CONTINUOUS
 62
  250
 10
147.56069649038028
 20
40.312517240072509
 11
147.56069649038028
 21
39.812517240072282
  0
LINE
  8
_0-0_
  6
CONTINUOUS
 62
  250
 10
147.56069649038028
 20
39.812517240072282
 11
148.56069649038028
 21
38.812517240072282
  0
LINE
  8
_0-0_
  6
CONTINUOUS
 62
  250
 10
148.56069649038028
 20
38.812517240072282
 11
151.56069649038028
 21
38.812517240072282
  0
LINE
  8
_0-0_
  6
CONTINUOUS
 62
  250
 10
151.06069649038028
 20
40.812517240072509
 11
151.06069649038051
 21
51.812517240072509
  0
LINE
  8
_0-0_
  6
CONTINUOUS
 62
  250
 10
151.06069649038051
 20
51.812517240072509
 11
150.31069649038051
 21
52.562517240072509
  0
LINE
  8
_0-0_
  6
CONTINUOUS
 62
  250
 10
148.56069649038051
 20
52.562517240072509
 11
148.56069649038028
 21
53.812517240072282
  0
LINE
  8
_0-0_
  6
CONTINUOUS
 62
  250
 10
151.56069649038028
 20
53.812517240072282
 11
151.56069649038028
 21
48.812517240072282
  0
LINE
  8
_0-0_
  6
CONTINUOUS
 62
  250
 10
151.06069649038051
 20
48.812517240072509
 11
156.06069649038051
 21
48.812517240072282
  0
LINE
  8
_0-0_
  6
CONTINUOUS
 62
  250
 10
158.06069649038028
 20
41.312517240072282
 11
158.56069649038028
 21
40.562517240072282
  0
LINE
  8
_0-0_
  6
CONTINUOUS
 62
  250
 10
158.56069649038028
 20
40.562517240072282
 11
161.56069649038028
 21
40.562517240072282
  0
LINE
  8
_0-0_
  6
CONTINUOUS
 62
  250
 10
151.06069649038028
 20
40.812517240072509
 11
150.31069649038028
 21
40.062517240072509
  0
LINE
  8
_0-0_
  6
CONTINUOUS
 62
  250
 10
148.56069649038028
 20
40.062517240072509
 11
148.56069649038028
 21
38.812517240072282
  0
LINE
  8
_0-0_
  6
CONTINUOUS
 62
  250
 10
46.161399949174665
 20
10.807241279827792
 11
46.161399949174665
 21
36.307241279827792
  0
LINE
  8
_0-0_
  6
CONTINUOUS
 62
  250
 10
60.911399949174665
 20
33.307241279827792
 11
60.911399949174665
 21
42.245222077509823
  0
LINE
  8
_0-0_
  6
CONTINUOUS
 62
  250
 10
66.161399949174665
 20
36.307241279827792
 11
66.161399949174665
 21
10.807241279827792
  0
CIRCLE
  8
_0-0_
  6
CONTINUOUS
 62
  250
 10
19.161399949174665
 20
46.312517240072282
 40
6.5
  0
CIRCLE
  8
_0-0_
  6
CONTINUOUS
 62
  250
 10
19.161399949174665
 20
46.312517240072282
 40
7.5
  0
ARC
  8
_0-0_
  6
CONTINUOUS
 62
  250
 10
22.522511060285524
 20
46.312517240072282
 40
13.36111111111115
 50
131.544509364091
 51
228.45549063590809
  0
CIRCLE
  8
_0-0_
  6
CONTINUOUS
 62
  250
 10
99.161399949174722
 20
46.312517240072282
 40
5
  0
CIRCLE
  8
_0-0_
  6
CONTINUOUS
 62
  250
 10
99.161399949174722
 20
46.312517240072282
 40
5.75
  0
ARC
  8
_0-0_
  6
CONTINUOUS
 62
  250
 10
95.800288838062954
 20
46.312517240072282
 40
13.361111111111351
 50
311.54450936409216
 51
48.455490635907694
  0
ARC
  8
_0-0_
  6
CONTINUOUS
 62
  250
 10
99.161399949174267
 20
19.673628351183368
 40
13.36111111111116
 50
221.5445093640914
 51
318.45549063590812
  0
CIRCLE
  8
_0-0_
  6
CONTINUOUS
 62
  250
 10
99.161399949174495
 20
13.812517240072282
 40
2.6000000000000001
  0
ARC
  8
_0-0_
  6
CONTINUOUS
 62
  250
 10
99.161399949174722
 20
72.951406128961196
 40
13.361111111111059
 50
41.544509364091496
 51
138.45549063590852
  0
CIRCLE
  8
_0-0_
  6
CONTINUOUS
 62
  250
 10
99.161399949174722
 20
78.812517240072282
 40
2.6000000000000001
  0
CIRCLE
  8
_0-0_
  6
CONTINUOUS
 62
  250
 10
99.161399949174722
 20
78.807241279827792
 40
4.25
  0
CIRCLE
  8
_0-0_
  6
CONTINUOUS
 62
  250
 10
99.161399949174267
 20
13.807241279827792
 40
4.25
  0
ARC
  8
_0-0_
  6
CONTINUOUS
 62
  250
 10
56.161399949174665
 20
19.668352390939106
 40
13.361111111111169
 50
221.54450936409154
 51
318.45549063590818
  0
ARC
  8
_0-0_
  6
CONTINUOUS
 62
  250
 10
56.16139994917512
 20
72.946130168716934
 40
13.361111111111059
 50
41.544509364091446
 51
138.45549063590846
  0
CIRCLE
  8
_0-0_
  6
CONTINUOUS
 62
  250
 10
56.161399949174665
 20
46.307241279827792
 40
5.5
  0
CIRCLE
  8
_0-0_
  6
CONTINUOUS
 62
  250
 10
56.161399949174665
 20
46.307241279827792
 40
6.25
  0
CIRCLE
  8
_0-0_
  6
CONTINUOUS
 62
  250
 10
56.161399949174665
 20
13.807241279827792
 40
2.6000000000000001
  0
ARC
  8
_0-0_
  6
CONTINUOUS
 62
  250
 10
56.161399949174665
 20
35.567657946494535
 40
5.2604166666666696
 50
205.44871137084411
 51
334.55128862915512
  0
ARC
  8
_0-0_
  6
CONTINUOUS
 62
  250
 10
58.911399949174665
 20
54.307241279827792
 40
2
 50
359.9999999999992
 51
89.999999999999986
  0
ARC
  8
_0-0_
  6
CONTINUOUS
 62
  250
 10
53.411399949174665
 20
54.307241279827792
 40
2
 50
90
 51
180
  0
ARC
  8
_0-0_
  6
CONTINUOUS
 62
  250
 10
53.411399949174665
 20
57.307241279827792
 40
2
 50
90
 51
180
  0
ARC
  8
_0-0_
  6
CONTINUOUS
 62
  250
 10
58.911399949174665
 20
57.307241279827792
 40
2
 50
359.9999999999992
 51
89.999999999999986
  0
CIRCLE
  8
_0-0_
  6
CONTINUOUS
 62
  250
 10
56.16139994917512
 20
78.807241279827792
 40
2.6000000000000001
  0
CIRCLE
  8
_0-0_
  6
CONTINUOUS
 62
  250
 10
56.16139994917512
 20
78.807241279827792
 40
4.25
  0
CIRCLE
  8
_0-0_
  6
CONTINUOUS
 62
  250
 10
56.161399949174665
 20
13.807241279827792
 40
4.25
  0
ARC
  8
_0-0_
  6
CONTINUOUS
 62
  250
 10
163.56069649037573
 20
29.371545731982394
 40
4.0000000000232578
 50
75.522487814089004
 51
83.243672969387021
  0
ARC
  8
_0-0_
  6
CONTINUOUS
 62
  250
 10
163.56069649038028
 20
29.371545732005359
 40
1
 50
0
 51
83.243672969411804
  0
ARC
  8
_0-0_
  6
CONTINUOUS
 62
  250
 10
163.56069649038028
 20
37.812517240072282
 40
7.5
 50
180
 51
263.24367296941091
  0
ARC
  8
_0-0_
  6
CONTINUOUS
 62
  250
 10
163.56069649038028
 20
37.812517240072282
 40
4.5
 50
180
 51
263.24367296941142
  0
LINE
  8
_0-1_
  6
CENTER1
 62
  152
 10
104.56139994917436
 20
13.812517240072282
 11
93.761399949174404
 21
13.812517240072282
  0
LINE
  8
_0-1_
  6
PHANTOM1
 62
  152
 10
90.67193034551093
 20
13.812517240072282
 11
99.161399949174495
 21
13.812517240072282
  0
LINE
  8
_0-1_
  6
CENTER1
 62
  152
 10
99.161399949174495
 20
19.212517240072145
 11
99.161399949174267
 21
8.4125172400721908
  0
LINE
  8
_0-1_
  6
CENTER1
 62
  152
 10
99.161399949174495
 20
39.562517240072282
 11
99.161399949174722
 21
53.062517240072282
  0
LINE
  8
_0-1_
  6
CENTER1
 62
  152
 10
19.161399949174665
 20
54.812517240072282
 11
19.161399949174665
 21
37.812517240072282
  0
LINE
  8
_0-1_
  6
CENTER1
 62
  152
 10
56.161399949174665
 20
53.557241279827792
 11
56.161399949174665
 21
39.057241279827792
  0
LINE
  8
_0-1_
  6
CENTER1
 62
  152
 10
110.16139994917449
 20
46.312517240072282
 11
8.1613999491746654
 21
46.312517240072737
  0
LINE
  8
_0-1_
  6
CENTER1
 62
  152
 10
61.561399949174756
 20
78.807241279827792
 11
50.761399949175029
 21
78.807241279827792
  0
LINE
  8
_0-1_
  6
CENTER1
 62
  152
 10
56.16139994917512
 20
73.407241279827701
 11
56.16139994917512
 21
84.207241279827883
  0
LINE
  8
_0-1_
  6
CENTER1
 62
  152
 10
93.761399949174631
 20
78.812517240072282
 11
104.56139994917481
 21
78.812517240072282
  0
LINE
  8
_0-1_
  6
CENTER1
 62
  152
 10
99.161399949174722
 20
84.212517240072145
 11
99.161399949174722
 21
73.412517240072191
  0
LINE
  8
_0-1_
  6
DASHED2
 62
  152
 10
164.56069649038051
 20
74.557241279828247
 11
166.21597245062486
 21
76.2125172400726
  0
LINE
  8
_0-1_
  6
DASHED2
 62
  152
 10
166.21597245062486
 20
76.2125172400726
 11
167.56069649038051
 21
76.2125172400726
  0
LINE
  8
_0-1_
  6
DASHED2
 62
  152
 10
166.20542053013634
 20
76.2125172400726
 11
166.20542053013634
 21
81.412517240072646
  0
LINE
  8
_0-1_
  6
DASHED2
 62
  152
 10
166.20542053013634
 20
81.412517240072646
 11
164.56069649038074
 21
83.057241279828247
  0
LINE
  8
_0-1_
  6
DASHED2
 62
  152
 10
166.20542053013634
 20
81.412517240072646
 11
167.56069649038074
 21
81.412517240072646
  0
LINE
  8
_0-1_
  6
CENTER1
 62
  152
 10
168.56069649038074
 20
78.812517240072282
 11
163.56069649038051
 21
78.812517240072282
  0
LINE
  8
_0-1_
  6
CENTER1
 62
  152
 10
144.06069649038051
 20
46.312517240072282
 11
169.03078573555132
 21
46.312517240072282
  0
LINE
  8
_0-1_
  6
DASHED2
 62
  152
 10
167.56069649038028
 20
16.412517240072646
 11
166.20542053013588
 21
16.412517240072646
  0
LINE
  8
_0-1_
  6
DASHED2
 62
  152
 10
166.20542053013588
 20
16.412517240072646
 11
164.56069649038028
 21
18.057241279828247
  0
LINE
  8
_0-1_
  6
DASHED2
 62
  152
 10
166.20542053013588
 20
16.412517240072646
 11
166.20542053013588
 21
11.2125172400726
  0
LINE
  8
_0-1_
  6
DASHED2
 62
  152
 10
166.21597245062463
 20
11.2125172400726
 11
164.56069649038028
 21
9.5572412798282471
  0
LINE
  8
_0-1_
  6
DASHED2
 62
  152
 10
166.21597245062463
 20
11.2125172400726
 11
167.56069649038028
 21
11.2125172400726
  0
LINE
  8
_0-1_
  6
CENTER1
 62
  152
 10
168.56069649038028
 20
13.812517240072282
 11
163.56069649038028
 21
13.812517240072282
  0
LINE
  8
_0-1_
  6
CENTER1
 62
  152
 10
61.561399949174756
 20
13.807241279827792
 11
50.761399949174574
 21
13.807241279827792
  0
LINE
  8
_0-1_
  6
CENTER1
 62
  152
 10
56.161399949174665
 20
19.207241279827883
 11
56.161399949174665
 21
8.4072412798277014
  0
ENDSEC
  0
EOF
