  0
SECTION
  2
HEADER
  9
$ACADVER
  1
AC1009
  9
$INSBASE
 10
0
 20
0
 30
0
  9
$EXTMIN
 10
0
 20
0
  9
$EXTMAX
 10
1189
 20
841
  9
$LIMMIN
 10
0
 20
0
  9
$LIMMAX
 10
1189
 20
841
  9
$LTSCALE
 40
1
  0
ENDSEC
  0
SECTION
  2
TABLES
  0
TABLE
  2
LTYPE
 70
     9
  0
LTYPE
  2
CONTINUOUS
 70
    64
  3
実線
 72
    65
 73
     0
 40
0.0
  0
LTYPE
  2
DASHED1
 70
    64
  3
--  --  --  --  --  --  --  --  
 72
    65
 73
     2
 40
2.5
 49
1.25
 49
-1.25
  0
LTYPE
  2
DASHED2
 70
    64
  3
----    ----    ----    ----    
 72
    65
 73
     2
 40
5.0
 49
2.5
 49
-2.5
  0
LTYPE
  2
DASHED3
 70
    64
  3
------  ------  ------  ------  
 72
    65
 73
     2
 40
5.0
 49
3.75
 49
-1.25
  0
LTYPE
  2
CENTER1
 70
    64
  3
----- - ----- - ----- - ----- - 
 72
    65
 73
     4
 40
10.0
 49
6.25
 49
-1.25
 49
1.25
 49
-1.25
  0
LTYPE
  2
CENTER2
 70
    64
  3
----------  --  ----------  --  
 72
    65
 73
     4
 40
20.0
 49
12.5
 49
-2.5
 49
2.5
 49
-2.5
  0
LTYPE
  2
PHANTOM1
 70
    64
  3
--- - - --- - - --- - - --- - - 
 72
    65
 73
     6
 40
10.0
 49
3.25
 49
-1.25
 49
1.25
 49
-1.25
 49
1.25
 49
-1.25
  0
LTYPE
  2
PHANTOM2
 70
    64
  3
--------  -  -  --------  -  -  
 72
    65
 73
     6
 40
20.0
 49
10.0
 49
-2.5
 49
1.25
 49
-2.5
 49
1.25
 49
-2.5
  0
LTYPE
  2
DOT
 70
    64
  3
-   -   -   -   -   -   -   -   
 72
    65
 73
     2
 40
2.5
 49
0.625
 49
-1.875
  0
LTYPE
  2
DUMMY
 70
    64
  3
ダミー
 72
    65
 73
     0
 40
0.0
  0
LTYPE
  2
RAND1
 70
    64
  3
ランダム線1
 72
    65
 73
     4
 40
10.0
 49
1.0
 49
-2.0
 49
3.0
 49
-4.0
  0
LTYPE
  2
RAND2
 70
    64
  3
ランダム線2
 72
    65
 73
     4
 40
14.0
 49
2.0
 49
-3.0
 49
4.0
 49
-5.0
  0
LTYPE
  2
RAND3
 70
    64
  3
ランダム線3
 72
    65
 73
     4
 40
18.0
 49
3.0
 49
-4.0
 49
5.0
 49
-6.0
  0
LTYPE
  2
RAND4
 70
    64
  3
ランダム線4
 72
    65
 73
     4
 40
22.0
 49
4.0
 49
-5.0
 49
6.0
 49
-7.0
  0
LTYPE
  2
RAND5
 70
    64
  3
ランダム線5
 72
    65
 73
     4
 40
26.0
 49
5.0
 49
-6.0
 49
7.0
 49
-8.0
  0
LTYPE
  2
LONG1
 70
    64
  3
----------  --  ----------  --  
 72
    65
 73
     4
 40
40.0
 49
32.5
 49
-2.5
 49
2.5
 49
-2.5
  0
LTYPE
  2
LONG2
 70
    64
  3
--------  -  -  --------  -  -  
 72
    65
 73
     6
 40
40.0
 49
30.0
 49
-2.5
 49
1.25
 49
-2.5
 49
1.25
 49
-2.5
  0
LTYPE
  2
LONG3
 70
    64
  3
+++++++++++++++..+++++++++++++++
 72
    65
 73
     2
 40
40.0
 49
37.5
 49
-2.5
  0
LTYPE
  2
LONG4
 70
    64
  3
+++++++++++++++..+++++++++++++++
 72
    65
 73
     2
 40
80.0
 49
75.0
 49
-5.0
  0
LTYPE
  2
LONG5
 70
    64
  3
----------  --  ----------  --  
 72
    65
 73
     4
 40
60.0
 49
37.5
 49
-7.5
 49
7.5
 49
-7.5
  0
LTYPE
  2
dashed
 70
   64
  3
-------   -------------   ------
 72
   65
 73
    2
 40
7.5
 49
6
 49
-1.5
  0
LTYPE
  2
dashed_spaced
 70
   64
  3
----        --------        ----
 72
   65
 73
    2
 40
12
 49
6
 49
-6
  0
LTYPE
  2
long_dashed_dotted
 70
   64
  3
------------- --- --------------
 72
   65
 73
    4
 40
15.25
 49
12
 49
-1.5
 49
0.25
 49
-1.5
  0
LTYPE
  2
long_dashed_double-dotted
 70
   64
  3
----------- --- --- ------------
 72
   65
 73
    6
 40
17
 49
12
 49
-1.5
 49
0.25
 49
-1.5
 49
0.25
 49
-1.5
  0
LTYPE
  2
long_dashed_triplicate-dotted
 70
   64
  3
--------- --- --- --- ----------
 72
   65
 73
    8
 40
18.75
 49
12
 49
-1.5
 49
0.25
 49
-1.5
 49
0.25
 49
-1.5
 49
0.25
 49
-1.5
  0
LTYPE
  2
dotted
 70
   64
  3
   -       -       -       -    
 72
   65
 73
    2
 40
1.75
 49
0.25
 49
-1.5
  0
LTYPE
  2
chain
 70
   64
  3
-------------- -- --------------
 72
   65
 73
    4
 40
18.5
 49
12
 49
-1.5
 49
3.5
 49
-1.5
  0
LTYPE
  2
chain_double_dash
 70
   64
  3
------------ -- -- -------------
 72
   65
 73
    6
 40
23.5
 49
12
 49
-1.5
 49
3.5
 49
-1.5
 49
3.5
 49
-1.5
  0
LTYPE
  2
dashed_dotted
 70
   64
  3
-----------     -     ----------
 72
   65
 73
    4
 40
9.25
 49
6
 49
-1.5
 49
0.25
 49
-1.5
  0
LTYPE
  2
double-dashed_dotted
 70
   64
  3
------   -----------   -   -----
 72
   65
 73
    6
 40
16.75
 49
6
 49
-1.5
 49
6
 49
-1.5
 49
0.25
 49
-1.5
  0
LTYPE
  2
dashed_double-dotted
 70
   64
  3
---------    -    -    ---------
 72
   65
 73
    6
 40
11
 49
6
 49
-1.5
 49
0.25
 49
-1.5
 49
0.25
 49
-1.5
  0
LTYPE
  2
double-dashed_double-dotted
 70
   64
  3
-----   ---------   -   -   ----
 72
   65
 73
    8
 40
18.5
 49
6
 49
-1.5
 49
6
 49
-1.5
 49
0.25
 49
-1.5
 49
0.25
 49
-1.5
  0
LTYPE
  2
dashed_triplicate-dotted
 70
   64
  3
-------    -    -    -    ------
 72
   65
 73
    8
 40
12.75
 49
6
 49
-1.5
 49
0.25
 49
-1.5
 49
0.25
 49
-1.5
 49
0.25
 49
-1.5
  0
LTYPE
  2
double-dashed_triplicate-dotted
 70
   64
  3
-----  ---------  -  -  -  -----
 72
   65
 73
   10
 40
20.25
 49
6
 49
-1.5
 49
6
 49
-1.5
 49
0.25
 49
-1.5
 49
0.25
 49
-1.5
 49
0.25
 49
-1.5
  0
LTYPE
  2
undefined
 70
   64
  3
--------------------------------
 72
   65
 73
    0
 40
0
  0
ENDTAB
  0
TABLE
  2
STYLE
  5
3
100
AcDbSymbolTable
 70
     1
  0
STYLE
  5
10
100
AcDbSymbolTableRecord
100
AcDbTextStyleTableRecord
  2
STANDARD
 70
     0
 40
0.0
 41
1.0
 50
0.0
 71
     0
 42
0.2
  3
txt
  4
bigfont.shx
  0
STYLE
  5
26
100
AcDbSymbolTableRecord
100
AcDbTextStyleTableRecord
  2
TATEGAKI
 70
    68
 40
0.0
 41
1.0
 50
0.0
 71
     0
 42
1.0
  3
txt
  4
bigfont.shx
  0
ENDTAB
  0
TABLE
  2
LAYER
 70
    7
  0
LAYER
  2
_0-0_
 70
   64
 62
    7
  6
CONTINUOUS
  0
LAYER
  2
_0-1_
 70
   64
 62
    7
  6
CONTINUOUS
  0
LAYER
  2
_0-2_
 70
   64
 62
    7
  6
CONTINUOUS
  0
LAYER
  2
_0-8_
 70
   64
 62
    7
  6
CONTINUOUS
  0
LAYER
  2
_0-9_
 70
   64
 62
    7
  6
CONTINUOUS
  0
LAYER
  2
_0-e_
 70
   64
 62
    7
  6
CONTINUOUS
  0
LAYER
  2
ADD_LINE
 70
   64
 62
    7
  6
CONTINUOUS
  0
ENDTAB
  0
ENDSEC
  0
SECTION
  2
BLOCKS
  0
ENDSEC
  0
SECTION
  2
ENTITIES
  0
LINE
  8
_0-9_
  6
PHANTOM1
 62
  152
 10
275.88353744527819
 20
186.57159338974671
 11
275.88353744527819
 21
183.5715933897466
  0
LINE
  8
_0-9_
  6
PHANTOM1
 62
  152
 10
326.38353744527774
 20
183.5715933897466
 11
326.38353744527774
 21
186.57159338974671
  0
LINE
  8
_0-9_
  6
PHANTOM1
 62
  152
 10
277.83353744527813
 20
183.5715933897466
 11
277.83353744527813
 21
180.57159338974648
  0
LINE
  8
_0-9_
  6
PHANTOM1
 62
  152
 10
277.83353744527813
 20
180.57159338974648
 11
324.43353744527838
 21
180.57159338974648
  0
LINE
  8
_0-9_
  6
PHANTOM1
 62
  152
 10
324.43353744527838
 20
180.57159338974648
 11
324.43353744527838
 21
183.5715933897466
  0
LINE
  8
_0-9_
  6
PHANTOM1
 62
  152
 10
276.13353744527797
 20
194.37159338974669
 11
276.13353744527797
 21
186.57159338974671
  0
LINE
  8
_0-9_
  6
PHANTOM1
 62
  152
 10
326.13353744527797
 20
186.57159338974671
 11
326.13353744527797
 21
194.37159338974669
  0
ARC
  8
_0-9_
  6
PHANTOM1
 62
  152
 10
323.13353744527785
 20
194.37159338974669
 40
2.9999999999999933
 50
359.99999999999977
 51
90.000000000000199
  0
ARC
  8
_0-9_
  6
PHANTOM1
 62
  152
 10
279.13353744527808
 20
194.37159338974669
 40
2.9999999999999858
 50
89.999999999999829
 51
180.0000000000002
  0
LINE
  8
_0-9_
  6
PHANTOM1
 62
  152
 10
275.88353744527819
 20
183.5715933897466
 11
277.83353744527813
 21
183.5715933897466
  0
LINE
  8
_0-9_
  6
PHANTOM1
 62
  152
 10
324.43353744527838
 20
183.5715933897466
 11
326.38353744527774
 21
183.5715933897466
  0
LINE
  8
_0-9_
  6
PHANTOM1
 62
  152
 10
326.38353744527774
 20
186.57159338974671
 11
326.13353744527797
 21
186.57159338974671
  0
LINE
  8
_0-9_
  6
PHANTOM1
 62
  152
 10
276.13353744527797
 20
186.57159338974671
 11
275.88353744527819
 21
186.57159338974671
  0
LINE
  8
_0-2_
  6
CONTINUOUS
 62
   56
 10
48.633537445278876
 20
80.089078917646191
 11
51.133537445278876
 21
81.532454624318859
  0
LINE
  8
_0-2_
  6
CONTINUOUS
 62
   56
 10
51.133537445278876
 20
81.532454624318859
 11
53.633537445278876
 21
80.089078917646191
  0
LINE
  8
_0-2_
  6
CONTINUOUS
 62
   56
 10
53.633537445278876
 20
80.089078917646191
 11
53.633537445278876
 21
77.202327504300854
  0
LINE
  8
_0-2_
  6
CONTINUOUS
 62
   56
 10
53.633537445278876
 20
77.202327504300854
 11
51.133537445278876
 21
75.758951797628185
  0
LINE
  8
_0-2_
  6
CONTINUOUS
 62
   56
 10
51.133537445278876
 20
75.758951797628185
 11
48.633537445278876
 21
77.202327504300854
  0
LINE
  8
_0-2_
  6
CONTINUOUS
 62
   56
 10
48.633537445278876
 20
77.202327504300854
 11
48.633537445278876
 21
80.089078917646191
  0
LINE
  8
_0-1_
  6
CENTER1
 62
  152
 10
47.883537445278876
 20
78.645703210973522
 11
54.383537445278876
 21
78.645703210973522
  0
LINE
  8
_0-1_
  6
CENTER1
 62
  152
 10
51.133537445278876
 20
75.39570321097375
 11
51.133537445278876
 21
81.895703210973522
  0
LINE
  8
_0-1_
  6
CENTER1
 62
  152
 10
51.133537445278876
 20
58.645703210973522
 11
51.133537445278876
 21
38.645703210973522
  0
LINE
  8
_0-1_
  6
CENTER1
 62
  152
 10
61.133537445278876
 20
48.645703210973522
 11
23.245217003157677
 21
48.645703210973522
  0
LINE
  8
_0-0_
  6
CONTINUOUS
 62
    7
 10
11.133537445278989
 20
58.645703210973522
 11
11.133537445278989
 21
85.645703210973522
  0
LINE
  8
_0-0_
  6
CONTINUOUS
 62
    7
 10
11.133537445278989
 20
85.645703210973522
 11
14.133537445278989
 21
88.645703210973522
  0
LINE
  8
_0-0_
  6
CONTINUOUS
 62
    7
 10
14.133537445278989
 20
88.645703210973522
 11
88.133537445278876
 21
88.645703210973522
  0
LINE
  8
_0-0_
  6
CONTINUOUS
 62
    7
 10
88.133537445278876
 20
88.645703210973522
 11
91.133537445278876
 21
85.645703210973522
  0
LINE
  8
_0-0_
  6
CONTINUOUS
 62
    7
 10
91.133537445278876
 20
85.645703210973522
 11
91.133537445278876
 21
11.64570321097375
  0
LINE
  8
_0-0_
  6
CONTINUOUS
 62
    7
 10
91.133537445278876
 20
11.64570321097375
 11
88.133537445278876
 21
8.6457032109735223
  0
LINE
  8
_0-0_
  6
CONTINUOUS
 62
    7
 10
88.133537445278876
 20
8.6457032109735223
 11
61.133537445278876
 21
8.6457032109735223
  0
LINE
  8
_0-0_
  6
CONTINUOUS
 62
    7
 10
61.133537445278535
 20
8.6457032109732381
 11
11.133537445278989
 21
58.645703210973522
  0
LINE
  8
_0-2_
  6
CONTINUOUS
 62
   56
 10
18.633537445278989
 20
77.202327504300854
 11
18.633537445278989
 21
80.089078917646191
  0
LINE
  8
_0-2_
  6
CONTINUOUS
 62
   56
 10
18.633537445278989
 20
80.089078917646191
 11
21.133537445278989
 21
81.532454624318859
  0
LINE
  8
_0-2_
  6
CONTINUOUS
 62
   56
 10
21.133537445278989
 20
81.532454624318859
 11
23.633537445278989
 21
80.089078917646191
  0
LINE
  8
_0-2_
  6
CONTINUOUS
 62
   56
 10
23.633537445278989
 20
80.089078917646191
 11
23.633537445278989
 21
77.202327504300854
  0
LINE
  8
_0-2_
  6
CONTINUOUS
 62
   56
 10
23.633537445278989
 20
77.202327504300854
 11
21.133537445278989
 21
75.758951797628185
  0
LINE
  8
_0-2_
  6
CONTINUOUS
 62
   56
 10
21.133537445278989
 20
75.758951797628185
 11
18.633537445278989
 21
77.202327504300854
  0
LINE
  8
_0-1_
  6
CENTER1
 62
  152
 10
17.883537445278989
 20
78.645703210973522
 11
24.383537445278989
 21
78.645703210973522
  0
LINE
  8
_0-1_
  6
CENTER1
 62
  152
 10
21.133537445278989
 20
75.39570321097375
 11
21.133537445278989
 21
81.895703210973522
  0
LINE
  8
_0-1_
  6
CENTER1
 62
  152
 10
77.883537445278876
 20
78.645703210973522
 11
84.383537445278876
 21
78.645703210973522
  0
LINE
  8
_0-1_
  6
CENTER1
 62
  152
 10
81.133537445278876
 20
75.39570321097375
 11
81.133537445278876
 21
81.895703210973522
  0
LINE
  8
_0-1_
  6
CENTER1
 62
  152
 10
81.133537445278876
 20
51.895703210973522
 11
81.133537445278876
 21
45.39570321097375
  0
LINE
  8
_0-2_
  6
CONTINUOUS
 62
   56
 10
81.133537445278876
 20
45.758951797628185
 11
78.633537445278876
 21
47.202327504300854
  0
LINE
  8
_0-2_
  6
CONTINUOUS
 62
   56
 10
78.633537445278876
 20
47.202327504300854
 11
78.633537445278876
 21
50.089078917646191
  0
LINE
  8
_0-2_
  6
CONTINUOUS
 62
   56
 10
78.633537445278876
 20
50.089078917646191
 11
81.133537445278876
 21
51.532454624318859
  0
LINE
  8
_0-2_
  6
CONTINUOUS
 62
   56
 10
81.133537445278876
 20
51.532454624318859
 11
83.633537445278876
 21
50.089078917646191
  0
LINE
  8
_0-2_
  6
CONTINUOUS
 62
   56
 10
83.633537445278876
 20
50.089078917646191
 11
83.633537445278876
 21
47.202327504300854
  0
LINE
  8
_0-2_
  6
CONTINUOUS
 62
   56
 10
83.633537445278876
 20
47.202327504300854
 11
81.133537445278876
 21
45.758951797628185
  0
LINE
  8
_0-1_
  6
CENTER1
 62
  152
 10
84.383537445278876
 20
48.645703210973522
 11
77.883537445278876
 21
48.645703210973522
  0
LINE
  8
_0-2_
  6
CONTINUOUS
 62
   56
 10
78.633537445278876
 20
20.089078917646191
 11
81.133537445278876
 21
21.532454624318859
  0
LINE
  8
_0-2_
  6
CONTINUOUS
 62
   56
 10
81.133537445278876
 20
21.532454624318859
 11
83.633537445278876
 21
20.089078917646191
  0
LINE
  8
_0-2_
  6
CONTINUOUS
 62
   56
 10
83.633537445278876
 20
20.089078917646191
 11
83.633537445278876
 21
17.202327504300854
  0
LINE
  8
_0-2_
  6
CONTINUOUS
 62
   56
 10
83.633537445278876
 20
17.202327504300854
 11
81.133537445278876
 21
15.758951797628185
  0
LINE
  8
_0-2_
  6
CONTINUOUS
 62
   56
 10
81.133537445278876
 20
15.758951797628185
 11
78.633537445278876
 21
17.202327504300854
  0
LINE
  8
_0-2_
  6
CONTINUOUS
 62
   56
 10
78.633537445278876
 20
17.202327504300854
 11
78.633537445278876
 21
20.089078917646191
  0
LINE
  8
_0-1_
  6
CENTER1
 62
  152
 10
77.883537445278876
 20
18.645703210973522
 11
84.383537445278876
 21
18.645703210973522
  0
LINE
  8
_0-1_
  6
CENTER1
 62
  152
 10
81.133537445278876
 20
15.39570321097375
 11
81.133537445278876
 21
21.895703210973522
  0
LINE
  8
_0-0_
  6
CONTINUOUS
 62
    7
 10
341.13353744527888
 20
85.645703210973522
 11
341.13353744527888
 21
11.64570321097375
  0
LINE
  8
_0-0_
  6
CONTINUOUS
 62
    7
 10
341.13353744527888
 20
11.64570321097375
 11
338.13353744527888
 21
8.6457032109735223
  0
LINE
  8
_0-0_
  6
CONTINUOUS
 62
    7
 10
338.13353744527888
 20
8.6457032109735223
 11
311.13353744527888
 21
8.6457032109735223
  0
LINE
  8
_0-0_
  6
CONTINUOUS
 62
    7
 10
311.13353744527888
 20
8.6457032109735223
 11
295.48768091221302
 21
24.291559744038693
  0
LINE
  8
_0-1_
  6
CENTER1
 62
  152
 10
301.13353744527888
 20
38.645703210973522
 11
301.13353744527888
 21
58.645703210973522
  0
LINE
  8
_0-1_
  6
CENTER1
 62
  152
 10
311.13353744527888
 20
48.645703210973522
 11
291.13353744527888
 21
48.645703210973522
  0
LINE
  8
_0-0_
  6
CONTINUOUS
 62
    7
 10
276.77939397834382
 20
42.999846677908351
 11
261.13353744527797
 21
58.645703210973522
  0
LINE
  8
_0-0_
  6
CONTINUOUS
 62
    7
 10
261.13353744527797
 20
58.645703210973522
 11
261.13353744527797
 21
85.645703210973522
  0
LINE
  8
_0-0_
  6
CONTINUOUS
 62
    7
 10
261.13353744527797
 20
85.645703210973522
 11
264.13353744527797
 21
88.645703210973522
  0
LINE
  8
_0-0_
  6
CONTINUOUS
 62
    7
 10
264.13353744527797
 20
88.645703210973522
 11
338.13353744527888
 21
88.645703210973522
  0
LINE
  8
_0-0_
  6
CONTINUOUS
 62
    7
 10
338.13353744527888
 20
88.645703210973522
 11
341.13353744527888
 21
85.645703210973522
  0
LINE
  8
_0-1_
  6
CENTER1
 62
  152
 10
331.13353744527888
 20
81.895703210973522
 11
331.13353744527888
 21
75.39570321097375
  0
LINE
  8
_0-1_
  6
CENTER1
 62
  152
 10
327.88353744527888
 20
78.645703210973522
 11
334.38353744527888
 21
78.645703210973522
  0
LINE
  8
_0-2_
  6
CONTINUOUS
 62
   56
 10
333.63353744527888
 20
50.089078917646191
 11
333.63353744527888
 21
47.202327504300854
  0
LINE
  8
_0-2_
  6
CONTINUOUS
 62
   56
 10
333.63353744527888
 20
47.202327504300854
 11
331.13353744527888
 21
45.758951797628185
  0
LINE
  8
_0-2_
  6
CONTINUOUS
 62
   56
 10
331.13353744527888
 20
45.758951797628185
 11
328.63353744527888
 21
47.202327504300854
  0
LINE
  8
_0-2_
  6
CONTINUOUS
 62
   56
 10
328.63353744527888
 20
47.202327504300854
 11
328.63353744527888
 21
50.089078917646191
  0
LINE
  8
_0-2_
  6
CONTINUOUS
 62
   56
 10
328.63353744527888
 20
50.089078917646191
 11
331.13353744527888
 21
51.532454624318859
  0
LINE
  8
_0-2_
  6
CONTINUOUS
 62
   56
 10
331.13353744527888
 20
51.532454624318859
 11
333.63353744527888
 21
50.089078917646191
  0
LINE
  8
_0-1_
  6
CENTER1
 62
  152
 10
334.38353744527888
 20
48.645703210973522
 11
327.88353744527888
 21
48.645703210973522
  0
LINE
  8
_0-1_
  6
CENTER1
 62
  152
 10
331.13353744527888
 20
45.39570321097375
 11
331.13353744527888
 21
51.895703210973522
  0
LINE
  8
_0-1_
  6
CENTER1
 62
  152
 10
331.13353744527888
 20
21.895703210973522
 11
331.13353744527888
 21
15.39570321097375
  0
LINE
  8
_0-2_
  6
CONTINUOUS
 62
   56
 10
331.13353744527888
 20
15.758951797628185
 11
328.63353744527888
 21
17.202327504300854
  0
LINE
  8
_0-2_
  6
CONTINUOUS
 62
   56
 10
328.63353744527888
 20
17.202327504300854
 11
328.63353744527888
 21
20.089078917646191
  0
LINE
  8
_0-2_
  6
CONTINUOUS
 62
   56
 10
328.63353744527888
 20
20.089078917646191
 11
331.13353744527888
 21
21.532454624318859
  0
LINE
  8
_0-2_
  6
CONTINUOUS
 62
   56
 10
331.13353744527888
 20
21.532454624318859
 11
333.63353744527888
 21
20.089078917646191
  0
LINE
  8
_0-2_
  6
CONTINUOUS
 62
   56
 10
333.63353744527888
 20
20.089078917646191
 11
333.63353744527888
 21
17.202327504300854
  0
LINE
  8
_0-2_
  6
CONTINUOUS
 62
   56
 10
333.63353744527888
 20
17.202327504300854
 11
331.13353744527888
 21
15.758951797628185
  0
LINE
  8
_0-1_
  6
CENTER1
 62
  152
 10
334.38353744527888
 20
18.645703210973522
 11
327.88353744527888
 21
18.645703210973522
  0
LINE
  8
_0-2_
  6
CONTINUOUS
 62
   56
 10
303.63353744527888
 20
77.202327504300854
 11
303.63353744527888
 21
80.089078917646191
  0
LINE
  8
_0-2_
  6
CONTINUOUS
 62
   56
 10
303.63353744527888
 20
80.089078917646191
 11
301.13353744527888
 21
81.532454624318859
  0
LINE
  8
_0-2_
  6
CONTINUOUS
 62
   56
 10
301.13353744527888
 20
81.532454624318859
 11
298.63353744527888
 21
80.089078917646191
  0
LINE
  8
_0-2_
  6
CONTINUOUS
 62
   56
 10
298.63353744527888
 20
80.089078917646191
 11
298.63353744527888
 21
77.202327504300854
  0
LINE
  8
_0-2_
  6
CONTINUOUS
 62
   56
 10
298.63353744527888
 20
77.202327504300854
 11
301.13353744527888
 21
75.758951797628185
  0
LINE
  8
_0-2_
  6
CONTINUOUS
 62
   56
 10
301.13353744527888
 20
75.758951797628185
 11
303.63353744527888
 21
77.202327504300854
  0
LINE
  8
_0-1_
  6
CENTER1
 62
  152
 10
304.38353744527888
 20
78.645703210973522
 11
297.88353744527888
 21
78.645703210973522
  0
LINE
  8
_0-1_
  6
CENTER1
 62
  152
 10
301.13353744527888
 20
75.39570321097375
 11
301.13353744527888
 21
81.895703210973522
  0
LINE
  8
_0-2_
  6
CONTINUOUS
 62
   56
 10
273.63353744527899
 20
80.089078917646191
 11
273.63353744527899
 21
77.202327504300854
  0
LINE
  8
_0-2_
  6
CONTINUOUS
 62
   56
 10
273.63353744527899
 20
77.202327504300854
 11
271.13353744527899
 21
75.758951797628185
  0
LINE
  8
_0-2_
  6
CONTINUOUS
 62
   56
 10
271.13353744527899
 20
75.758951797628185
 11
268.63353744527899
 21
77.202327504300854
  0
LINE
  8
_0-2_
  6
CONTINUOUS
 62
   56
 10
268.63353744527899
 20
77.202327504300854
 11
268.63353744527899
 21
80.089078917646191
  0
LINE
  8
_0-2_
  6
CONTINUOUS
 62
   56
 10
268.63353744527899
 20
80.089078917646191
 11
271.13353744527899
 21
81.532454624318859
  0
LINE
  8
_0-2_
  6
CONTINUOUS
 62
   56
 10
271.13353744527899
 20
81.532454624318859
 11
273.63353744527899
 21
80.089078917646191
  0
LINE
  8
_0-1_
  6
CENTER1
 62
  152
 10
274.38353744527888
 20
78.645703210973522
 11
267.88353744527888
 21
78.645703210973522
  0
LINE
  8
_0-1_
  6
CENTER1
 62
  152
 10
271.13353744527888
 20
75.39570321097375
 11
271.13353744527888
 21
81.895703210973522
  0
CIRCLE
  8
_0-0_
  6
CONTINUOUS
 62
    7
 10
81.133537445278876
 20
18.645703210973522
 40
3.25
  0
CIRCLE
  8
_0-0_
  6
CONTINUOUS
 62
    7
 10
81.133537445278876
 20
48.645703210973522
 40
3.25
  0
CIRCLE
  8
_0-0_
  6
CONTINUOUS
 62
    7
 10
51.133537445278876
 20
78.645703210973522
 40
3.25
  0
CIRCLE
  8
_0-0_
  6
CONTINUOUS
 62
    7
 10
81.133537445278876
 20
78.645703210973522
 40
3.25
  0
CIRCLE
  8
_0-0_
  6
CONTINUOUS
 62
    7
 10
21.133537445278989
 20
78.645703210973522
 40
3.25
  0
CIRCLE
  8
_0-0_
  6
CONTINUOUS
 62
    7
 10
51.133537445278876
 20
48.645703210973522
 40
10
  0
CIRCLE
  8
_0-0_
  6
CONTINUOUS
 62
    7
 10
51.133537445278876
 20
48.645703210973522
 40
5
  0
CIRCLE
  8
_0-0_
  6
CONTINUOUS
 62
    7
 10
331.13353744527888
 20
18.645703210973522
 40
3.25
  0
CIRCLE
  8
_0-0_
  6
CONTINUOUS
 62
    7
 10
331.13353744527888
 20
48.645703210973522
 40
3.25
  0
CIRCLE
  8
_0-0_
  6
CONTINUOUS
 62
    7
 10
301.13353744527888
 20
78.645703210973522
 40
3.25
  0
CIRCLE
  8
_0-0_
  6
CONTINUOUS
 62
    7
 10
331.13353744527888
 20
78.645703210973522
 40
3.25
  0
CIRCLE
  8
_0-0_
  6
CONTINUOUS
 62
    7
 10
271.13353744527888
 20
78.645703210973522
 40
3.25
  0
CIRCLE
  8
_0-0_
  6
CONTINUOUS
 62
    7
 10
301.13353744527888
 20
48.645703210973522
 40
22
  0
CIRCLE
  8
_0-0_
  6
CONTINUOUS
 62
    7
 10
301.13353744527888
 20
48.645703210973522
 40
25
  0
CIRCLE
  8
_0-0_
  6
CONTINUOUS
 62
    7
 10
301.13353744527888
 20
48.645703210973522
 40
10
  0
CIRCLE
  8
_0-0_
  6
CONTINUOUS
 62
    7
 10
301.13353744527888
 20
48.645703210973522
 40
5
  0
CIRCLE
  8
_0-2_
  6
CONTINUOUS
 62
   56
 10
21.133537445278989
 20
78.645703210973522
 40
5
  0
CIRCLE
  8
_0-2_
  6
CONTINUOUS
 62
   56
 10
51.133537445278876
 20
78.645703210973522
 40
5
  0
CIRCLE
  8
_0-2_
  6
CONTINUOUS
 62
   56
 10
81.133537445278876
 20
48.645703210973522
 40
5
  0
CIRCLE
  8
_0-2_
  6
CONTINUOUS
 62
   56
 10
81.133537445278876
 20
18.645703210973522
 40
5
  0
CIRCLE
  8
_0-2_
  6
CONTINUOUS
 62
   56
 10
271.13353744527899
 20
78.645703210973522
 40
5
  0
CIRCLE
  8
_0-2_
  6
CONTINUOUS
 62
   56
 10
301.13353744527888
 20
78.645703210973522
 40
5
  0
CIRCLE
  8
_0-2_
  6
CONTINUOUS
 62
   56
 10
331.13353744527888
 20
48.645703210973522
 40
5
  0
CIRCLE
  8
_0-2_
  6
CONTINUOUS
 62
   56
 10
331.13353744527888
 20
18.645703210973522
 40
5
  0
CIRCLE
  8
_0-0_
  6
CONTINUOUS
 62
    7
 10
51.133537445278876
 20
48.645703210973522
 40
20
  0
CIRCLE
  8
_0-0_
  6
CONTINUOUS
 62
    7
 10
51.133537445278876
 20
48.645703210973522
 40
19.399999999999999
  0
CIRCLE
  8
_0-0_
  6
CONTINUOUS
 62
    7
 10
51.133537445278876
 20
48.645703210973522
 40
18
  0
LINE
  8
_0-2_
  6
CENTER2
 62
  152
 10
81.133537445278989
 20
243.27159338974661
 11
81.133537445278989
 21
236.2715933897465
  0
LINE
  8
_0-2_
  6
CONTINUOUS
 62
  152
 10
78.583537492962705
 20
236.2715933897465
 11
78.583537492962705
 21
236.87159338974652
  0
LINE
  8
_0-2_
  6
CONTINUOUS
 62
   56
 10
78.133537445278989
 20
236.87159338974652
 11
78.133537445278989
 21
236.2715933897465
  0
LINE
  8
_0-2_
  6
CONTINUOUS
 62
    7
 10
76.791703032287614
 20
236.87159338974652
 11
85.475371858269909
 21
236.87159338974652
  0
LINE
  8
_0-2_
  6
CONTINUOUS
 62
    7
 10
85.973469207315929
 20
237.32801551837269
 11
86.116139911782057
 21
238.95874913249418
  0
LINE
  8
_0-2_
  6
CONTINUOUS
 62
    7
 10
87.112334609874097
 20
239.87159338974652
 11
87.433537445278716
 21
239.87159338974652
  0
LINE
  8
_0-2_
  6
CONTINUOUS
 62
    7
 10
87.916500358423264
 20
240.50100291229774
 11
87.729288001479517
 21
241.19968894021645
  0
LINE
  8
_0-2_
  6
CONTINUOUS
 62
    7
 10
87.49632508833497
 20
241.50329211955727
 11
85.129689867985462
 21
242.86966960109976
  0
LINE
  8
_0-2_
  6
CONTINUOUS
 62
   56
 10
84.133537445278989
 20
243.22898034766325
 11
84.133537445278989
 21
243.3215926268075
  0
LINE
  8
_0-2_
  6
CONTINUOUS
 62
   56
 10
84.133537445278989
 20
243.3215926268075
 11
83.683537397595273
 21
243.77159338974695
  0
LINE
  8
_0-2_
  6
CONTINUOUS
 62
   56
 10
83.683537397595273
 20
243.77159338974695
 11
78.583537492962705
 21
243.77159338974695
  0
LINE
  8
_0-2_
  6
CONTINUOUS
 62
   56
 10
78.583537492962705
 20
243.77159338974695
 11
78.133537445278989
 21
243.3215926268075
  0
LINE
  8
_0-2_
  6
CONTINUOUS
 62
   56
 10
78.133537445278989
 20
243.3215926268075
 11
84.133537445278989
 21
243.3215926268075
  0
LINE
  8
_0-2_
  6
CONTINUOUS
 62
  152
 10
83.683537397595273
 20
243.27111009140955
 11
83.683537397595273
 21
243.77159338974695
  0
LINE
  8
_0-2_
  6
CONTINUOUS
 62
    7
 10
83.629689867985462
 20
243.27159338974661
 11
78.637385022572062
 21
243.27159338974661
  0
LINE
  8
_0-2_
  6
CONTINUOUS
 62
  152
 10
78.583537492962705
 20
243.27111009140955
 11
78.583537492962705
 21
243.77159338974695
  0
LINE
  8
_0-2_
  6
CONTINUOUS
 62
   56
 10
78.133537445278989
 20
243.3215926268075
 11
78.133537445278989
 21
243.22898034766334
  0
LINE
  8
_0-2_
  6
CONTINUOUS
 62
    7
 10
77.137385022572062
 20
242.86966960109976
 11
74.770749802222554
 21
241.50329211955727
  0
LINE
  8
_0-2_
  6
CONTINUOUS
 62
    7
 10
74.537786889078006
 20
241.19968894021645
 11
74.35057453213426
 21
240.50100291229774
  0
LINE
  8
_0-2_
  6
CONTINUOUS
 62
    7
 10
74.833537445278807
 20
239.87159338974652
 11
75.154740280683427
 21
239.87159338974652
  0
LINE
  8
_0-2_
  6
CONTINUOUS
 62
    7
 10
76.150934978775467
 20
238.95874913249418
 11
76.293605683241594
 21
237.32801551837269
  0
LINE
  8
_0-2_
  6
CONTINUOUS
 62
   56
 10
76.133537445278989
 20
233.27159338974695
 11
76.133537445278989
 21
226.37159341358881
  0
LINE
  8
_0-2_
  6
CONTINUOUS
 62
   56
 10
76.133537445278989
 20
226.37159341358881
 11
76.733537349911558
 21
225.77159338974695
  0
LINE
  8
_0-2_
  6
CONTINUOUS
 62
   56
 10
76.733537349911558
 20
225.77159338974695
 11
85.533537540646421
 21
225.77159338974695
  0
LINE
  8
_0-2_
  6
CONTINUOUS
 62
   56
 10
85.533537540646421
 20
225.77159338974695
 11
86.133537445278989
 21
226.37159341358881
  0
LINE
  8
_0-2_
  6
CONTINUOUS
 62
   56
 10
86.133537445278989
 20
226.37159341358881
 11
76.133537445278989
 21
226.37159341358881
  0
LINE
  8
_0-2_
  6
CONTINUOUS
 62
  152
 10
76.758537445278989
 20
226.37159341358881
 11
76.758537445278989
 21
231.77159338974695
  0
LINE
  8
_0-2_
  6
CONTINUOUS
 62
  152
 10
77.383537445278989
 20
231.77159338974695
 11
77.383537445278989
 21
226.37159341358881
  0
LINE
  8
_0-2_
  6
CONTINUOUS
 62
  152
 10
78.008537445278989
 20
226.37159341358881
 11
78.008537445278989
 21
231.77159338974695
  0
LINE
  8
_0-2_
  6
CONTINUOUS
 62
  152
 10
78.633537445278989
 20
231.77159338974695
 11
78.633537445278989
 21
226.37159341358881
  0
LINE
  8
_0-2_
  6
CONTINUOUS
 62
  152
 10
79.258537445278989
 20
226.37159341358881
 11
79.258537445278989
 21
231.77159338974695
  0
LINE
  8
_0-2_
  6
CONTINUOUS
 62
   56
 10
81.566550139399396
 20
231.77159338974695
 11
80.700524751158582
 21
233.27159338974695
  0
LINE
  8
ADD_LINE
  6
DOT
 62
    9
 10
81.133537445278989
 20
233.27159338974695
 11
81.840644226465656
 21
233.97870017093351
  0
LINE
  8
ADD_LINE
  6
DOT
 62
    9
 10
81.133537445278989
 20
233.27159338974695
 11
80.426430664092322
 21
233.97870017093351
  0
LINE
  8
_0-1_
  6
CENTER1
 62
  152
 10
81.133537445278989
 20
229.58199353687192
 11
81.133537445278989
 21
240.35263524084698
  0
LINE
  8
_0-2_
  6
CONTINUOUS
 62
  152
 10
83.683537397595273
 20
236.87159338974652
 11
83.683537397595273
 21
236.2715933897465
  0
LINE
  8
_0-2_
  6
CONTINUOUS
 62
   56
 10
84.133537445278989
 20
236.2715933897465
 11
84.133537445278989
 21
236.87159338974652
  0
LINE
  8
_0-0_
  6
CONTINUOUS
 62
    7
 10
88.133537445278876
 20
236.2715933897465
 11
88.133537445278876
 21
233.27159338974695
  0
LINE
  8
_0-2_
  6
CONTINUOUS
 62
   56
 10
86.133537445278989
 20
233.27159338974695
 11
86.133537445278989
 21
226.37159341358881
  0
LINE
  8
_0-2_
  6
CONTINUOUS
 62
   56
 10
86.133537445278989
 20
231.77159338974695
 11
76.133537445278989
 21
231.77159338974695
  0
LINE
  8
_0-0_
  6
CONTINUOUS
 62
    7
 10
62.133537445278876
 20
233.27159338974695
 11
62.133537445278876
 21
216.97870338974678
  0
LINE
  8
_0-0_
  6
CONTINUOUS
 62
    7
 10
62.133537445278876
 20
216.97870338974678
 11
40.133537445278876
 21
216.97870338974678
  0
LINE
  8
_0-0_
  6
CONTINUOUS
 62
    7
 10
40.133537445278876
 20
216.97870338974678
 11
40.133537445278876
 21
233.27159338974695
  0
LINE
  8
_0-2_
  6
CONTINUOUS
 62
   56
 10
46.133537445278876
 20
233.27159338974695
 11
46.133537445278876
 21
226.37159341358881
  0
LINE
  8
_0-2_
  6
CONTINUOUS
 62
   56
 10
46.133537445278876
 20
226.37159341358881
 11
46.733537349911444
 21
225.77159338974695
  0
LINE
  8
_0-2_
  6
CONTINUOUS
 62
   56
 10
46.733537349911444
 20
225.77159338974695
 11
55.533537540646307
 21
225.77159338974695
  0
LINE
  8
_0-2_
  6
CONTINUOUS
 62
   56
 10
55.533537540646307
 20
225.77159338974695
 11
56.133537445278876
 21
226.37159341358881
  0
LINE
  8
_0-2_
  6
CONTINUOUS
 62
   56
 10
56.133537445278876
 20
226.37159341358881
 11
46.133537445278876
 21
226.37159341358881
  0
LINE
  8
_0-2_
  6
CONTINUOUS
 62
  152
 10
46.758537445278876
 20
226.37159341358881
 11
46.758537445278876
 21
231.77159338974695
  0
LINE
  8
_0-2_
  6
CONTINUOUS
 62
  152
 10
47.383537445278876
 20
231.77159338974695
 11
47.383537445278876
 21
226.37159341358881
  0
LINE
  8
_0-2_
  6
CONTINUOUS
 62
  152
 10
48.008537445278876
 20
226.37159341358881
 11
48.008537445278876
 21
231.77159338974695
  0
LINE
  8
_0-2_
  6
CONTINUOUS
 62
  152
 10
48.633537445278876
 20
231.77159338974695
 11
48.633537445278876
 21
226.37159341358881
  0
LINE
  8
_0-2_
  6
CONTINUOUS
 62
  152
 10
49.258537445278876
 20
226.37159341358881
 11
49.258537445278876
 21
231.77159338974695
  0
LINE
  8
_0-2_
  6
CONTINUOUS
 62
   56
 10
51.566550139399283
 20
231.77159338974695
 11
50.700524751158468
 21
233.27159338974695
  0
LINE
  8
ADD_LINE
  6
DOT
 62
    9
 10
51.133537445278876
 20
233.27159338974695
 11
51.840644226465542
 21
233.97870017093351
  0
LINE
  8
ADD_LINE
  6
DOT
 62
    9
 10
51.133537445278876
 20
233.27159338974695
 11
50.426430664092209
 21
233.97870017093351
  0
LINE
  8
_0-2_
  6
CONTINUOUS
 62
  152
 10
48.583537492962591
 20
236.2715933897465
 11
48.583537492962591
 21
236.87159338974652
  0
LINE
  8
_0-2_
  6
CONTINUOUS
 62
   56
 10
48.133537445278876
 20
236.87159338974652
 11
48.133537445278876
 21
236.2715933897465
  0
LINE
  8
_0-2_
  6
CONTINUOUS
 62
  152
 10
53.68353739759516
 20
236.2715933897465
 11
53.68353739759516
 21
236.87159338974652
  0
LINE
  8
_0-2_
  6
CONTINUOUS
 62
   56
 10
54.133537445278876
 20
236.87159338974652
 11
54.133537445278876
 21
236.2715933897465
  0
LINE
  8
_0-2_
  6
CONTINUOUS
 62
   56
 10
56.133537445278876
 20
233.27159338974695
 11
56.133537445278876
 21
226.37159341358881
  0
LINE
  8
_0-2_
  6
CONTINUOUS
 62
   56
 10
56.133537445278876
 20
231.77159338974695
 11
46.133537445278876
 21
231.77159338974695
  0
LINE
  8
_0-2_
  6
CONTINUOUS
 62
   56
 10
48.133537445278876
 20
243.22898034766334
 11
48.133537445278876
 21
243.3215926268075
  0
LINE
  8
_0-2_
  6
CONTINUOUS
 62
   56
 10
48.133537445278876
 20
243.3215926268075
 11
48.583537492962591
 21
243.77159338974695
  0
LINE
  8
_0-2_
  6
CONTINUOUS
 62
   56
 10
48.583537492962591
 20
243.77159338974695
 11
53.68353739759516
 21
243.77159338974695
  0
LINE
  8
_0-2_
  6
CONTINUOUS
 62
   56
 10
53.68353739759516
 20
243.77159338974695
 11
54.133537445278876
 21
243.3215926268075
  0
LINE
  8
_0-2_
  6
CONTINUOUS
 62
   56
 10
54.133537445278876
 20
243.3215926268075
 11
48.133537445278876
 21
243.3215926268075
  0
LINE
  8
_0-2_
  6
CONTINUOUS
 62
  152
 10
48.583537492962591
 20
243.27111009140955
 11
48.583537492962591
 21
243.77159338974695
  0
LINE
  8
_0-2_
  6
CONTINUOUS
 62
  152
 10
53.68353739759516
 20
243.77159338974695
 11
53.68353739759516
 21
243.27111009140955
  0
LINE
  8
_0-2_
  6
CONTINUOUS
 62
   56
 10
54.133537445278876
 20
243.22898034766325
 11
54.133537445278876
 21
243.3215926268075
  0
LINE
  8
_0-2_
  6
CONTINUOUS
 62
    7
 10
58.633537445278989
 20
243.27159338974653
 11
58.633537445278989
 21
236.87159338974652
  0
LINE
  8
_0-2_
  6
CONTINUOUS
 62
    7
 10
58.633537445278989
 20
236.87159338974652
 11
13.633537445278989
 21
236.87159338974652
  0
LINE
  8
_0-2_
  6
CONTINUOUS
 62
    7
 10
13.633537445278989
 20
236.87159338974652
 11
13.633537445278989
 21
243.27159338974653
  0
LINE
  8
_0-2_
  6
CONTINUOUS
 62
    7
 10
13.633537445278989
 20
243.27159338974653
 11
58.633537445278989
 21
243.27159338974653
  0
LINE
  8
_0-2_
  6
CONTINUOUS
 62
    7
 10
58.633537445278989
 20
239.87159338974652
 11
13.633537445278989
 21
239.87159338974652
  0
LINE
  8
_0-0_
  6
CONTINUOUS
 62
    7
 10
14.133537445278989
 20
236.2715933897465
 11
14.133537445278989
 21
233.27159338974695
  0
LINE
  8
_0-2_
  6
CONTINUOUS
 62
   56
 10
16.133537445278989
 20
233.27159338974695
 11
16.133537445278989
 21
226.37159341358881
  0
LINE
  8
_0-2_
  6
CONTINUOUS
 62
   56
 10
16.133537445278989
 20
226.37159341358881
 11
16.733537349911558
 21
225.77159338974695
  0
LINE
  8
_0-2_
  6
CONTINUOUS
 62
   56
 10
16.733537349911558
 20
225.77159338974695
 11
25.533537540646421
 21
225.77159338974695
  0
LINE
  8
_0-2_
  6
CONTINUOUS
 62
   56
 10
25.533537540646421
 20
225.77159338974695
 11
26.133537445278989
 21
226.37159341358881
  0
LINE
  8
_0-2_
  6
CONTINUOUS
 62
   56
 10
26.133537445278989
 20
226.37159341358881
 11
16.133537445278989
 21
226.37159341358881
  0
LINE
  8
_0-2_
  6
CONTINUOUS
 62
  152
 10
16.758537445278989
 20
226.37159341358881
 11
16.758537445278989
 21
231.77159338974695
  0
LINE
  8
_0-2_
  6
CONTINUOUS
 62
  152
 10
17.383537445278989
 20
231.77159338974695
 11
17.383537445278989
 21
226.37159341358881
  0
LINE
  8
_0-2_
  6
CONTINUOUS
 62
  152
 10
18.008537445278989
 20
226.37159341358881
 11
18.008537445278989
 21
231.77159338974695
  0
LINE
  8
_0-2_
  6
CONTINUOUS
 62
  152
 10
18.633537445278989
 20
231.77159338974695
 11
18.633537445278989
 21
226.37159341358881
  0
LINE
  8
_0-2_
  6
CONTINUOUS
 62
  152
 10
19.258537445278989
 20
226.37159341358881
 11
19.258537445278989
 21
231.77159338974695
  0
LINE
  8
_0-2_
  6
CONTINUOUS
 62
   56
 10
21.566550139399396
 20
231.77159338974695
 11
20.700524751158582
 21
233.27159338974695
  0
LINE
  8
ADD_LINE
  6
DOT
 62
    9
 10
21.133537445278989
 20
233.27159338974695
 11
21.840644226465656
 21
233.97870017093351
  0
LINE
  8
ADD_LINE
  6
DOT
 62
    9
 10
21.133537445278989
 20
233.27159338974695
 11
20.426430664092322
 21
233.97870017093351
  0
LINE
  8
_0-2_
  6
CONTINUOUS
 62
  152
 10
18.583537492962705
 20
236.2715933897465
 11
18.583537492962705
 21
236.87159338974652
  0
LINE
  8
_0-2_
  6
CONTINUOUS
 62
   56
 10
18.133537445278989
 20
236.87159338974652
 11
18.133537445278989
 21
236.2715933897465
  0
LINE
  8
_0-2_
  6
CONTINUOUS
 62
  152
 10
23.683537397595273
 20
236.2715933897465
 11
23.683537397595273
 21
236.87159338974652
  0
LINE
  8
_0-2_
  6
CONTINUOUS
 62
   56
 10
24.133537445278989
 20
236.87159338974652
 11
24.133537445278989
 21
236.2715933897465
  0
LINE
  8
_0-2_
  6
CONTINUOUS
 62
   56
 10
26.133537445278989
 20
233.27159338974695
 11
26.133537445278989
 21
226.37159341358881
  0
LINE
  8
_0-2_
  6
CONTINUOUS
 62
   56
 10
26.133537445278989
 20
231.77159338974695
 11
16.133537445278989
 21
231.77159338974695
  0
LINE
  8
_0-0_
  6
CONTINUOUS
 62
    7
 10
11.133537445278989
 20
233.27159338974695
 11
11.133537445278989
 21
236.2715933897465
  0
LINE
  8
_0-0_
  6
CONTINUOUS
 62
    7
 10
11.133537445278989
 20
236.2715933897465
 11
91.133537445278876
 21
236.2715933897465
  0
LINE
  8
_0-0_
  6
CONTINUOUS
 62
    7
 10
91.133537445278876
 20
236.2715933897465
 11
91.133537445278876
 21
233.27159338974695
  0
LINE
  8
_0-0_
  6
CONTINUOUS
 62
    7
 10
91.133537445278876
 20
233.27159338974695
 11
11.133537445278989
 21
233.27159338974695
  0
LINE
  8
_0-1_
  6
CENTER1
 62
  152
 10
21.133537445278989
 20
229.58199353687192
 11
21.133537445278989
 21
240.35263524084698
  0
LINE
  8
_0-2_
  6
CONTINUOUS
 62
  152
 10
18.583537492962705
 20
243.27111009140955
 11
18.583537492962705
 21
243.77159338974695
  0
LINE
  8
_0-2_
  6
CONTINUOUS
 62
   56
 10
18.583537492962705
 20
243.77159338974695
 11
23.683537397595273
 21
243.77159338974695
  0
LINE
  8
_0-2_
  6
CONTINUOUS
 62
   56
 10
23.683537397595273
 20
243.77159338974695
 11
24.133537445278989
 21
243.3215926268075
  0
LINE
  8
_0-2_
  6
CONTINUOUS
 62
   56
 10
24.133537445278989
 20
243.3215926268075
 11
18.133537445278989
 21
243.3215926268075
  0
LINE
  8
_0-2_
  6
CONTINUOUS
 62
   56
 10
18.133537445278989
 20
243.3215926268075
 11
18.583537492962705
 21
243.77159338974695
  0
LINE
  8
_0-2_
  6
CONTINUOUS
 62
   56
 10
18.133537445278989
 20
243.3215926268075
 11
18.133537445278989
 21
243.22898034766334
  0
LINE
  8
_0-2_
  6
CONTINUOUS
 62
  152
 10
23.683537397595273
 20
243.27111009140955
 11
23.683537397595273
 21
243.77159338974695
  0
LINE
  8
_0-2_
  6
CONTINUOUS
 62
   56
 10
24.133537445278989
 20
243.3215926268075
 11
24.133537445278989
 21
243.22898034766325
  0
LINE
  8
_0-0_
  6
CONTINUOUS
 62
    7
 10
40.133537445278876
 20
216.97870338974678
 11
40.84064744527825
 21
216.2715933897465
  0
LINE
  8
_0-0_
  6
CONTINUOUS
 62
    7
 10
40.84064744527825
 20
216.2715933897465
 11
61.426437445278339
 21
216.2715933897465
  0
ARC
  8
_0-2_
  6
CONTINUOUS
 62
    7
 10
85.475371858269909
 20
237.37159338974652
 40
0.5
 50
270
 51
355
  0
ARC
  8
_0-2_
  6
CONTINUOUS
 62
    7
 10
87.112334609874097
 20
238.87159338974652
 40
1
 50
90
 51
175.00000000000006
  0
ARC
  8
_0-2_
  6
CONTINUOUS
 62
    7
 10
87.433537445278716
 20
240.37159338974652
 40
0.5
 50
270
 51
318.59270234267069
  0
ARC
  8
_0-2_
  6
CONTINUOUS
 62
    7
 10
87.433537445278716
 20
240.37159338974652
 40
0.5
 50
318.59270234267069
 51
15.000000000000014
  0
ARC
  8
_0-2_
  6
CONTINUOUS
 62
    7
 10
87.24632508833497
 20
241.07027941766501
 40
0.5
 50
14.999999999999982
 51
59.999999999999986
  0
ARC
  8
_0-2_
  6
CONTINUOUS
 62
    7
 10
83.629689867985462
 20
240.27159338974661
 40
3
 50
59.999999999999929
 51
89.999999999999986
  0
ARC
  8
_0-2_
  6
CONTINUOUS
 62
    7
 10
76.791703032287614
 20
237.37159338974652
 40
0.5
 50
185
 51
270
  0
ARC
  8
_0-2_
  6
CONTINUOUS
 62
    7
 10
75.154740280683427
 20
238.87159338974652
 40
1
 50
4.9999999999999432
 51
90
  0
ARC
  8
_0-2_
  6
CONTINUOUS
 62
    7
 10
74.833537445278807
 20
240.37159338974652
 40
0.5
 50
221.40729765732931
 51
270
  0
ARC
  8
_0-2_
  6
CONTINUOUS
 62
    7
 10
74.833537445278807
 20
240.37159338974652
 40
0.5
 50
165.00000000000003
 51
221.40729765732931
  0
ARC
  8
_0-2_
  6
CONTINUOUS
 62
    7
 10
75.020749802222554
 20
241.07027941766501
 40
0.5
 50
119.99999999999999
 51
164.99999999999997
  0
ARC
  8
_0-2_
  6
CONTINUOUS
 62
    7
 10
78.637385022572062
 20
240.27159338974661
 40
3
 50
90.000000000000028
 51
120.00000000000007
  0
LINE
  8
_0-0_
  6
CONTINUOUS
 62
    7
 10
136.13353744527888
 20
233.27159338974695
 11
136.13353744527888
 21
236.2715933897465
  0
LINE
  8
_0-0_
  6
CONTINUOUS
 62
    7
 10
136.13353744527888
 20
236.2715933897465
 11
216.13353744527888
 21
236.2715933897465
  0
LINE
  8
_0-0_
  6
CONTINUOUS
 62
    7
 10
216.13353744527888
 20
236.2715933897465
 11
216.13353744527888
 21
233.27159338974695
  0
LINE
  8
_0-0_
  6
CONTINUOUS
 62
    7
 10
216.13353744527888
 20
233.27159338974695
 11
136.13353744527888
 21
233.27159338974695
  0
LINE
  8
_0-0_
  6
CONTINUOUS
 62
    7
 10
139.13353744527888
 20
233.27159338974695
 11
139.13353744527888
 21
236.2715933897465
  0
LINE
  8
_0-0_
  6
CONTINUOUS
 62
    7
 10
165.13353744527888
 20
233.27159338974695
 11
165.13353744527888
 21
216.97870338974678
  0
LINE
  8
_0-0_
  6
CONTINUOUS
 62
    7
 10
165.13353744527888
 20
216.97870338974678
 11
187.13353744527888
 21
216.97870338974678
  0
LINE
  8
_0-0_
  6
CONTINUOUS
 62
    7
 10
187.13353744527888
 20
216.97870338974678
 11
187.13353744527888
 21
233.27159338974695
  0
LINE
  8
_0-1_
  6
CENTER1
 62
  152
 10
176.13353744527888
 20
236.2715933897465
 11
176.13353744527888
 21
216.2715933897465
  0
LINE
  8
_0-0_
  6
CONTINUOUS
 62
    7
 10
165.84064744527825
 20
216.2715933897465
 11
165.13353744527888
 21
216.97870338974678
  0
LINE
  8
_0-0_
  6
CONTINUOUS
 62
    7
 10
165.84064744527825
 20
216.2715933897465
 11
186.42643744527834
 21
216.2715933897465
  0
LINE
  8
_0-0_
  6
CONTINUOUS
 62
    7
 10
186.42643744527834
 20
216.2715933897465
 11
187.13353744527888
 21
216.97870338974678
  0
LINE
  8
_0-0_
  6
CONTINUOUS
 62
    7
 10
213.13353744527888
 20
233.27159338974695
 11
213.13353744527888
 21
236.2715933897465
  0
LINE
  8
_0-0_
  6
CONTINUOUS
 62
    7
 10
290.84064744527734
 20
216.2715933897465
 11
290.13353744527797
 21
216.97870338974678
  0
LINE
  8
_0-0_
  6
CONTINUOUS
 62
    7
 10
290.13353744527797
 20
216.97870338974678
 11
290.13353744527797
 21
233.27159338974695
  0
LINE
  8
_0-2_
  6
CONTINUOUS
 62
   56
 10
296.13353744527797
 20
233.27159338974695
 11
296.13353744527797
 21
226.37159341358881
  0
LINE
  8
_0-2_
  6
CONTINUOUS
 62
   56
 10
296.13353744527797
 20
226.37159341358881
 11
296.73353734991053
 21
225.77159338974695
  0
LINE
  8
_0-2_
  6
CONTINUOUS
 62
   56
 10
296.73353734991053
 20
225.77159338974695
 11
305.5335375406454
 21
225.77159338974695
  0
LINE
  8
_0-2_
  6
CONTINUOUS
 62
   56
 10
305.5335375406454
 20
225.77159338974695
 11
306.13353744527797
 21
226.37159341358881
  0
LINE
  8
_0-2_
  6
CONTINUOUS
 62
   56
 10
306.13353744527797
 20
226.37159341358881
 11
296.13353744527797
 21
226.37159341358881
  0
LINE
  8
_0-2_
  6
CONTINUOUS
 62
  152
 10
296.75853744527797
 20
226.37159341358881
 11
296.75853744527797
 21
231.77159338974695
  0
LINE
  8
_0-2_
  6
CONTINUOUS
 62
  152
 10
297.38353744527797
 20
231.77159338974695
 11
297.38353744527797
 21
226.37159341358881
  0
LINE
  8
_0-2_
  6
CONTINUOUS
 62
  152
 10
298.00853744527797
 20
226.37159341358881
 11
298.00853744527797
 21
231.77159338974695
  0
LINE
  8
_0-2_
  6
CONTINUOUS
 62
  152
 10
298.63353744527797
 20
231.77159338974695
 11
298.63353744527797
 21
226.37159341358881
  0
LINE
  8
_0-2_
  6
CONTINUOUS
 62
  152
 10
299.25853744527797
 20
226.37159341358881
 11
299.25853744527797
 21
231.77159338974695
  0
LINE
  8
_0-2_
  6
CONTINUOUS
 62
   56
 10
301.56655013939837
 20
231.77159338974695
 11
300.70052475115756
 21
233.27159338974695
  0
LINE
  8
ADD_LINE
  6
DOT
 62
    9
 10
301.13353744527797
 20
233.27159338974695
 11
301.84064422646463
 21
233.97870017093351
  0
LINE
  8
ADD_LINE
  6
DOT
 62
    9
 10
301.13353744527797
 20
233.27159338974695
 11
300.4264306640913
 21
233.97870017093351
  0
LINE
  8
_0-2_
  6
CONTINUOUS
 62
  152
 10
298.58353749296168
 20
236.2715933897465
 11
298.58353749296168
 21
236.87159338974652
  0
LINE
  8
_0-2_
  6
CONTINUOUS
 62
   56
 10
298.13353744527797
 20
236.87159338974652
 11
298.13353744527797
 21
236.2715933897465
  0
LINE
  8
_0-2_
  6
CONTINUOUS
 62
  152
 10
303.68353739759425
 20
236.2715933897465
 11
303.68353739759425
 21
236.87159338974652
  0
LINE
  8
_0-2_
  6
CONTINUOUS
 62
   56
 10
304.13353744527797
 20
236.87159338974652
 11
304.13353744527797
 21
236.2715933897465
  0
LINE
  8
_0-2_
  6
CONTINUOUS
 62
   56
 10
306.13353744527797
 20
233.27159338974695
 11
306.13353744527797
 21
226.37159341358881
  0
LINE
  8
_0-2_
  6
CONTINUOUS
 62
   56
 10
306.13353744527797
 20
231.77159338974695
 11
296.13353744527797
 21
231.77159338974695
  0
LINE
  8
_0-2_
  6
CONTINUOUS
 62
   56
 10
298.13353744527797
 20
243.22898034766334
 11
298.13353744527797
 21
243.3215926268075
  0
LINE
  8
_0-2_
  6
CONTINUOUS
 62
   56
 10
298.13353744527797
 20
243.3215926268075
 11
298.58353749296168
 21
243.77159338974695
  0
LINE
  8
_0-2_
  6
CONTINUOUS
 62
   56
 10
298.58353749296168
 20
243.77159338974695
 11
303.68353739759425
 21
243.77159338974695
  0
LINE
  8
_0-2_
  6
CONTINUOUS
 62
   56
 10
303.68353739759425
 20
243.77159338974695
 11
304.13353744527797
 21
243.3215926268075
  0
LINE
  8
_0-2_
  6
CONTINUOUS
 62
   56
 10
304.13353744527797
 20
243.3215926268075
 11
298.13353744527797
 21
243.3215926268075
  0
LINE
  8
_0-2_
  6
CONTINUOUS
 62
  152
 10
298.58353749296168
 20
243.27111009140955
 11
298.58353749296168
 21
243.77159338974695
  0
LINE
  8
_0-2_
  6
CONTINUOUS
 62
  152
 10
303.68353739759425
 20
243.27111009140955
 11
303.68353739759425
 21
243.77159338974695
  0
LINE
  8
_0-2_
  6
CONTINUOUS
 62
   56
 10
304.13353744527797
 20
243.3215926268075
 11
304.13353744527797
 21
243.22898034766325
  0
LINE
  8
_0-2_
  6
CONTINUOUS
 62
    7
 10
308.63353744527808
 20
236.87159338974652
 11
263.63353744527808
 21
236.87159338974652
  0
LINE
  8
_0-2_
  6
CONTINUOUS
 62
    7
 10
263.63353744527808
 20
236.87159338974652
 11
263.63353744527808
 21
243.27159338974653
  0
LINE
  8
_0-2_
  6
CONTINUOUS
 62
    7
 10
263.63353744527808
 20
243.27159338974653
 11
308.63353744527808
 21
243.27159338974653
  0
LINE
  8
_0-2_
  6
CONTINUOUS
 62
    7
 10
308.63353744527808
 20
243.27159338974653
 11
308.63353744527808
 21
236.87159338974652
  0
LINE
  8
_0-2_
  6
CONTINUOUS
 62
    7
 10
308.63353744527808
 20
239.87159338974652
 11
263.63353744527808
 21
239.87159338974652
  0
LINE
  8
_0-0_
  6
CONTINUOUS
 62
    7
 10
264.13353744527706
 20
236.2715933897465
 11
264.13353744527706
 21
233.27159338974695
  0
LINE
  8
_0-2_
  6
CONTINUOUS
 62
   56
 10
266.13353744527808
 20
233.27159338974695
 11
266.13353744527808
 21
226.37159341358881
  0
LINE
  8
_0-2_
  6
CONTINUOUS
 62
   56
 10
266.13353744527808
 20
226.37159341358881
 11
266.73353734991065
 21
225.77159338974695
  0
LINE
  8
_0-2_
  6
CONTINUOUS
 62
   56
 10
266.73353734991065
 20
225.77159338974695
 11
275.53353754064551
 21
225.77159338974695
  0
LINE
  8
_0-2_
  6
CONTINUOUS
 62
   56
 10
275.53353754064551
 20
225.77159338974695
 11
276.13353744527808
 21
226.37159341358881
  0
LINE
  8
_0-2_
  6
CONTINUOUS
 62
   56
 10
276.13353744527808
 20
226.37159341358881
 11
266.13353744527808
 21
226.37159341358881
  0
LINE
  8
_0-2_
  6
CONTINUOUS
 62
  152
 10
266.75853744527808
 20
226.37159341358881
 11
266.75853744527808
 21
231.77159338974695
  0
LINE
  8
_0-2_
  6
CONTINUOUS
 62
  152
 10
267.38353744527808
 20
231.77159338974695
 11
267.38353744527808
 21
226.37159341358881
  0
LINE
  8
_0-2_
  6
CONTINUOUS
 62
  152
 10
268.00853744527808
 20
226.37159341358881
 11
268.00853744527808
 21
231.77159338974695
  0
LINE
  8
_0-2_
  6
CONTINUOUS
 62
  152
 10
268.63353744527808
 20
231.77159338974695
 11
268.63353744527808
 21
226.37159341358881
  0
LINE
  8
_0-2_
  6
CONTINUOUS
 62
  152
 10
269.25853744527808
 20
226.37159341358881
 11
269.25853744527808
 21
231.77159338974695
  0
LINE
  8
_0-2_
  6
CONTINUOUS
 62
   56
 10
271.56655013939849
 20
231.77159338974695
 11
270.70052475115767
 21
233.27159338974695
  0
LINE
  8
ADD_LINE
  6
DOT
 62
    9
 10
271.13353744527808
 20
233.27159338974695
 11
271.84064422646475
 21
233.97870017093351
  0
LINE
  8
ADD_LINE
  6
DOT
 62
    9
 10
271.13353744527808
 20
233.27159338974695
 11
270.42643066409141
 21
233.97870017093351
  0
LINE
  8
_0-2_
  6
CONTINUOUS
 62
  152
 10
268.5835374929618
 20
236.2715933897465
 11
268.5835374929618
 21
236.87159338974652
  0
LINE
  8
_0-2_
  6
CONTINUOUS
 62
   56
 10
268.13353744527808
 20
236.87159338974652
 11
268.13353744527808
 21
236.2715933897465
  0
LINE
  8
_0-2_
  6
CONTINUOUS
 62
  152
 10
273.68353739759436
 20
236.2715933897465
 11
273.68353739759436
 21
236.87159338974652
  0
LINE
  8
_0-2_
  6
CONTINUOUS
 62
   56
 10
274.13353744527808
 20
236.87159338974652
 11
274.13353744527808
 21
236.2715933897465
  0
LINE
  8
_0-2_
  6
CONTINUOUS
 62
   56
 10
276.13353744527808
 20
233.27159338974695
 11
276.13353744527808
 21
226.37159341358881
  0
LINE
  8
_0-2_
  6
CONTINUOUS
 62
   56
 10
276.13353744527808
 20
231.77159338974695
 11
266.13353744527808
 21
231.77159338974695
  0
LINE
  8
_0-0_
  6
CONTINUOUS
 62
    7
 10
261.13353744527706
 20
233.27159338974695
 11
261.13353744527706
 21
236.2715933897465
  0
LINE
  8
_0-0_
  6
CONTINUOUS
 62
    7
 10
261.13353744527706
 20
236.2715933897465
 11
341.13353744527797
 21
236.2715933897465
  0
LINE
  8
_0-0_
  6
CONTINUOUS
 62
    7
 10
341.13353744527797
 20
236.2715933897465
 11
341.13353744527797
 21
233.27159338974695
  0
LINE
  8
_0-0_
  6
CONTINUOUS
 62
    7
 10
341.13353744527797
 20
233.27159338974695
 11
261.13353744527706
 21
233.27159338974695
  0
LINE
  8
_0-2_
  6
CONTINUOUS
 62
   56
 10
268.13353744527808
 20
243.22898034766334
 11
268.13353744527808
 21
243.3215926268075
  0
LINE
  8
_0-2_
  6
CONTINUOUS
 62
   56
 10
268.13353744527808
 20
243.3215926268075
 11
268.5835374929618
 21
243.77159338974695
  0
LINE
  8
_0-2_
  6
CONTINUOUS
 62
   56
 10
268.5835374929618
 20
243.77159338974695
 11
273.68353739759436
 21
243.77159338974695
  0
LINE
  8
_0-2_
  6
CONTINUOUS
 62
   56
 10
273.68353739759436
 20
243.77159338974695
 11
274.13353744527808
 21
243.3215926268075
  0
LINE
  8
_0-2_
  6
CONTINUOUS
 62
   56
 10
274.13353744527808
 20
243.3215926268075
 11
268.13353744527808
 21
243.3215926268075
  0
LINE
  8
_0-2_
  6
CONTINUOUS
 62
  152
 10
268.5835374929618
 20
243.27111009140955
 11
268.5835374929618
 21
243.77159338974695
  0
LINE
  8
_0-2_
  6
CONTINUOUS
 62
  152
 10
273.68353739759436
 20
243.77159338974695
 11
273.68353739759436
 21
243.27111009140955
  0
LINE
  8
_0-2_
  6
CONTINUOUS
 62
   56
 10
274.13353744527808
 20
243.22898034766325
 11
274.13353744527808
 21
243.3215926268075
  0
LINE
  8
_0-0_
  6
CONTINUOUS
 62
    7
 10
290.13353744527797
 20
216.97870338974678
 11
312.13353744527797
 21
216.97870338974678
  0
LINE
  8
_0-0_
  6
CONTINUOUS
 62
    7
 10
312.13353744527797
 20
216.97870338974678
 11
311.42643744527834
 21
216.2715933897465
  0
LINE
  8
_0-0_
  6
CONTINUOUS
 62
    7
 10
311.42643744527834
 20
216.2715933897465
 11
290.84064744527734
 21
216.2715933897465
  0
LINE
  8
_0-0_
  6
CONTINUOUS
 62
    7
 10
312.13353744527797
 20
216.97870338974678
 11
312.13353744527797
 21
233.27159338974695
  0
LINE
  8
_0-2_
  6
CONTINUOUS
 62
   56
 10
326.13353744527808
 20
233.27159338974695
 11
326.13353744527808
 21
226.37159341358881
  0
LINE
  8
_0-2_
  6
CONTINUOUS
 62
   56
 10
326.13353744527808
 20
226.37159341358881
 11
326.73353734991065
 21
225.77159338974695
  0
LINE
  8
_0-2_
  6
CONTINUOUS
 62
   56
 10
326.73353734991065
 20
225.77159338974695
 11
335.53353754064551
 21
225.77159338974695
  0
LINE
  8
_0-2_
  6
CONTINUOUS
 62
   56
 10
335.53353754064551
 20
225.77159338974695
 11
336.13353744527808
 21
226.37159341358881
  0
LINE
  8
_0-2_
  6
CONTINUOUS
 62
   56
 10
336.13353744527808
 20
226.37159341358881
 11
326.13353744527808
 21
226.37159341358881
  0
LINE
  8
_0-2_
  6
CONTINUOUS
 62
  152
 10
326.75853744527808
 20
226.37159341358881
 11
326.75853744527808
 21
231.77159338974695
  0
LINE
  8
_0-2_
  6
CONTINUOUS
 62
  152
 10
327.38353744527808
 20
231.77159338974695
 11
327.38353744527808
 21
226.37159341358881
  0
LINE
  8
_0-2_
  6
CONTINUOUS
 62
  152
 10
328.00853744527808
 20
226.37159341358881
 11
328.00853744527808
 21
231.77159338974695
  0
LINE
  8
_0-2_
  6
CONTINUOUS
 62
  152
 10
328.63353744527808
 20
231.77159338974695
 11
328.63353744527808
 21
226.37159341358881
  0
LINE
  8
_0-2_
  6
CONTINUOUS
 62
  152
 10
329.25853744527808
 20
226.37159341358881
 11
329.25853744527808
 21
231.77159338974695
  0
LINE
  8
_0-2_
  6
CONTINUOUS
 62
   56
 10
331.56655013939849
 20
231.77159338974695
 11
330.70052475115767
 21
233.27159338974695
  0
LINE
  8
ADD_LINE
  6
DOT
 62
    9
 10
331.13353744527808
 20
233.27159338974695
 11
331.84064422646475
 21
233.97870017093351
  0
LINE
  8
ADD_LINE
  6
DOT
 62
    9
 10
331.13353744527808
 20
233.27159338974695
 11
330.42643066409141
 21
233.97870017093351
  0
LINE
  8
_0-2_
  6
CENTER2
 62
  152
 10
331.13353744527808
 20
236.2715933897465
 11
331.13353744527808
 21
243.27159338974661
  0
LINE
  8
_0-2_
  6
CONTINUOUS
 62
    7
 10
333.62968986798455
 20
243.27159338974661
 11
328.63738502257115
 21
243.27159338974661
  0
LINE
  8
_0-2_
  6
CONTINUOUS
 62
  152
 10
328.5835374929618
 20
243.27111009140955
 11
328.5835374929618
 21
243.77159338974695
  0
LINE
  8
_0-2_
  6
CONTINUOUS
 62
   56
 10
328.5835374929618
 20
243.77159338974695
 11
333.68353739759436
 21
243.77159338974695
  0
LINE
  8
_0-2_
  6
CONTINUOUS
 62
   56
 10
333.68353739759436
 20
243.77159338974695
 11
334.13353744527808
 21
243.3215926268075
  0
LINE
  8
_0-2_
  6
CONTINUOUS
 62
   56
 10
334.13353744527808
 20
243.3215926268075
 11
328.13353744527808
 21
243.3215926268075
  0
LINE
  8
_0-2_
  6
CONTINUOUS
 62
   56
 10
328.13353744527808
 20
243.3215926268075
 11
328.5835374929618
 21
243.77159338974695
  0
LINE
  8
_0-2_
  6
CONTINUOUS
 62
   56
 10
328.13353744527808
 20
243.3215926268075
 11
328.13353744527808
 21
243.22898034766334
  0
LINE
  8
_0-2_
  6
CONTINUOUS
 62
    7
 10
327.13738502257115
 20
242.86966960109976
 11
324.77074980222164
 21
241.50329211955727
  0
LINE
  8
_0-2_
  6
CONTINUOUS
 62
    7
 10
324.5377868890771
 20
241.19968894021645
 11
324.35057453213335
 21
240.50100291229774
  0
LINE
  8
_0-2_
  6
CONTINUOUS
 62
    7
 10
324.8335374452779
 20
239.87159338974652
 11
325.15474028068252
 21
239.87159338974652
  0
LINE
  8
_0-2_
  6
CONTINUOUS
 62
    7
 10
326.15093497877456
 20
238.95874913249418
 11
326.29360568324068
 21
237.32801551837269
  0
LINE
  8
_0-2_
  6
CONTINUOUS
 62
    7
 10
326.7917030322867
 20
236.87159338974652
 11
335.475371858269
 21
236.87159338974652
  0
LINE
  8
_0-2_
  6
CONTINUOUS
 62
    7
 10
335.97346920731502
 20
237.32801551837269
 11
336.11613991178115
 21
238.95874913249418
  0
LINE
  8
_0-2_
  6
CONTINUOUS
 62
    7
 10
337.11233460987319
 20
239.87159338974652
 11
337.43353744527781
 21
239.87159338974652
  0
LINE
  8
_0-2_
  6
CONTINUOUS
 62
    7
 10
337.91650035842235
 20
240.50100291229774
 11
337.72928800147861
 21
241.19968894021645
  0
LINE
  8
_0-2_
  6
CONTINUOUS
 62
    7
 10
337.49632508833406
 20
241.50329211955727
 11
335.12968986798455
 21
242.86966960109976
  0
LINE
  8
_0-2_
  6
CONTINUOUS
 62
   56
 10
334.13353744527808
 20
243.22898034766325
 11
334.13353744527808
 21
243.3215926268075
  0
LINE
  8
_0-2_
  6
CONTINUOUS
 62
  152
 10
333.68353739759436
 20
243.27111009140955
 11
333.68353739759436
 21
243.77159338974695
  0
LINE
  8
_0-2_
  6
CONTINUOUS
 62
  152
 10
333.68353739759436
 20
236.87159338974652
 11
333.68353739759436
 21
236.2715933897465
  0
LINE
  8
_0-2_
  6
CONTINUOUS
 62
   56
 10
334.13353744527808
 20
236.2715933897465
 11
334.13353744527808
 21
236.87159338974652
  0
LINE
  8
_0-0_
  6
CONTINUOUS
 62
    7
 10
338.13353744527797
 20
236.2715933897465
 11
338.13353744527797
 21
233.27159338974695
  0
LINE
  8
_0-2_
  6
CONTINUOUS
 62
   56
 10
336.13353744527808
 20
233.27159338974695
 11
336.13353744527808
 21
226.37159341358881
  0
LINE
  8
_0-2_
  6
CONTINUOUS
 62
   56
 10
336.13353744527808
 20
231.77159338974695
 11
326.13353744527808
 21
231.77159338974695
  0
LINE
  8
_0-2_
  6
CONTINUOUS
 62
   56
 10
328.13353744527808
 20
236.2715933897465
 11
328.13353744527808
 21
236.87159338974652
  0
LINE
  8
_0-2_
  6
CONTINUOUS
 62
  152
 10
328.5835374929618
 20
236.87159338974652
 11
328.5835374929618
 21
236.2715933897465
  0
LINE
  8
_0-0_
  6
CONTINUOUS
 62
    7
 10
463.13353744527802
 20
236.2715933897465
 11
463.13353744527802
 21
233.27159338974695
  0
LINE
  8
_0-0_
  6
CONTINUOUS
 62
    7
 10
466.13353744527802
 20
233.27159338974695
 11
386.13353744527797
 21
233.27159338974695
  0
LINE
  8
_0-0_
  6
CONTINUOUS
 62
    7
 10
386.13353744527797
 20
233.27159338974695
 11
386.13353744527797
 21
236.2715933897465
  0
LINE
  8
_0-0_
  6
CONTINUOUS
 62
    7
 10
386.13353744527797
 20
236.2715933897465
 11
466.13353744527802
 21
236.2715933897465
  0
LINE
  8
_0-0_
  6
CONTINUOUS
 62
    7
 10
466.13353744527802
 20
236.2715933897465
 11
466.13353744527802
 21
233.27159338974695
  0
LINE
  8
_0-0_
  6
CONTINUOUS
 62
    7
 10
437.13353744527797
 20
233.27159338974695
 11
437.13353744527797
 21
216.97870338974678
  0
LINE
  8
_0-0_
  6
CONTINUOUS
 62
    7
 10
437.13353744527797
 20
216.97870338974678
 11
436.42643744527834
 21
216.2715933897465
  0
LINE
  8
_0-0_
  6
CONTINUOUS
 62
    7
 10
436.42643744527834
 20
216.2715933897465
 11
415.84064744527825
 21
216.2715933897465
  0
LINE
  8
_0-0_
  6
CONTINUOUS
 62
    7
 10
415.84064744527825
 20
216.2715933897465
 11
415.13353744527797
 21
216.97870338974678
  0
LINE
  8
_0-0_
  6
CONTINUOUS
 62
    7
 10
415.13353744527797
 20
216.97870338974678
 11
415.13353744527797
 21
233.27159338974695
  0
LINE
  8
_0-1_
  6
CENTER1
 62
  152
 10
426.13353744527797
 20
236.2715933897465
 11
426.13353744527797
 21
216.2715933897465
  0
LINE
  8
_0-0_
  6
CONTINUOUS
 62
    7
 10
437.13353744527797
 20
216.97870338974678
 11
415.13353744527797
 21
216.97870338974678
  0
LINE
  8
_0-0_
  6
CONTINUOUS
 62
    7
 10
389.13353744527797
 20
233.27159338974695
 11
389.13353744527797
 21
236.2715933897465
  0
ARC
  8
_0-2_
  6
CONTINUOUS
 62
    7
 10
335.475371858269
 20
237.37159338974652
 40
0.5
 50
270
 51
355
  0
ARC
  8
_0-2_
  6
CONTINUOUS
 62
    7
 10
337.11233460987319
 20
238.87159338974652
 40
1
 50
90
 51
175.00000000000006
  0
ARC
  8
_0-2_
  6
CONTINUOUS
 62
    7
 10
337.43353744527781
 20
240.37159338974652
 40
0.5
 50
270
 51
318.59270234267069
  0
ARC
  8
_0-2_
  6
CONTINUOUS
 62
    7
 10
337.43353744527781
 20
240.37159338974652
 40
0.5
 50
318.59270234267069
 51
15.000000000000014
  0
ARC
  8
_0-2_
  6
CONTINUOUS
 62
    7
 10
337.24632508833406
 20
241.07027941766501
 40
0.5
 50
14.999999999999982
 51
59.999999999999986
  0
ARC
  8
_0-2_
  6
CONTINUOUS
 62
    7
 10
333.62968986798455
 20
240.27159338974661
 40
3
 50
59.999999999999929
 51
89.999999999999986
  0
ARC
  8
_0-2_
  6
CONTINUOUS
 62
    7
 10
326.7917030322867
 20
237.37159338974652
 40
0.5
 50
185
 51
270
  0
ARC
  8
_0-2_
  6
CONTINUOUS
 62
    7
 10
325.15474028068252
 20
238.87159338974652
 40
1
 50
4.9999999999999432
 51
90
  0
ARC
  8
_0-2_
  6
CONTINUOUS
 62
    7
 10
324.8335374452779
 20
240.37159338974652
 40
0.5
 50
221.40729765732931
 51
270
  0
ARC
  8
_0-2_
  6
CONTINUOUS
 62
    7
 10
324.8335374452779
 20
240.37159338974652
 40
0.5
 50
165.00000000000003
 51
221.40729765732931
  0
ARC
  8
_0-2_
  6
CONTINUOUS
 62
    7
 10
325.02074980222164
 20
241.07027941766501
 40
0.5
 50
119.99999999999999
 51
164.99999999999997
  0
ARC
  8
_0-2_
  6
CONTINUOUS
 62
    7
 10
328.63738502257115
 20
240.27159338974661
 40
3
 50
90.000000000000028
 51
120.00000000000007
  0
LINE
  8
_0-9_
  6
PHANTOM1
 62
  152
 10
63.133537445278193
 20
150.17159338974636
 11
63.133537445278193
 21
149.77159338974604
  0
LINE
  8
_0-9_
  6
PHANTOM1
 62
  152
 10
39.133537445279558
 20
149.77159338974604
 11
39.133537445279558
 21
150.17159338974636
  0
LINE
  8
_0-9_
  6
PHANTOM1
 62
  152
 10
71.133537445278876
 20
146.77159338974604
 11
71.133537445278876
 21
141.77159338974604
  0
LINE
  8
_0-9_
  6
PHANTOM1
 62
  152
 10
31.133537445278876
 20
141.77159338974604
 11
31.133537445278876
 21
146.77159338974604
  0
LINE
  8
_0-9_
  6
PHANTOM1
 62
  152
 10
31.733537445279467
 20
141.77159338974604
 11
31.733537445279467
 21
139.27159338974604
  0
LINE
  8
_0-9_
  6
PHANTOM1
 62
  152
 10
70.533537445278284
 20
139.27159338974604
 11
70.533537445278284
 21
141.77159338974604
  0
LINE
  8
_0-9_
  6
PHANTOM1
 62
  152
 10
69.133537445279558
 20
139.27159338974604
 11
69.133537445279558
 21
136.2715933897465
  0
LINE
  8
_0-9_
  6
PHANTOM1
 62
  152
 10
69.133537445279558
 20
136.2715933897465
 11
33.133537445278193
 21
136.2715933897465
  0
LINE
  8
_0-9_
  6
PHANTOM1
 62
  152
 10
33.133537445278193
 20
136.2715933897465
 11
33.133537445278193
 21
139.27159338974604
  0
ARC
  8
_0-9_
  6
PHANTOM1
 62
  152
 10
34.133537445279558
 20
146.77159338974604
 40
2.9999999999999867
 50
89.99999999999946
 51
180.0000000000002
  0
ARC
  8
_0-9_
  6
PHANTOM1
 62
  152
 10
68.133537445278193
 20
146.77159338974604
 40
2.9999999999999725
 50
359.99999999999977
 51
90.00000000000054
  0
LINE
  8
_0-9_
  6
PHANTOM1
 62
  152
 10
68.133537445278193
 20
149.77159338974604
 11
63.133537445278193
 21
149.77159338974604
  0
LINE
  8
_0-9_
  6
PHANTOM1
 62
  152
 10
39.133537445279558
 20
149.77159338974604
 11
34.133537445529669
 21
149.77159338974604
  0
LINE
  8
_0-9_
  6
PHANTOM1
 62
  152
 10
71.133537445278876
 20
141.77159338974604
 11
70.533537445278284
 21
141.77159338974604
  0
LINE
  8
_0-9_
  6
PHANTOM1
 62
  152
 10
31.733537445279467
 20
141.77159338974604
 11
31.133537445278876
 21
141.77159338974604
  0
LINE
  8
_0-9_
  6
PHANTOM1
 62
  152
 10
31.733537445279467
 20
139.27159338974604
 11
33.133537445278193
 21
139.27159338974604
  0
LINE
  8
_0-9_
  6
PHANTOM1
 62
  152
 10
69.133537445279558
 20
139.27159338974604
 11
70.533537445278284
 21
139.27159338974604
  0
LINE
  8
_0-0_
  6
CONTINUOUS
 62
    7
 10
61.133537445278876
 20
397.9472685095588
 11
88.133537445278876
 21
397.9472685095588
  0
LINE
  8
_0-0_
  6
CONTINUOUS
 62
    7
 10
88.133537445278876
 20
397.9472685095588
 11
91.133537445278876
 21
394.94726850955857
  0
LINE
  8
_0-0_
  6
CONTINUOUS
 62
    7
 10
91.133537445278876
 20
394.94726850955857
 11
91.133537445278876
 21
320.9472685095588
  0
LINE
  8
_0-0_
  6
CONTINUOUS
 62
    7
 10
91.133537445278876
 20
320.9472685095588
 11
88.133537445278876
 21
317.9472685095588
  0
LINE
  8
_0-0_
  6
CONTINUOUS
 62
    7
 10
88.133537445278876
 20
317.9472685095588
 11
14.133537445278989
 21
317.9472685095588
  0
LINE
  8
_0-0_
  6
CONTINUOUS
 62
    7
 10
14.133537445278989
 20
317.9472685095588
 11
11.133537445278989
 21
320.9472685095588
  0
LINE
  8
_0-0_
  6
CONTINUOUS
 62
    7
 10
11.133537445278989
 20
320.9472685095588
 11
11.133537445278989
 21
347.9472685095588
  0
LINE
  8
_0-0_
  6
CONTINUOUS
 62
    7
 10
11.133537445278989
 20
347.9472685095588
 11
61.133537445278876
 21
397.9472685095588
  0
LINE
  8
_0-1_
  6
CENTER1
 62
  152
 10
77.883537445278876
 20
387.9472685095588
 11
84.383537445278876
 21
387.9472685095588
  0
LINE
  8
_0-1_
  6
CENTER1
 62
  152
 10
81.133537445278876
 20
391.19726850955857
 11
81.133537445278876
 21
384.6972685095588
  0
LINE
  8
_0-1_
  6
CENTER1
 62
  152
 10
81.133537445278876
 20
361.19726850955857
 11
81.133537445278876
 21
354.6972685095588
  0
LINE
  8
_0-1_
  6
CENTER1
 62
  152
 10
77.883537445278876
 20
357.9472685095588
 11
84.383537445278876
 21
357.9472685095588
  0
LINE
  8
_0-1_
  6
CENTER1
 62
  152
 10
61.133537445278876
 20
357.9472685095588
 11
41.133537445278876
 21
357.9472685095588
  0
LINE
  8
_0-1_
  6
CENTER1
 62
  152
 10
51.133537445278876
 20
347.9472685095588
 11
51.133537445278876
 21
367.9472685095588
  0
LINE
  8
_0-1_
  6
CENTER1
 62
  152
 10
51.133537445278876
 20
331.19726850955857
 11
51.133537445278876
 21
324.6972685095588
  0
LINE
  8
_0-1_
  6
CENTER1
 62
  152
 10
47.883537445278876
 20
327.9472685095588
 11
54.383537445278876
 21
327.9472685095588
  0
LINE
  8
_0-1_
  6
CENTER1
 62
  152
 10
77.883537445278876
 20
327.9472685095588
 11
84.383537445278876
 21
327.9472685095588
  0
LINE
  8
_0-1_
  6
CENTER1
 62
  152
 10
81.133537445278876
 20
331.19726850955857
 11
81.133537445278876
 21
324.6972685095588
  0
LINE
  8
_0-0_
  6
CONTINUOUS
 62
    7
 10
213.13353744527888
 20
317.9472685095588
 11
139.13353744527888
 21
317.9472685095588
  0
LINE
  8
_0-0_
  6
CONTINUOUS
 62
    7
 10
139.13353744527888
 20
317.9472685095588
 11
136.13353744527888
 21
320.9472685095588
  0
LINE
  8
_0-0_
  6
CONTINUOUS
 62
    7
 10
136.13353744527888
 20
320.9472685095588
 11
136.13353744527888
 21
347.9472685095588
  0
LINE
  8
_0-0_
  6
CONTINUOUS
 62
    7
 10
136.13353744527888
 20
347.9472685095588
 11
186.13353744527888
 21
397.9472685095588
  0
LINE
  8
_0-0_
  6
CONTINUOUS
 62
    7
 10
186.13353744527888
 20
397.9472685095588
 11
213.13353744527888
 21
397.9472685095588
  0
LINE
  8
_0-0_
  6
CONTINUOUS
 62
    7
 10
213.13353744527888
 20
397.9472685095588
 11
216.13353744527888
 21
394.94726850955857
  0
LINE
  8
_0-0_
  6
CONTINUOUS
 62
    7
 10
216.13353744527888
 20
394.94726850955857
 11
216.13353744527888
 21
320.9472685095588
  0
LINE
  8
_0-0_
  6
CONTINUOUS
 62
    7
 10
216.13353744527888
 20
320.9472685095588
 11
213.13353744527888
 21
317.9472685095588
  0
LINE
  8
_0-1_
  6
CENTER1
 62
  152
 10
209.38353744527888
 20
327.9472685095588
 11
202.88353744527888
 21
327.9472685095588
  0
LINE
  8
_0-1_
  6
CENTER1
 62
  152
 10
206.13353744527888
 20
331.19726850955857
 11
206.13353744527888
 21
324.6972685095588
  0
LINE
  8
_0-1_
  6
CENTER1
 62
  152
 10
206.13353744527888
 20
354.6972685095588
 11
206.13353744527888
 21
361.19726850955857
  0
LINE
  8
_0-1_
  6
CENTER1
 62
  152
 10
209.38353744527888
 20
357.9472685095588
 11
202.88353744527888
 21
357.9472685095588
  0
LINE
  8
_0-1_
  6
CENTER1
 62
  152
 10
186.13353744527888
 20
357.9472685095588
 11
166.13353744527888
 21
357.9472685095588
  0
LINE
  8
_0-1_
  6
CENTER1
 62
  152
 10
176.13353744527888
 20
347.9472685095588
 11
176.13353744527888
 21
367.9472685095588
  0
LINE
  8
_0-1_
  6
CENTER1
 62
  152
 10
176.13353744527888
 20
331.19726850955857
 11
176.13353744527888
 21
324.6972685095588
  0
LINE
  8
_0-1_
  6
CENTER1
 62
  152
 10
172.88353744527888
 20
327.9472685095588
 11
179.38353744527888
 21
327.9472685095588
  0
LINE
  8
_0-1_
  6
CENTER1
 62
  152
 10
149.38353744527888
 20
327.9472685095588
 11
142.88353744527888
 21
327.9472685095588
  0
LINE
  8
_0-1_
  6
CENTER1
 62
  152
 10
146.13353744527888
 20
331.19726850955857
 11
146.13353744527888
 21
324.6972685095588
  0
LINE
  8
_0-0_
  6
CONTINUOUS
 62
    7
 10
261.13353744527797
 20
320.9472685095588
 11
264.13353744527797
 21
317.9472685095588
  0
LINE
  8
_0-0_
  6
CONTINUOUS
 62
    7
 10
264.13353744527797
 20
317.9472685095588
 11
338.13353744527797
 21
317.9472685095588
  0
LINE
  8
_0-0_
  6
CONTINUOUS
 62
    7
 10
338.13353744527797
 20
317.9472685095588
 11
341.13353744527797
 21
320.9472685095588
  0
LINE
  8
_0-0_
  6
CONTINUOUS
 62
    7
 10
341.13353744527797
 20
320.9472685095588
 11
341.13353744527797
 21
394.94726850955857
  0
LINE
  8
_0-0_
  6
CONTINUOUS
 62
    7
 10
341.13353744527797
 20
394.94726850955857
 11
338.13353744527797
 21
397.9472685095588
  0
LINE
  8
_0-0_
  6
CONTINUOUS
 62
    7
 10
338.13353744527797
 20
397.9472685095588
 11
311.13353744527797
 21
397.9472685095588
  0
LINE
  8
_0-0_
  6
CONTINUOUS
 62
    7
 10
311.13353744527797
 20
397.9472685095588
 11
261.13353744527797
 21
347.9472685095588
  0
LINE
  8
_0-0_
  6
CONTINUOUS
 62
    7
 10
261.13353744527797
 20
347.9472685095588
 11
261.13353744527797
 21
320.9472685095588
  0
LINE
  8
_0-1_
  6
CENTER1
 62
  152
 10
267.88353744527797
 20
327.9472685095588
 11
274.38353744527797
 21
327.9472685095588
  0
LINE
  8
_0-1_
  6
CENTER1
 62
  152
 10
271.13353744527797
 20
331.19726850955857
 11
271.13353744527797
 21
324.6972685095588
  0
LINE
  8
_0-1_
  6
CENTER1
 62
  152
 10
297.88353744527797
 20
327.9472685095588
 11
304.38353744527797
 21
327.9472685095588
  0
LINE
  8
_0-1_
  6
CENTER1
 62
  152
 10
301.13353744527797
 20
331.19726850955857
 11
301.13353744527797
 21
324.6972685095588
  0
LINE
  8
_0-1_
  6
CENTER1
 62
  152
 10
331.13353744527797
 20
324.6972685095588
 11
331.13353744527797
 21
331.19726850955857
  0
LINE
  8
_0-1_
  6
CENTER1
 62
  152
 10
327.88353744527797
 20
327.9472685095588
 11
334.38353744527797
 21
327.9472685095588
  0
LINE
  8
_0-1_
  6
CENTER1
 62
  152
 10
334.38353744527797
 20
357.9472685095588
 11
327.88353744527797
 21
357.9472685095588
  0
LINE
  8
_0-1_
  6
CENTER1
 62
  152
 10
331.13353744527797
 20
361.19726850955857
 11
331.13353744527797
 21
354.6972685095588
  0
LINE
  8
_0-1_
  6
CENTER1
 62
  152
 10
311.13353744527797
 20
357.9472685095588
 11
291.13353744527797
 21
357.9472685095588
  0
LINE
  8
_0-1_
  6
CENTER1
 62
  152
 10
301.13353744527797
 20
347.9472685095588
 11
301.13353744527797
 21
367.9472685095588
  0
LINE
  8
_0-1_
  6
CENTER1
 62
  152
 10
331.13353744527797
 20
384.6972685095588
 11
331.13353744527797
 21
391.19726850955857
  0
LINE
  8
_0-1_
  6
CENTER1
 62
  152
 10
327.88353744527797
 20
387.9472685095588
 11
334.38353744527797
 21
387.9472685095588
  0
LINE
  8
_0-0_
  6
CONTINUOUS
 62
    7
 10
386.13353744527797
 20
347.9472685095588
 11
386.13353744527797
 21
320.9472685095588
  0
LINE
  8
_0-0_
  6
CONTINUOUS
 62
    7
 10
386.13353744527797
 20
320.9472685095588
 11
389.13353744527797
 21
317.9472685095588
  0
LINE
  8
_0-0_
  6
CONTINUOUS
 62
    7
 10
389.13353744527797
 20
317.9472685095588
 11
463.13353744527802
 21
317.9472685095588
  0
LINE
  8
_0-0_
  6
CONTINUOUS
 62
    7
 10
463.13353744527802
 20
317.9472685095588
 11
466.13353744527802
 21
320.9472685095588
  0
LINE
  8
_0-0_
  6
CONTINUOUS
 62
    7
 10
466.13353744527802
 20
320.9472685095588
 11
466.13353744527802
 21
394.94726850955857
  0
LINE
  8
_0-0_
  6
CONTINUOUS
 62
    7
 10
466.13353744527802
 20
394.94726850955857
 11
463.13353744527802
 21
397.9472685095588
  0
LINE
  8
_0-0_
  6
CONTINUOUS
 62
    7
 10
463.13353744527802
 20
397.9472685095588
 11
436.13353744527797
 21
397.9472685095588
  0
LINE
  8
_0-0_
  6
CONTINUOUS
 62
    7
 10
436.13353744527797
 20
397.9472685095588
 11
386.13353744527797
 21
347.9472685095588
  0
LINE
  8
_0-1_
  6
CENTER1
 62
  152
 10
392.88353744527797
 20
327.9472685095588
 11
399.38353744527797
 21
327.9472685095588
  0
LINE
  8
_0-1_
  6
CENTER1
 62
  152
 10
396.13353744527797
 20
331.19726850955857
 11
396.13353744527797
 21
324.6972685095588
  0
LINE
  8
_0-1_
  6
CENTER1
 62
  152
 10
422.88353744527797
 20
327.9472685095588
 11
429.38353744527797
 21
327.9472685095588
  0
LINE
  8
_0-1_
  6
CENTER1
 62
  152
 10
426.13353744527797
 20
331.19726850955857
 11
426.13353744527797
 21
324.6972685095588
  0
LINE
  8
_0-1_
  6
CENTER1
 62
  152
 10
426.13353744527797
 20
347.9472685095588
 11
426.13353744527797
 21
367.9472685095588
  0
LINE
  8
_0-1_
  6
CENTER1
 62
  152
 10
436.13353744527797
 20
357.9472685095588
 11
416.13353744527797
 21
357.9472685095588
  0
LINE
  8
_0-1_
  6
CENTER1
 62
  152
 10
452.88353744527797
 20
357.9472685095588
 11
459.38353744527802
 21
357.9472685095588
  0
LINE
  8
_0-1_
  6
CENTER1
 62
  152
 10
456.13353744527797
 20
361.19726850955857
 11
456.13353744527797
 21
354.6972685095588
  0
LINE
  8
_0-1_
  6
CENTER1
 62
  152
 10
456.13353744527797
 20
331.19726850955857
 11
456.13353744527797
 21
324.6972685095588
  0
LINE
  8
_0-1_
  6
CENTER1
 62
  152
 10
452.88353744527797
 20
327.9472685095588
 11
459.38353744527802
 21
327.9472685095588
  0
LINE
  8
_0-1_
  6
CENTER1
 62
  152
 10
209.38353744527888
 20
387.9472685095588
 11
202.88353744527888
 21
387.9472685095588
  0
LINE
  8
_0-1_
  6
CENTER1
 62
  152
 10
206.13353744527888
 20
391.19726850955857
 11
206.13353744527888
 21
384.6972685095588
  0
LINE
  8
_0-1_
  6
CENTER1
 62
  152
 10
24.383537445278989
 20
327.9472685095588
 11
17.883537445278989
 21
327.9472685095588
  0
LINE
  8
_0-1_
  6
CENTER1
 62
  152
 10
21.133537445278989
 20
331.19726850955857
 11
21.133537445278989
 21
324.6972685095588
  0
LINE
  8
_0-1_
  6
CENTER1
 62
  152
 10
456.13353744527797
 20
384.6972685095588
 11
456.13353744527797
 21
391.19726850955857
  0
LINE
  8
_0-1_
  6
CENTER1
 62
  152
 10
452.88353744527797
 20
387.9472685095588
 11
459.38353744527802
 21
387.9472685095588
  0
CIRCLE
  8
_0-0_
  6
CONTINUOUS
 62
    7
 10
81.133537445278876
 20
387.9472685095588
 40
3.25
  0
CIRCLE
  8
_0-0_
  6
CONTINUOUS
 62
    7
 10
81.133537445278876
 20
357.9472685095588
 40
3.25
  0
CIRCLE
  8
_0-0_
  6
CONTINUOUS
 62
    7
 10
51.133537445278876
 20
357.9472685095588
 40
10
  0
CIRCLE
  8
_0-0_
  6
CONTINUOUS
 62
    7
 10
51.133537445278876
 20
327.9472685095588
 40
3.25
  0
CIRCLE
  8
_0-0_
  6
CONTINUOUS
 62
    7
 10
81.133537445278876
 20
327.9472685095588
 40
3.25
  0
CIRCLE
  8
_0-0_
  6
CONTINUOUS
 62
    7
 10
21.133537445278989
 20
327.9472685095588
 40
3.25
  0
CIRCLE
  8
_0-0_
  6
CONTINUOUS
 62
    7
 10
51.133537445278876
 20
357.9472685095588
 40
5.1999998092651367
  0
CIRCLE
  8
_0-0_
  6
CONTINUOUS
 62
    7
 10
331.13353744527797
 20
387.9472685095588
 40
3.25
  0
CIRCLE
  8
_0-0_
  6
CONTINUOUS
 62
    7
 10
331.13353744527797
 20
357.9472685095588
 40
3.25
  0
CIRCLE
  8
_0-0_
  6
CONTINUOUS
 62
    7
 10
301.13353744527797
 20
357.9472685095588
 40
10
  0
CIRCLE
  8
_0-0_
  6
CONTINUOUS
 62
    7
 10
301.13353744527797
 20
357.9472685095588
 40
7.0000000000000009
  0
CIRCLE
  8
_0-0_
  6
CONTINUOUS
 62
    7
 10
301.13353744527797
 20
327.9472685095588
 40
3.25
  0
CIRCLE
  8
_0-0_
  6
CONTINUOUS
 62
    7
 10
331.13353744527797
 20
327.9472685095588
 40
3.25
  0
CIRCLE
  8
_0-0_
  6
CONTINUOUS
 62
    7
 10
271.13353744527797
 20
327.9472685095588
 40
3.25
  0
CIRCLE
  8
_0-0_
  6
CONTINUOUS
 62
    7
 10
206.13353744527888
 20
387.9472685095588
 40
3.25
  0
CIRCLE
  8
_0-0_
  6
CONTINUOUS
 62
    7
 10
206.13353744527888
 20
357.9472685095588
 40
3.25
  0
CIRCLE
  8
_0-0_
  6
CONTINUOUS
 62
    7
 10
176.13353744527888
 20
357.9472685095588
 40
10
  0
CIRCLE
  8
_0-0_
  6
CONTINUOUS
 62
    7
 10
176.13353744527888
 20
327.9472685095588
 40
3.25
  0
CIRCLE
  8
_0-0_
  6
CONTINUOUS
 62
    7
 10
206.13353744527888
 20
327.9472685095588
 40
3.25
  0
CIRCLE
  8
_0-0_
  6
CONTINUOUS
 62
    7
 10
146.13353744527888
 20
327.9472685095588
 40
3.25
  0
CIRCLE
  8
_0-0_
  6
CONTINUOUS
 62
    7
 10
176.13353744527888
 20
357.9472685095588
 40
5.1999998092651367
  0
CIRCLE
  8
_0-0_
  6
CONTINUOUS
 62
    7
 10
456.13353744527797
 20
387.9472685095588
 40
3.25
  0
CIRCLE
  8
_0-0_
  6
CONTINUOUS
 62
    7
 10
456.13353744527797
 20
357.9472685095588
 40
3.25
  0
CIRCLE
  8
_0-0_
  6
CONTINUOUS
 62
    7
 10
426.13353744527797
 20
357.9472685095588
 40
10
  0
CIRCLE
  8
_0-0_
  6
CONTINUOUS
 62
    7
 10
426.13353744527797
 20
357.9472685095588
 40
7.0000000000000009
  0
CIRCLE
  8
_0-0_
  6
CONTINUOUS
 62
    7
 10
426.13353744527797
 20
327.9472685095588
 40
3.25
  0
CIRCLE
  8
_0-0_
  6
CONTINUOUS
 62
    7
 10
456.13353744527797
 20
327.9472685095588
 40
3.25
  0
CIRCLE
  8
_0-0_
  6
CONTINUOUS
 62
    7
 10
396.13353744527797
 20
327.9472685095588
 40
3.25
  0
CIRCLE
  8
_0-1_
  6
CONTINUOUS
 62
  152
 10
51.133537445278876
 20
357.9472685095588
 40
6
  0
CIRCLE
  8
_0-1_
  6
CONTINUOUS
 62
  152
 10
301.13353744527797
 20
357.9472685095588
 40
8
  0
CIRCLE
  8
_0-1_
  6
CONTINUOUS
 62
  152
 10
176.13353744527888
 20
357.9472685095588
 40
6
  0
TEXT
  8
_0-e_
 62
    7
 10
136.13353744527888
 20
387.9472685095588
 40
5
 41
1
 50
0
  1
LP40-M12
  0
CIRCLE
  8
_0-1_
  6
CONTINUOUS
 62
  152
 10
426.13353744527797
 20
357.9472685095588
 40
8
  0
TEXT
  8
_0-e_
 62
    7
 10
386.13353744527797
 20
387.9472685095588
 40
5
 41
1
 50
0
  1
LP40-M16
  0
LINE
  8
_0-1_
  6
CONTINUOUS
 62
  152
 10
57.133537445279103
 20
260.27159338974627
 11
45.133537445278648
 21
260.27159338974627
  0
LINE
  8
_0-1_
  6
CONTINUOUS
 62
  152
 10
31.133537445278876
 20
171.67159338974636
 11
71.133537445278876
 21
171.67159338974636
  0
LINE
  8
_0-1_
  6
CONTINUOUS
 62
    7
 10
69.133537445279558
 20
161.2715933897465
 11
33.13353744527933
 21
161.2715933897465
  0
LINE
  8
_0-1_
  6
CONTINUOUS
 62
    7
 10
46.133537445278876
 20
261.2715933897465
 11
56.133537445278876
 21
261.2715933897465
  0
LINE
  8
_0-1_
  6
CONTINUOUS
 62
    7
 10
56.133537445278876
 20
261.2715933897465
 11
57.133537445279103
 21
260.27159338974627
  0
LINE
  8
_0-1_
  6
CONTINUOUS
 62
    7
 10
45.133537445278648
 20
260.27159338974627
 11
46.133537445278876
 21
261.2715933897465
  0
LINE
  8
_0-1_
  6
CONTINUOUS
 62
    7
 10
71.133537445278876
 20
166.6715933897467
 11
31.133537445278876
 21
166.6715933897467
  0
LINE
  8
_0-1_
  6
CONTINUOUS
 62
    7
 10
69.133537445279558
 20
164.1715933897467
 11
69.133537445279558
 21
161.2715933897465
  0
LINE
  8
_0-1_
  6
CONTINUOUS
 62
    7
 10
33.13353744527933
 20
161.2715933897465
 11
33.13353744527933
 21
164.1715933897467
  0
LINE
  8
_0-1_
  6
CONTINUOUS
 62
    7
 10
34.133537445529669
 20
174.67159338974648
 11
68.13353744527933
 21
174.67159338974648
  0
LINE
  8
_0-1_
  6
CONTINUOUS
 62
    7
 10
63.13353744527933
 20
174.67159338974648
 11
63.13353744527933
 21
175.07159338974645
  0
LINE
  8
_0-1_
  6
CONTINUOUS
 62
    7
 10
63.13353744527933
 20
175.07159338974645
 11
39.133537445279558
 21
175.07159338974645
  0
LINE
  8
_0-1_
  6
CONTINUOUS
 62
    7
 10
39.133537445279558
 20
175.07159338974645
 11
39.133537445279558
 21
174.67159338974648
  0
LINE
  8
_0-1_
  6
CONTINUOUS
 62
    7
 10
40.163882330676756
 20
175.83795599996643
 11
40.854924604919802
 21
175.67754628314412
  0
LINE
  8
_0-1_
  6
CONTINUOUS
 62
    7
 10
40.854924604919802
 20
175.67754628314412
 11
41.547383229261527
 21
175.55704429222772
  0
LINE
  8
_0-1_
  6
CONTINUOUS
 62
    7
 10
41.547383229261527
 20
175.55704429222772
 11
42.239089701219996
 21
175.48275753155588
  0
LINE
  8
_0-1_
  6
CONTINUOUS
 62
    7
 10
42.239089701219996
 20
175.48275753155588
 11
42.930762774727668
 21
175.45872268624885
  0
LINE
  8
_0-1_
  6
CONTINUOUS
 62
    7
 10
42.930762774727668
 20
175.45872268624885
 11
43.613935117029882
 21
175.48574645970371
  0
LINE
  8
_0-1_
  6
CONTINUOUS
 62
    7
 10
43.613935117029882
 20
175.48574645970371
 11
44.295347475478934
 21
175.56136660916047
  0
LINE
  8
_0-1_
  6
CONTINUOUS
 62
    7
 10
44.295347475478934
 20
175.56136660916047
 11
44.97324909206543
 21
175.68074494433256
  0
LINE
  8
_0-1_
  6
CONTINUOUS
 62
    7
 10
44.97324909206543
 20
175.68074494433256
 11
45.648709887977816
 21
175.83795599996643
  0
LINE
  8
_0-1_
  6
CONTINUOUS
 62
    7
 10
45.648709887977816
 20
175.83795599996643
 11
48.059393858659291
 21
175.5838531831929
  0
LINE
  8
_0-1_
  6
CONTINUOUS
 62
    7
 10
48.059393858659291
 20
175.5838531831929
 11
50.472493814737504
 21
175.46461819123749
  0
LINE
  8
_0-1_
  6
CONTINUOUS
 62
    7
 10
50.472493814737504
 20
175.46461819123749
 11
52.861776089992986
 21
175.4989278207114
  0
LINE
  8
_0-1_
  6
CONTINUOUS
 62
    7
 10
52.861776089992986
 20
175.4989278207114
 11
55.236293098680449
 21
175.67754757688897
  0
LINE
  8
_0-1_
  6
CONTINUOUS
 62
    7
 10
55.236293098680449
 20
175.67754757688897
 11
56.618365002581072
 21
175.83795599996643
  0
LINE
  8
_0-1_
  6
CONTINUOUS
 62
    7
 10
56.618365002581072
 20
175.83795599996643
 11
57.309407276825254
 21
175.67754628314412
  0
LINE
  8
_0-1_
  6
CONTINUOUS
 62
    7
 10
57.309407276825254
 20
175.67754628314412
 11
58.001865901165843
 21
175.55704429222772
  0
LINE
  8
_0-1_
  6
CONTINUOUS
 62
    7
 10
58.001865901165843
 20
175.55704429222772
 11
58.693572373124312
 21
175.48275753155588
  0
LINE
  8
_0-1_
  6
CONTINUOUS
 62
    7
 10
58.693572373124312
 20
175.48275753155588
 11
59.385245446631984
 21
175.45872268624885
  0
LINE
  8
_0-1_
  6
CONTINUOUS
 62
    7
 10
59.385245446631984
 20
175.45872268624885
 11
60.068417788934198
 21
175.48574645970371
  0
LINE
  8
_0-1_
  6
CONTINUOUS
 62
    7
 10
60.068417788934198
 20
175.48574645970371
 11
60.74983014738325
 21
175.56136660916047
  0
LINE
  8
_0-1_
  6
CONTINUOUS
 62
    7
 10
60.74983014738325
 20
175.56136660916047
 11
61.427731763969746
 21
175.68074494433256
  0
LINE
  8
_0-1_
  6
CONTINUOUS
 62
    7
 10
61.427731763969746
 20
175.68074494433256
 11
62.103192559882132
 21
175.83795599996643
  0
LINE
  8
_0-1_
  6
CONTINUOUS
 62
    7
 10
62.103192559882132
 20
175.83795599996643
 11
59.133537445279558
 21
175.07159338974645
  0
LINE
  8
_0-1_
  6
CONTINUOUS
 62
    7
 10
56.618365002581072
 20
175.83795599996643
 11
56.618365002581072
 21
181.2715933897465
  0
LINE
  8
_0-1_
  6
CONTINUOUS
 62
    7
 10
62.103192559882132
 20
181.2715933897465
 11
40.163882330676756
 21
181.2715933897465
  0
LINE
  8
_0-1_
  6
CONTINUOUS
 62
    7
 10
40.163882330676756
 20
181.2715933897465
 11
40.163882330676756
 21
175.83795599996643
  0
LINE
  8
_0-1_
  6
CONTINUOUS
 62
    7
 10
40.163882330676756
 20
175.83795599996643
 11
43.13353744527933
 21
175.07159338974645
  0
LINE
  8
_0-1_
  6
CONTINUOUS
 62
    7
 10
45.648709887977816
 20
175.83795599996643
 11
45.648709887977816
 21
181.2715933897465
  0
LINE
  8
_0-1_
  6
CONTINUOUS
 62
    7
 10
62.103192559882132
 20
181.2715933897465
 11
62.103192559882132
 21
175.83795599996643
  0
ARC
  8
_0-1_
  6
CONTINUOUS
 62
    7
 10
34.133537445279558
 20
171.67159338974636
 40
2.9999999999999867
 50
89.99999999999946
 51
180.0000000000002
  0
ARC
  8
_0-1_
  6
CONTINUOUS
 62
    7
 10
68.13353744527933
 20
171.67159338974636
 40
2.9999999999999725
 50
359.99999999999977
 51
90.00000000000054
  0
LINE
  8
_0-1_
  6
CONTINUOUS
 62
    7
 10
31.133537445278876
 20
164.1715933897467
 11
31.133537445278876
 21
171.67159338974636
  0
LINE
  8
_0-1_
  6
CONTINUOUS
 62
    7
 10
31.133537445278876
 20
164.1715933897467
 11
71.133537445278876
 21
164.1715933897467
  0
LINE
  8
_0-1_
  6
CONTINUOUS
 62
    7
 10
71.133537445278876
 20
171.67159338974636
 11
71.133537445278876
 21
164.1715933897467
  0
LINE
  8
_0-1_
  6
CONTINUOUS
 62
  152
 10
45.883537445278648
 20
181.2715933897465
 11
45.883537445278648
 21
209.07159338974651
  0
LINE
  8
_0-1_
  6
CONTINUOUS
 62
  152
 10
56.383537445279103
 20
181.2715933897465
 11
56.383537445279103
 21
209.07159338974651
  0
LINE
  8
_0-1_
  6
CONTINUOUS
 62
    7
 10
42.906295929166049
 20
216.2715933897465
 11
59.360778961391702
 21
216.2715933897465
  0
ARC
  8
_0-1_
  6
CONTINUOUS
 62
    7
 10
51.133537445278876
 20
202.47584920906684
 40
13.795743942260742
 50
66.573394775390625
 51
113.4265899658203
  0
LINE
  8
_0-1_
  6
CONTINUOUS
 62
    7
 10
62.103062181522318
 20
215.13441160558153
 11
61.435638399382469
 21
215.65266710628589
  0
LINE
  8
_0-1_
  6
CONTINUOUS
 62
    7
 10
61.435638399382469
 20
215.65266710628589
 11
60.705171063148896
 21
216.02052956013677
  0
LINE
  8
_0-1_
  6
CONTINUOUS
 62
    7
 10
60.705171063148896
 20
216.02052956013677
 11
59.933855053198613
 21
216.2268216526212
  0
LINE
  8
_0-1_
  6
CONTINUOUS
 62
    7
 10
59.933855053198613
 20
216.2268216526212
 11
59.145126416189214
 21
216.26527530289809
  0
LINE
  8
_0-1_
  6
CONTINUOUS
 62
    7
 10
59.145126416189214
 20
216.26527530289809
 11
58.362950272640433
 21
216.13472211626208
  0
LINE
  8
_0-1_
  6
CONTINUOUS
 62
    7
 10
58.362950272640433
 20
216.13472211626208
 11
57.611092648873637
 21
215.83912888522605
  0
LINE
  8
_0-1_
  6
CONTINUOUS
 62
    7
 10
57.611092648873637
 20
215.83912888522605
 11
56.912398358328801
 21
215.38747706053766
  0
LINE
  8
_0-1_
  6
CONTINUOUS
 62
    7
 10
56.912398358328801
 20
215.38747706053766
 11
56.618496700963647
 21
215.13441250365588
  0
LINE
  8
_0-1_
  6
CONTINUOUS
 62
    7
 10
45.648579149296665
 20
215.13441160558153
 11
44.981155367156816
 21
215.65266710628589
  0
LINE
  8
_0-1_
  6
CONTINUOUS
 62
    7
 10
44.981155367156816
 20
215.65266710628589
 11
44.250688030923243
 21
216.02052956013677
  0
LINE
  8
_0-1_
  6
CONTINUOUS
 62
    7
 10
44.250688030923243
 20
216.02052956013677
 11
43.47937202097296
 21
216.2268216526212
  0
LINE
  8
_0-1_
  6
CONTINUOUS
 62
    7
 10
43.47937202097296
 20
216.2268216526212
 11
42.690643383963561
 21
216.26527530289809
  0
LINE
  8
_0-1_
  6
CONTINUOUS
 62
    7
 10
42.690643383963561
 20
216.26527530289809
 11
41.90846724041478
 21
216.13472211626208
  0
LINE
  8
_0-1_
  6
CONTINUOUS
 62
    7
 10
41.90846724041478
 20
216.13472211626208
 11
41.156609616647984
 21
215.83912888522605
  0
LINE
  8
_0-1_
  6
CONTINUOUS
 62
    7
 10
41.156609616647984
 20
215.83912888522605
 11
40.457915326103148
 21
215.38747706053766
  0
LINE
  8
_0-1_
  6
CONTINUOUS
 62
    7
 10
40.457915326103148
 20
215.38747706053766
 11
40.164013668737994
 21
215.13441250365588
  0
LINE
  8
_0-1_
  6
CONTINUOUS
 62
    7
 10
45.648709926815513
 20
210.20877467178985
 11
45.648709926815513
 21
215.13441210770304
  0
LINE
  8
_0-1_
  6
CONTINUOUS
 62
    7
 10
62.1031924822056
 20
215.13441210770304
 11
62.1031924822056
 21
210.20877467178985
  0
LINE
  8
_0-1_
  6
CONTINUOUS
 62
    7
 10
59.360778961391702
 20
209.07159338974651
 11
42.906295929166049
 21
209.07159338974651
  0
LINE
  8
_0-1_
  6
CONTINUOUS
 62
    7
 10
40.163882408352151
 20
210.20877467178985
 11
40.163882408352151
 21
215.13441210770304
  0
LINE
  8
_0-1_
  6
CONTINUOUS
 62
    7
 10
56.618364963742238
 20
215.13441210770304
 11
56.618364963742238
 21
210.20877467178985
  0
ARC
  8
_0-1_
  6
CONTINUOUS
 62
    7
 10
51.133537445278876
 20
222.86733757042583
 40
13.795743942260742
 50
246.57341003417969
 51
293.42660522460937
  0
LINE
  8
_0-1_
  6
CONTINUOUS
 62
    7
 10
56.618496700963647
 20
210.20877427583713
 11
57.285920595341167
 21
209.69051899370839
  0
LINE
  8
_0-1_
  6
CONTINUOUS
 62
    7
 10
57.285920595341167
 20
209.69051899370839
 11
58.016388011242043
 21
209.32265677907941
  0
LINE
  8
_0-1_
  6
CONTINUOUS
 62
    7
 10
58.016388011242043
 20
209.32265677907941
 11
58.787704065868638
 21
209.1163649391944
  0
LINE
  8
_0-1_
  6
CONTINUOUS
 62
    7
 10
58.787704065868638
 20
209.1163649391944
 11
59.576432711205825
 21
209.07791154721951
  0
LINE
  8
_0-1_
  6
CONTINUOUS
 62
    7
 10
59.576432711205825
 20
209.07791154721951
 11
60.358608826480918
 21
209.20846499001158
  0
LINE
  8
_0-1_
  6
CONTINUOUS
 62
    7
 10
60.358608826480918
 20
209.20846499001158
 11
61.110466386231565
 21
209.50405846727455
  0
LINE
  8
_0-1_
  6
CONTINUOUS
 62
    7
 10
61.110466386231565
 20
209.50405846727455
 11
61.809160578962974
 21
209.95571052077941
  0
LINE
  8
_0-1_
  6
CONTINUOUS
 62
    7
 10
61.809160578962974
 20
209.95571052077941
 11
62.103062181522318
 21
210.20877517391148
  0
LINE
  8
_0-1_
  6
CONTINUOUS
 62
    7
 10
40.164013668737994
 20
210.20877427583713
 11
40.831437563115514
 21
209.69051899370839
  0
LINE
  8
_0-1_
  6
CONTINUOUS
 62
    7
 10
40.831437563115514
 20
209.69051899370839
 11
41.56190497901639
 21
209.32265677907941
  0
LINE
  8
_0-1_
  6
CONTINUOUS
 62
    7
 10
41.56190497901639
 20
209.32265677907941
 11
42.333221033642985
 21
209.1163649391944
  0
LINE
  8
_0-1_
  6
CONTINUOUS
 62
    7
 10
42.333221033642985
 20
209.1163649391944
 11
43.121949678980172
 21
209.07791154721951
  0
LINE
  8
_0-1_
  6
CONTINUOUS
 62
    7
 10
43.121949678980172
 20
209.07791154721951
 11
43.904125794255265
 21
209.20846499001158
  0
LINE
  8
_0-1_
  6
CONTINUOUS
 62
    7
 10
43.904125794255265
 20
209.20846499001158
 11
44.655983354005912
 21
209.50405846727455
  0
LINE
  8
_0-1_
  6
CONTINUOUS
 62
    7
 10
44.655983354005912
 20
209.50405846727455
 11
45.354677546737321
 21
209.95571052077941
  0
LINE
  8
_0-1_
  6
CONTINUOUS
 62
    7
 10
45.354677546737321
 20
209.95571052077941
 11
45.648579149296665
 21
210.20877517391148
  0
LINE
  8
_0-1_
  6
CONTINUOUS
 62
    7
 10
57.133537445279103
 20
209.07159338974651
 11
57.133537445279103
 21
181.2715933897465
  0
LINE
  8
_0-1_
  6
CONTINUOUS
 62
    7
 10
45.133537445278648
 20
209.07159338974651
 11
45.133537445278648
 21
181.2715933897465
  0
LINE
  8
_0-0_
  6
CONTINUOUS
 62
    7
 10
62.133537445278876
 20
216.97870338974678
 11
61.426427445279501
 21
216.2715933897465
  0
LINE
  8
_0-1_
  6
CONTINUOUS
 62
  152
 10
56.383537445279103
 20
243.27159338974653
 11
56.383537445279103
 21
261.02159338974627
  0
LINE
  8
_0-1_
  6
CONTINUOUS
 62
  152
 10
45.883537445278648
 20
243.27159338974653
 11
45.883537445278648
 21
261.02159338974622
  0
LINE
  8
_0-1_
  6
CONTINUOUS
 62
    7
 10
57.133537445279103
 20
260.27159338974627
 11
57.133537445279103
 21
243.27159338974653
  0
LINE
  8
_0-1_
  6
CONTINUOUS
 62
    7
 10
45.133537445278648
 20
260.27159338974627
 11
45.133537445278648
 21
243.27159338974653
  0
LINE
  8
_0-9_
  6
PHANTOM1
 62
  152
 10
62.103192559882132
 20
202.93795599996599
 11
59.133537445279558
 21
202.17159338974636
  0
LINE
  8
_0-9_
  6
PHANTOM1
 62
  152
 10
43.133537445278193
 20
202.17159338974636
 11
40.163882330675619
 21
202.93795599996599
  0
LINE
  8
_0-9_
  6
PHANTOM1
 62
  152
 10
63.133537445278193
 20
202.17159338974636
 11
63.133537445278193
 21
201.77159338974604
  0
LINE
  8
_0-9_
  6
PHANTOM1
 62
  152
 10
39.133537445279558
 20
201.77159338974604
 11
39.133537445279558
 21
202.17159338974636
  0
LINE
  8
_0-9_
  6
PHANTOM1
 62
  152
 10
71.133537445278876
 20
198.77159338974604
 11
71.133537445278876
 21
193.77159338974604
  0
LINE
  8
_0-9_
  6
PHANTOM1
 62
  152
 10
31.133537445278876
 20
193.77159338974604
 11
31.133537445278876
 21
198.77159338974604
  0
LINE
  8
_0-9_
  6
PHANTOM1
 62
  152
 10
31.733537445279467
 20
193.77159338974604
 11
31.733537445279467
 21
191.27159338974604
  0
LINE
  8
_0-9_
  6
PHANTOM1
 62
  152
 10
70.533537445278284
 20
191.27159338974604
 11
70.533537445278284
 21
193.77159338974604
  0
LINE
  8
_0-9_
  6
PHANTOM1
 62
  152
 10
69.133537445279558
 20
191.27159338974604
 11
69.133537445279558
 21
188.2715933897465
  0
LINE
  8
_0-9_
  6
PHANTOM1
 62
  152
 10
69.133537445279558
 20
188.2715933897465
 11
33.133537445278193
 21
188.2715933897465
  0
LINE
  8
_0-9_
  6
PHANTOM1
 62
  152
 10
33.133537445278193
 20
188.2715933897465
 11
33.133537445278193
 21
191.27159338974604
  0
ARC
  8
_0-9_
  6
PHANTOM1
 62
  152
 10
34.133537445279558
 20
198.77159338974604
 40
2.9999999999999867
 50
89.99999999999946
 51
180.0000000000002
  0
ARC
  8
_0-9_
  6
PHANTOM1
 62
  152
 10
68.133537445278193
 20
198.77159338974604
 40
2.9999999999999725
 50
359.99999999999977
 51
90.00000000000054
  0
LINE
  8
_0-9_
  6
PHANTOM1
 62
  152
 10
39.133537445279558
 20
202.17159338974636
 11
43.133537445278193
 21
202.17159338974636
  0
LINE
  8
_0-9_
  6
PHANTOM1
 62
  152
 10
59.133537445279558
 20
202.17159338974636
 11
63.133537445278193
 21
202.17159338974636
  0
LINE
  8
_0-9_
  6
PHANTOM1
 62
  152
 10
68.133537445278193
 20
201.77159338974604
 11
63.133537445278193
 21
201.77159338974604
  0
LINE
  8
_0-9_
  6
PHANTOM1
 62
  152
 10
39.133537445279558
 20
201.77159338974604
 11
34.133537445529669
 21
201.77159338974604
  0
LINE
  8
_0-9_
  6
PHANTOM1
 62
  152
 10
71.133537445278876
 20
193.77159338974604
 11
70.533537445278284
 21
193.77159338974604
  0
LINE
  8
_0-9_
  6
PHANTOM1
 62
  152
 10
31.733537445279467
 20
193.77159338974604
 11
31.133537445278876
 21
193.77159338974604
  0
LINE
  8
_0-9_
  6
PHANTOM1
 62
  152
 10
31.733537445279467
 20
191.27159338974604
 11
33.133537445278193
 21
191.27159338974604
  0
LINE
  8
_0-9_
  6
PHANTOM1
 62
  152
 10
69.133537445279558
 20
191.27159338974604
 11
70.533537445278284
 21
191.27159338974604
  0
LINE
  8
_0-9_
  6
PHANTOM1
 62
  152
 10
40.163882330675619
 20
208.37159338974641
 11
40.163882330675619
 21
202.93795599996599
  0
LINE
  8
_0-9_
  6
PHANTOM1
 62
  152
 10
62.103192559882132
 20
202.93795599996599
 11
62.103192559882132
 21
208.37159338974641
  0
LINE
  8
_0-9_
  6
PHANTOM1
 62
  152
 10
46.133537445278876
 20
288.2715933897465
 11
56.133537445278876
 21
288.2715933897465
  0
LINE
  8
_0-9_
  6
PHANTOM1
 62
  152
 10
56.133537445278876
 20
288.2715933897465
 11
57.133537445279103
 21
287.27159338974627
  0
LINE
  8
_0-9_
  6
PHANTOM1
 62
  152
 10
45.133537445278648
 20
287.27159338974627
 11
46.133537445278876
 21
288.2715933897465
  0
LINE
  8
_0-9_
  6
PHANTOM1
 62
  152
 10
45.133537445278648
 20
287.27159338974627
 11
45.133537445278648
 21
270.2715933897465
  0
LINE
  8
_0-9_
  6
PHANTOM1
 62
  152
 10
57.133537445279103
 20
287.27159338974627
 11
57.133537445279103
 21
270.2715933897465
  0
LINE
  8
_0-1_
  6
CENTER1
 62
  152
 10
51.133537445278876
 20
136.2715933897465
 11
51.133537445278876
 21
288.95148357588039
  0
TEXT
  8
_0-e_
 62
    7
 10
11.133537445278989
 20
387.9472685095588
 40
5
 41
1
 50
0
  1
LS40B-M12
  0
TEXT
  8
_0-e_
 62
    7
 10
261.13353744527797
 20
387.9472685095588
 40
5
 41
1
 50
0
  1
LS40B-M16
  0
LINE
  8
_0-1_
  6
CONTINUOUS
 62
    7
 10
288.43183152310655
 20
188.27159338974647
 11
313.83524336744938
 21
188.27159338974647
  0
LINE
  8
_0-1_
  6
CONTINUOUS
 62
    7
 10
294.78268448419226
 20
188.27159338974647
 11
294.78268448419226
 21
180.47159338974657
  0
LINE
  8
_0-1_
  6
CONTINUOUS
 62
    7
 10
288.43183152310655
 20
180.47159338974657
 11
288.43183152310655
 21
188.27159338974647
  0
LINE
  8
_0-1_
  6
CONTINUOUS
 62
    7
 10
313.83524336744938
 20
188.27159338974647
 11
313.83524336744938
 21
180.47159338974657
  0
LINE
  8
_0-1_
  6
CONTINUOUS
 62
    7
 10
307.48439040419225
 20
180.47159338974657
 11
307.48439040419225
 21
188.27159338974647
  0
LINE
  8
_0-1_
  6
CONTINUOUS
 62
    7
 10
319.13353744527808
 20
178.47159338974669
 11
319.13353744527808
 21
178.07159338974648
  0
LINE
  8
_0-1_
  6
CONTINUOUS
 62
    7
 10
288.43183152310712
 20
180.47159338974657
 11
288.48007338649109
 21
180.12429703441276
  0
LINE
  8
_0-1_
  6
CONTINUOUS
 62
    7
 10
288.48007338649109
 20
180.12429703441276
 11
288.6233331720357
 21
179.78755310309529
  0
LINE
  8
_0-1_
  6
CONTINUOUS
 62
    7
 10
288.6233331720357
 20
179.78755310309529
 11
288.85725800365003
 21
179.47159338974663
  0
LINE
  8
_0-1_
  6
CONTINUOUS
 62
    7
 10
288.85725800365003
 20
179.47159338974663
 11
289.17474019369718
 21
179.18601817037356
  0
LINE
  8
_0-1_
  6
CONTINUOUS
 62
    7
 10
289.17474019369718
 20
179.18601817037356
 11
289.56613320648637
 21
178.93950450350869
  0
LINE
  8
_0-1_
  6
CONTINUOUS
 62
    7
 10
289.56613320648637
 20
178.93950450350869
 11
290.01954476337835
 21
178.73954258217779
  0
LINE
  8
_0-1_
  6
CONTINUOUS
 62
    7
 10
290.01954476337835
 20
178.73954258217779
 11
290.52119818365441
 21
178.59220814817488
  0
LINE
  8
_0-1_
  6
CONTINUOUS
 62
    7
 10
290.52119818365441
 20
178.59220814817488
 11
291.05585098198821
 21
178.50197788372228
  0
LINE
  8
_0-1_
  6
CONTINUOUS
 62
    7
 10
291.05585098198821
 20
178.50197788372228
 11
291.60725800364969
 21
178.47159338974669
  0
LINE
  8
_0-1_
  6
CONTINUOUS
 62
    7
 10
291.60725800364969
 20
178.47159338974669
 11
292.15866502531117
 21
178.50197788372228
  0
LINE
  8
_0-1_
  6
CONTINUOUS
 62
    7
 10
292.15866502531117
 20
178.50197788372228
 11
292.69331782364497
 21
178.59220814817488
  0
LINE
  8
_0-1_
  6
CONTINUOUS
 62
    7
 10
292.69331782364497
 20
178.59220814817488
 11
293.19497124392092
 21
178.73954258217779
  0
LINE
  8
_0-1_
  6
CONTINUOUS
 62
    7
 10
293.19497124392092
 20
178.73954258217779
 11
293.64838280081301
 21
178.93950450350869
  0
LINE
  8
_0-1_
  6
CONTINUOUS
 62
    7
 10
293.64838280081301
 20
178.93950450350869
 11
294.0397758136022
 21
179.18601817037356
  0
LINE
  8
_0-1_
  6
CONTINUOUS
 62
    7
 10
294.0397758136022
 20
179.18601817037356
 11
294.35725800364935
 21
179.47159338974663
  0
LINE
  8
_0-1_
  6
CONTINUOUS
 62
    7
 10
294.35725800364935
 20
179.47159338974663
 11
294.59118283526368
 21
179.78755310309529
  0
LINE
  8
_0-1_
  6
CONTINUOUS
 62
    7
 10
294.59118283526368
 20
179.78755310309529
 11
294.7344426208083
 21
180.12429703441276
  0
LINE
  8
_0-1_
  6
CONTINUOUS
 62
    7
 10
294.7344426208083
 20
180.12429703441276
 11
294.78268448419226
 21
180.47159338974657
  0
LINE
  8
_0-1_
  6
CONTINUOUS
 62
    7
 10
294.78268448419226
 20
180.47159338974657
 11
294.78268448419226
 21
180.4715935333754
  0
LINE
  8
_0-1_
  6
CONTINUOUS
 62
    7
 10
294.78268448419226
 20
180.4715935333754
 11
294.87916813174581
 21
180.12429717585954
  0
LINE
  8
_0-1_
  6
CONTINUOUS
 62
    7
 10
294.87916813174581
 20
180.12429717585954
 11
295.16568762599445
 21
179.7875532380622
  0
LINE
  8
_0-1_
  6
CONTINUOUS
 62
    7
 10
295.16568762599445
 20
179.7875532380622
 11
295.63353721709132
 21
179.47159351413282
  0
LINE
  8
_0-1_
  6
CONTINUOUS
 62
    7
 10
295.63353721709132
 20
179.47159351413282
 11
296.26850153195426
 21
179.18601828039962
  0
LINE
  8
_0-1_
  6
CONTINUOUS
 62
    7
 10
296.26850153195426
 20
179.18601828039962
 11
297.05128750118354
 21
178.93950459583155
  0
LINE
  8
_0-1_
  6
CONTINUOUS
 62
    7
 10
297.05128750118354
 20
178.93950459583155
 11
297.95811056921298
 21
178.73954265399223
  0
LINE
  8
_0-1_
  6
CONTINUOUS
 62
    7
 10
297.95811056921298
 20
178.73954265399223
 11
298.96141737599521
 21
178.59220819729879
  0
LINE
  8
_0-1_
  6
CONTINUOUS
 62
    7
 10
298.96141737599521
 20
178.59220819729879
 11
300.03072295190373
 21
178.50197790866318
  0
LINE
  8
_0-1_
  6
CONTINUOUS
 62
    7
 10
300.03072295190373
 20
178.50197790866318
 11
301.13353698810943
 21
178.47159338974669
  0
LINE
  8
_0-1_
  6
CONTINUOUS
 62
    7
 10
301.13353698810943
 20
178.47159338974669
 11
302.23635103817298
 21
178.50197785878137
  0
LINE
  8
_0-1_
  6
CONTINUOUS
 62
    7
 10
302.23635103817298
 20
178.50197785878137
 11
303.30565665523409
 21
178.59220809905091
  0
LINE
  8
_0-1_
  6
CONTINUOUS
 62
    7
 10
303.30565665523409
 20
178.59220809905091
 11
304.30896352921297
 21
178.73954251036341
  0
LINE
  8
_0-1_
  6
CONTINUOUS
 62
    7
 10
304.30896352921297
 20
178.73954251036341
 11
305.21578668844165
 21
178.93950441118588
  0
LINE
  8
_0-1_
  6
CONTINUOUS
 62
    7
 10
305.21578668844165
 20
178.93950441118588
 11
305.99857277010165
 21
179.18601806034749
  0
LINE
  8
_0-1_
  6
CONTINUOUS
 62
    7
 10
305.99857277010165
 20
179.18601806034749
 11
306.63353721521048
 21
179.47159326536044
  0
LINE
  8
_0-1_
  6
CONTINUOUS
 62
    7
 10
306.63353721521048
 20
179.47159326536044
 11
307.1013869504111
 21
179.78755296812832
  0
LINE
  8
_0-1_
  6
CONTINUOUS
 62
    7
 10
307.1013869504111
 20
179.78755296812832
 11
307.38790659824281
 21
180.12429689296593
  0
LINE
  8
_0-1_
  6
CONTINUOUS
 62
    7
 10
307.38790659824281
 20
180.12429689296593
 11
307.48439040419225
 21
180.47159324611775
  0
LINE
  8
_0-1_
  6
CONTINUOUS
 62
    7
 10
307.48439040419225
 20
180.47159324611775
 11
307.48439040419225
 21
180.47159338974657
  0
LINE
  8
_0-1_
  6
CONTINUOUS
 62
    7
 10
307.48439040636367
 20
180.4715935333754
 11
307.53263223014869
 21
180.12429717585954
  0
LINE
  8
_0-1_
  6
CONTINUOUS
 62
    7
 10
307.53263223014869
 20
180.12429717585954
 11
307.67589197729751
 21
179.7875532380622
  0
LINE
  8
_0-1_
  6
CONTINUOUS
 62
    7
 10
307.67589197729751
 20
179.7875532380622
 11
307.90981677288585
 21
179.47159351413282
  0
LINE
  8
_0-1_
  6
CONTINUOUS
 62
    7
 10
307.90981677288585
 20
179.47159351413282
 11
308.2272989303716
 21
179.18601828039962
  0
LINE
  8
_0-1_
  6
CONTINUOUS
 62
    7
 10
308.2272989303716
 20
179.18601828039962
 11
308.61869191505309
 21
178.93950459583155
  0
LINE
  8
_0-1_
  6
CONTINUOUS
 62
    7
 10
308.61869191505309
 20
178.93950459583155
 11
309.07210344914529
 21
178.73954265399223
  0
LINE
  8
_0-1_
  6
CONTINUOUS
 62
    7
 10
309.07210344914529
 20
178.73954265399223
 11
309.57375685262218
 21
178.59220819729879
  0
LINE
  8
_0-1_
  6
CONTINUOUS
 62
    7
 10
309.57375685262218
 20
178.59220819729879
 11
310.10840964066779
 21
178.50197790866318
  0
LINE
  8
_0-1_
  6
CONTINUOUS
 62
    7
 10
310.10840964066779
 20
178.50197790866318
 11
310.65981665886488
 21
178.47159338974669
  0
LINE
  8
_0-1_
  6
CONTINUOUS
 62
    7
 10
310.65981665886488
 20
178.47159338974669
 11
311.21122368399085
 21
178.50197785878137
  0
LINE
  8
_0-1_
  6
CONTINUOUS
 62
    7
 10
311.21122368399085
 20
178.50197785878137
 11
311.74587649261275
 21
178.59220809905091
  0
LINE
  8
_0-1_
  6
CONTINUOUS
 62
    7
 10
311.74587649261275
 20
178.59220809905091
 11
312.24752992968786
 21
178.73954251036341
  0
LINE
  8
_0-1_
  6
CONTINUOUS
 62
    7
 10
312.24752992968786
 20
178.73954251036341
 11
312.70094150937973
 21
178.93950441118588
  0
LINE
  8
_0-1_
  6
CONTINUOUS
 62
    7
 10
312.70094150937973
 20
178.93950441118588
 11
313.09233455027652
 21
179.18601806034749
  0
LINE
  8
_0-1_
  6
CONTINUOUS
 62
    7
 10
313.09233455027652
 20
179.18601806034749
 11
313.40981677288516
 21
179.47159326536044
  0
LINE
  8
_0-1_
  6
CONTINUOUS
 62
    7
 10
313.40981677288516
 20
179.47159326536044
 11
313.64374164052549
 21
179.78755296812832
  0
LINE
  8
_0-1_
  6
CONTINUOUS
 62
    7
 10
313.64374164052549
 20
179.78755296812832
 11
313.7870014644659
 21
180.12429689296593
  0
LINE
  8
_0-1_
  6
CONTINUOUS
 62
    7
 10
313.7870014644659
 20
180.12429689296593
 11
313.83524336744881
 21
180.47159324611775
  0
LINE
  8
_0-1_
  6
CONTINUOUS
 62
    7
 10
313.83524336744881
 20
180.47159324611775
 11
313.83524336744881
 21
180.47159338974657
  0
LINE
  8
_0-1_
  6
CONTINUOUS
 62
  152
 10
326.13353744527797
 20
175.07159338974671
 11
276.13353744527797
 21
175.07159338974671
  0
LINE
  8
_0-1_
  6
CONTINUOUS
 62
    7
 10
275.88353744527819
 20
167.27159338974673
 11
275.88353744527819
 21
164.27159338974661
  0
LINE
  8
_0-1_
  6
CONTINUOUS
 62
    7
 10
275.88353744527819
 20
164.27159338974661
 11
326.38353744527774
 21
164.27159338974661
  0
LINE
  8
_0-1_
  6
CONTINUOUS
 62
    7
 10
326.38353744527774
 20
164.27159338974661
 11
326.38353744527774
 21
167.27159338974673
  0
LINE
  8
_0-1_
  6
CONTINUOUS
 62
    7
 10
326.38353744527774
 20
167.27159338974673
 11
275.88353744527819
 21
167.27159338974673
  0
LINE
  8
_0-1_
  6
CONTINUOUS
 62
    7
 10
277.83353744527813
 20
164.27159338974661
 11
277.83353744527813
 21
161.2715933897465
  0
LINE
  8
_0-1_
  6
CONTINUOUS
 62
    7
 10
277.83353744527813
 20
161.2715933897465
 11
324.43353744527838
 21
161.2715933897465
  0
LINE
  8
_0-1_
  6
CONTINUOUS
 62
    7
 10
324.43353744527838
 20
161.2715933897465
 11
324.43353744527838
 21
164.27159338974661
  0
LINE
  8
_0-1_
  6
CONTINUOUS
 62
    7
 10
319.13353744527808
 20
178.47159338974669
 11
283.13353744527785
 21
178.47159338974669
  0
LINE
  8
_0-1_
  6
CONTINUOUS
 62
    7
 10
283.13353744527785
 20
178.47159338974669
 11
283.13353744527785
 21
178.07159338974648
  0
LINE
  8
_0-1_
  6
CONTINUOUS
 62
    7
 10
279.13353744527808
 20
178.07159338974648
 11
323.13353744498284
 21
178.07159338974648
  0
LINE
  8
_0-1_
  6
CONTINUOUS
 62
    7
 10
276.13353744527797
 20
175.07159338974671
 11
276.13353744527797
 21
167.27159338974673
  0
LINE
  8
_0-1_
  6
CONTINUOUS
 62
    7
 10
326.13353744527797
 20
167.27159338974673
 11
326.13353744527797
 21
175.07159338974671
  0
ARC
  8
_0-1_
  6
CONTINUOUS
 62
    7
 10
279.13353744527808
 20
175.07159338974671
 40
2.9999999999999858
 50
89.999999999999829
 51
180.0000000000002
  0
ARC
  8
_0-1_
  6
CONTINUOUS
 62
    7
 10
323.13353744527785
 20
175.07159338974671
 40
2.9999999999999933
 50
359.99999999999977
 51
90.000000000000199
  0
LINE
  8
_0-1_
  6
CONTINUOUS
 62
  152
 10
293.13353741049593
 20
190.57159338974648
 11
309.13353741049616
 21
190.57159338974648
  0
LINE
  8
_0-1_
  6
CONTINUOUS
 62
  152
 10
294.03353754059594
 20
190.57159338974648
 11
293.13353741049593
 21
190.05197807236257
  0
LINE
  8
_0-1_
  6
CONTINUOUS
 62
  152
 10
308.23353734989621
 20
190.57159338974648
 11
309.13353741049616
 21
190.0519781124884
  0
LINE
  8
_0-1_
  6
CONTINUOUS
 62
  152
 10
293.13353741049593
 20
260.37159338974612
 11
309.13353741049616
 21
260.37159338974612
  0
LINE
  8
_0-1_
  6
CONTINUOUS
 62
    7
 10
308.23353741049584
 20
261.27159338974644
 11
294.03353741049625
 21
261.27159338974644
  0
LINE
  8
_0-1_
  6
CONTINUOUS
 62
    7
 10
294.03353741049625
 20
261.27159338974644
 11
293.13353741049593
 21
260.37159338974612
  0
LINE
  8
_0-1_
  6
CONTINUOUS
 62
    7
 10
309.13353741049616
 20
260.37159338974612
 11
308.23353741049584
 21
261.27159338974644
  0
LINE
  8
_0-1_
  6
CONTINUOUS
 62
    7
 10
287.85448125391679
 20
214.27159338974661
 11
287.85448125391679
 21
209.57159338974634
  0
LINE
  8
_0-1_
  6
CONTINUOUS
 62
    7
 10
291.17424530175708
 20
207.57159338974645
 11
311.09282958879885
 21
207.57159338974645
  0
LINE
  8
_0-1_
  6
CONTINUOUS
 62
    7
 10
307.77306554095856
 20
209.57159338974634
 11
307.77306554095856
 21
214.27159338974661
  0
LINE
  8
_0-1_
  6
CONTINUOUS
 62
    7
 10
311.09282958879885
 20
216.2715933897465
 11
291.17424530175708
 21
216.2715933897465
  0
LINE
  8
_0-1_
  6
CONTINUOUS
 62
    7
 10
294.49400934959738
 20
214.27159338974661
 11
294.49400934959738
 21
209.57159338974634
  0
LINE
  8
_0-1_
  6
CONTINUOUS
 62
    7
 10
314.41259363663914
 20
209.57159338974634
 11
314.41259363663914
 21
214.27159338974661
  0
LINE
  8
_0-1_
  6
CONTINUOUS
 62
    7
 10
287.85448125391679
 20
209.57159338974634
 11
287.90491592927276
 21
209.22429703441253
  0
LINE
  8
_0-1_
  6
CONTINUOUS
 62
    7
 10
287.90491592927276
 20
209.22429703441253
 11
288.05468752325123
 21
208.887553103095
  0
LINE
  8
_0-1_
  6
CONTINUOUS
 62
    7
 10
288.05468752325123
 20
208.887553103095
 11
288.29924530175708
 21
208.5715933897464
  0
LINE
  8
_0-1_
  6
CONTINUOUS
 62
    7
 10
288.29924530175708
 20
208.5715933897464
 11
288.63115850044289
 21
208.28601817037332
  0
LINE
  8
_0-1_
  6
CONTINUOUS
 62
    7
 10
288.63115850044289
 20
208.28601817037332
 11
289.04034210472253
 21
208.03950450350851
  0
LINE
  8
_0-1_
  6
CONTINUOUS
 62
    7
 10
289.04034210472253
 20
208.03950450350851
 11
289.51436327783688
 21
207.83954258217756
  0
LINE
  8
_0-1_
  6
CONTINUOUS
 62
    7
 10
289.51436327783688
 20
207.83954258217756
 11
290.03881912630732
 21
207.69220814817464
  0
LINE
  8
_0-1_
  6
CONTINUOUS
 62
    7
 10
290.03881912630732
 20
207.69220814817464
 11
290.59777432456542
 21
207.60197788372204
  0
LINE
  8
_0-1_
  6
CONTINUOUS
 62
    7
 10
290.59777432456542
 20
207.60197788372204
 11
291.17424530175708
 21
207.57159338974645
  0
LINE
  8
_0-1_
  6
CONTINUOUS
 62
    7
 10
291.17424530175708
 20
207.57159338974645
 11
291.75071627894874
 21
207.60197788372204
  0
LINE
  8
_0-1_
  6
CONTINUOUS
 62
    7
 10
291.75071627894874
 20
207.60197788372204
 11
292.30967147720685
 21
207.69220814817464
  0
LINE
  8
_0-1_
  6
CONTINUOUS
 62
    7
 10
292.30967147720685
 20
207.69220814817464
 11
292.83412732567717
 21
207.83954258217756
  0
LINE
  8
_0-1_
  6
CONTINUOUS
 62
    7
 10
292.83412732567717
 20
207.83954258217756
 11
293.30814849879164
 21
208.03950450350851
  0
LINE
  8
_0-1_
  6
CONTINUOUS
 62
    7
 10
293.30814849879164
 20
208.03950450350851
 11
293.71733210307127
 21
208.28601817037332
  0
LINE
  8
_0-1_
  6
CONTINUOUS
 62
    7
 10
293.71733210307127
 20
208.28601817037332
 11
294.04924530175708
 21
208.5715933897464
  0
LINE
  8
_0-1_
  6
CONTINUOUS
 62
    7
 10
294.04924530175708
 20
208.5715933897464
 11
294.29380308026293
 21
208.887553103095
  0
LINE
  8
_0-1_
  6
CONTINUOUS
 62
    7
 10
294.29380308026293
 20
208.887553103095
 11
294.4435746742414
 21
209.22429703441253
  0
LINE
  8
_0-1_
  6
CONTINUOUS
 62
    7
 10
294.4435746742414
 20
209.22429703441253
 11
294.49400934959738
 21
209.57159332550162
  0
LINE
  8
_0-1_
  6
CONTINUOUS
 62
    7
 10
294.49400934959738
 20
209.57159338974634
 11
294.59487870030932
 21
209.22429703441253
  0
LINE
  8
_0-1_
  6
CONTINUOUS
 62
    7
 10
294.59487870030932
 20
209.22429703441253
 11
294.89442188826615
 21
208.887553103095
  0
LINE
  8
_0-1_
  6
CONTINUOUS
 62
    7
 10
294.89442188826615
 20
208.887553103095
 11
295.38353744527808
 21
208.5715933897464
  0
LINE
  8
_0-1_
  6
CONTINUOUS
 62
    7
 10
295.38353744527808
 20
208.5715933897464
 11
296.04736384264947
 21
208.28601817037332
  0
LINE
  8
_0-1_
  6
CONTINUOUS
 62
    7
 10
296.04736384264947
 20
208.28601817037332
 11
296.86573105120885
 21
208.03950450350851
  0
LINE
  8
_0-1_
  6
CONTINUOUS
 62
    7
 10
296.86573105120885
 20
208.03950450350851
 11
297.81377339743767
 21
207.83954258217756
  0
LINE
  8
_0-1_
  6
CONTINUOUS
 62
    7
 10
297.81377339743767
 20
207.83954258217756
 11
298.86268509437843
 21
207.69220814817464
  0
LINE
  8
_0-1_
  6
CONTINUOUS
 62
    7
 10
298.86268509437843
 20
207.69220814817464
 11
299.98059549089464
 21
207.60197788372204
  0
LINE
  8
_0-1_
  6
CONTINUOUS
 62
    7
 10
299.98059549089464
 20
207.60197788372204
 11
301.13353744527797
 21
207.57159338974645
  0
LINE
  8
_0-1_
  6
CONTINUOUS
 62
    7
 10
301.13353744527797
 20
207.57159338974645
 11
302.28647939966129
 21
207.60197788372204
  0
LINE
  8
_0-1_
  6
CONTINUOUS
 62
    7
 10
302.28647939966129
 20
207.60197788372204
 11
303.4043897961775
 21
207.69220814817464
  0
LINE
  8
_0-1_
  6
CONTINUOUS
 62
    7
 10
303.4043897961775
 20
207.69220814817464
 11
304.45330149311826
 21
207.83954258217756
  0
LINE
  8
_0-1_
  6
CONTINUOUS
 62
    7
 10
304.45330149311826
 20
207.83954258217756
 11
305.40134383934708
 21
208.03950450350851
  0
LINE
  8
_0-1_
  6
CONTINUOUS
 62
    7
 10
305.40134383934708
 20
208.03950450350851
 11
306.21971104790646
 21
208.28601817037332
  0
LINE
  8
_0-1_
  6
CONTINUOUS
 62
    7
 10
306.21971104790646
 20
208.28601817037332
 11
306.88353744527785
 21
208.5715933897464
  0
LINE
  8
_0-1_
  6
CONTINUOUS
 62
    7
 10
306.88353744527785
 20
208.5715933897464
 11
307.37265300228978
 21
208.887553103095
  0
LINE
  8
_0-1_
  6
CONTINUOUS
 62
    7
 10
307.37265300228978
 20
208.887553103095
 11
307.67219619024661
 21
209.22429703441253
  0
LINE
  8
_0-1_
  6
CONTINUOUS
 62
    7
 10
307.67219619024661
 20
209.22429703441253
 11
307.77306554095856
 21
209.57159338974634
  0
LINE
  8
_0-1_
  6
CONTINUOUS
 62
    7
 10
307.77306554095856
 20
209.57159332550162
 11
307.82350023483218
 21
209.22429697114381
  0
LINE
  8
_0-1_
  6
CONTINUOUS
 62
    7
 10
307.82350023483218
 20
209.22429697114381
 11
307.97327184676556
 21
208.88755304272479
  0
LINE
  8
_0-1_
  6
CONTINUOUS
 62
    7
 10
307.97327184676556
 20
208.88755304272479
 11
308.2178296421182
 21
208.57159333410885
  0
LINE
  8
_0-1_
  6
CONTINUOUS
 62
    7
 10
308.2178296421182
 20
208.57159333410885
 11
308.54974285603066
 21
208.28601812115903
  0
LINE
  8
_0-1_
  6
CONTINUOUS
 62
    7
 10
308.54974285603066
 20
208.28601812115903
 11
308.9589264734542
 21
208.03950446221279
  0
LINE
  8
_0-1_
  6
CONTINUOUS
 62
    7
 10
308.9589264734542
 20
208.03950446221279
 11
309.43294765723044
 21
207.83954255005517
  0
LINE
  8
_0-1_
  6
CONTINUOUS
 62
    7
 10
309.43294765723044
 20
207.83954255005517
 11
309.95740351355664
 21
207.69220812620165
  0
LINE
  8
_0-1_
  6
CONTINUOUS
 62
    7
 10
309.95740351355664
 20
207.69220812620165
 11
310.51635871662575
 21
207.60197787256607
  0
LINE
  8
_0-1_
  6
CONTINUOUS
 62
    7
 10
310.51635871662575
 20
207.60197787256607
 11
311.09282969543744
 21
207.57159338974645
  0
LINE
  8
_0-1_
  6
CONTINUOUS
 62
    7
 10
311.09282969543744
 20
207.57159338974645
 11
311.66930067100907
 21
207.60197789487802
  0
LINE
  8
_0-1_
  6
CONTINUOUS
 62
    7
 10
311.66930067100907
 20
207.60197789487802
 11
312.22825586445617
 21
207.69220817014764
  0
LINE
  8
_0-1_
  6
CONTINUOUS
 62
    7
 10
312.22825586445617
 20
207.69220817014764
 11
312.75271170507074
 21
207.83954261429994
  0
LINE
  8
_0-1_
  6
CONTINUOUS
 62
    7
 10
312.75271170507074
 20
207.83954261429994
 11
313.22673286752331
 21
208.03950454480417
  0
LINE
  8
_0-1_
  6
CONTINUOUS
 62
    7
 10
313.22673286752331
 20
208.03950454480417
 11
313.63591645865904
 21
208.28601821958762
  0
LINE
  8
_0-1_
  6
CONTINUOUS
 62
    7
 10
313.63591645865904
 20
208.28601821958762
 11
313.96782964211809
 21
208.57159344538394
  0
LINE
  8
_0-1_
  6
CONTINUOUS
 62
    7
 10
313.96782964211809
 20
208.57159344538394
 11
314.21238740377726
 21
208.88755316346533
  0
LINE
  8
_0-1_
  6
CONTINUOUS
 62
    7
 10
314.21238740377726
 20
208.88755316346533
 11
314.36215897980071
 21
209.22429709768119
  0
LINE
  8
_0-1_
  6
CONTINUOUS
 62
    7
 10
314.36215897980071
 20
209.22429709768119
 11
314.41259363663914
 21
209.57159338974634
  0
LINE
  8
_0-1_
  6
CONTINUOUS
 62
    7
 10
307.77306554095856
 20
214.27159338974661
 11
307.67219619024661
 21
214.61888974508042
  0
LINE
  8
_0-1_
  6
CONTINUOUS
 62
    7
 10
307.67219619024661
 20
214.61888974508042
 11
307.37265300228978
 21
214.95563367639795
  0
LINE
  8
_0-1_
  6
CONTINUOUS
 62
    7
 10
307.37265300228978
 20
214.95563367639795
 11
306.88353744527785
 21
215.27159338974656
  0
LINE
  8
_0-1_
  6
CONTINUOUS
 62
    7
 10
306.88353744527785
 20
215.27159338974656
 11
306.21971104790646
 21
215.55716860911963
  0
LINE
  8
_0-1_
  6
CONTINUOUS
 62
    7
 10
306.21971104790646
 20
215.55716860911963
 11
305.40134383934708
 21
215.80368227598444
  0
LINE
  8
_0-1_
  6
CONTINUOUS
 62
    7
 10
305.40134383934708
 20
215.80368227598444
 11
304.45330149311826
 21
216.0036441973154
  0
LINE
  8
_0-1_
  6
CONTINUOUS
 62
    7
 10
304.45330149311826
 20
216.0036441973154
 11
303.4043897961775
 21
216.15097863131831
  0
LINE
  8
_0-1_
  6
CONTINUOUS
 62
    7
 10
303.4043897961775
 20
216.15097863131831
 11
302.28647939966129
 21
216.24120889577091
  0
LINE
  8
_0-1_
  6
CONTINUOUS
 62
    7
 10
302.28647939966129
 20
216.24120889577091
 11
301.13353744527797
 21
216.2715933897465
  0
LINE
  8
_0-1_
  6
CONTINUOUS
 62
    7
 10
301.13353744527797
 20
216.2715933897465
 11
299.98059549089464
 21
216.24120889577091
  0
LINE
  8
_0-1_
  6
CONTINUOUS
 62
    7
 10
299.98059549089464
 20
216.24120889577091
 11
298.86268509437843
 21
216.15097863131831
  0
LINE
  8
_0-1_
  6
CONTINUOUS
 62
    7
 10
298.86268509437843
 20
216.15097863131831
 11
297.81377339743767
 21
216.0036441973154
  0
LINE
  8
_0-1_
  6
CONTINUOUS
 62
    7
 10
297.81377339743767
 20
216.0036441973154
 11
296.86573105120885
 21
215.80368227598444
  0
LINE
  8
_0-1_
  6
CONTINUOUS
 62
    7
 10
296.86573105120885
 20
215.80368227598444
 11
296.04736384264947
 21
215.55716860911963
  0
LINE
  8
_0-1_
  6
CONTINUOUS
 62
    7
 10
296.04736384264947
 20
215.55716860911963
 11
295.38353744527808
 21
215.27159338974656
  0
LINE
  8
_0-1_
  6
CONTINUOUS
 62
    7
 10
295.38353744527808
 20
215.27159338974656
 11
294.89442188826615
 21
214.95563367639795
  0
LINE
  8
_0-1_
  6
CONTINUOUS
 62
    7
 10
294.89442188826615
 20
214.95563367639795
 11
294.59487870030932
 21
214.61888974508042
  0
LINE
  8
_0-1_
  6
CONTINUOUS
 62
    7
 10
294.59487870030932
 20
214.61888974508042
 11
294.49400934959738
 21
214.27159338974661
  0
LINE
  8
_0-1_
  6
CONTINUOUS
 62
    7
 10
314.41259363663914
 20
214.27159338974661
 11
314.36215896128317
 21
214.61888974508042
  0
LINE
  8
_0-1_
  6
CONTINUOUS
 62
    7
 10
314.36215896128317
 20
214.61888974508042
 11
314.2123873673047
 21
214.95563367639795
  0
LINE
  8
_0-1_
  6
CONTINUOUS
 62
    7
 10
314.2123873673047
 20
214.95563367639795
 11
313.96782958879885
 21
215.27159338974656
  0
LINE
  8
_0-1_
  6
CONTINUOUS
 62
    7
 10
313.96782958879885
 20
215.27159338974656
 11
313.63591639011304
 21
215.55716860911963
  0
LINE
  8
_0-1_
  6
CONTINUOUS
 62
    7
 10
313.63591639011304
 20
215.55716860911963
 11
313.22673278583341
 21
215.80368227598444
  0
LINE
  8
_0-1_
  6
CONTINUOUS
 62
    7
 10
313.22673278583341
 20
215.80368227598444
 11
312.75271161271905
 21
216.0036441973154
  0
LINE
  8
_0-1_
  6
CONTINUOUS
 62
    7
 10
312.75271161271905
 20
216.0036441973154
 11
312.22825576424862
 21
216.15097863131831
  0
LINE
  8
_0-1_
  6
CONTINUOUS
 62
    7
 10
312.22825576424862
 20
216.15097863131831
 11
311.66930056599051
 21
216.24120889577091
  0
LINE
  8
_0-1_
  6
CONTINUOUS
 62
    7
 10
311.66930056599051
 20
216.24120889577091
 11
311.09282958879885
 21
216.2715933897465
  0
LINE
  8
_0-1_
  6
CONTINUOUS
 62
    7
 10
311.09282958879885
 20
216.2715933897465
 11
310.51635861160719
 21
216.24120889577091
  0
LINE
  8
_0-1_
  6
CONTINUOUS
 62
    7
 10
310.51635861160719
 20
216.24120889577091
 11
309.95740341334908
 21
216.15097863131831
  0
LINE
  8
_0-1_
  6
CONTINUOUS
 62
    7
 10
309.95740341334908
 20
216.15097863131831
 11
309.43294756487876
 21
216.0036441973154
  0
LINE
  8
_0-1_
  6
CONTINUOUS
 62
    7
 10
309.43294756487876
 20
216.0036441973154
 11
308.95892639176429
 21
215.80368227598444
  0
LINE
  8
_0-1_
  6
CONTINUOUS
 62
    7
 10
308.95892639176429
 20
215.80368227598444
 11
308.54974278748466
 21
215.55716860911963
  0
LINE
  8
_0-1_
  6
CONTINUOUS
 62
    7
 10
308.54974278748466
 20
215.55716860911963
 11
308.21782958879885
 21
215.27159338974656
  0
LINE
  8
_0-1_
  6
CONTINUOUS
 62
    7
 10
308.21782958879885
 20
215.27159338974656
 11
307.973271810293
 21
214.95563367639795
  0
LINE
  8
_0-1_
  6
CONTINUOUS
 62
    7
 10
307.973271810293
 20
214.95563367639795
 11
307.82350021631453
 21
214.61888974508042
  0
LINE
  8
_0-1_
  6
CONTINUOUS
 62
    7
 10
307.82350021631453
 20
214.61888974508042
 11
307.77306554095856
 21
214.27159345399133
  0
LINE
  8
_0-1_
  6
CONTINUOUS
 62
    7
 10
294.49400934959738
 20
214.27159345399133
 11
294.44357465572375
 21
214.61888980834914
  0
LINE
  8
_0-1_
  6
CONTINUOUS
 62
    7
 10
294.44357465572375
 20
214.61888980834914
 11
294.29380304379038
 21
214.95563373676816
  0
LINE
  8
_0-1_
  6
CONTINUOUS
 62
    7
 10
294.29380304379038
 20
214.95563373676816
 11
294.04924524843773
 21
215.2715934453841
  0
LINE
  8
_0-1_
  6
CONTINUOUS
 62
    7
 10
294.04924524843773
 20
215.2715934453841
 11
293.71733203452527
 21
215.55716865833392
  0
LINE
  8
_0-1_
  6
CONTINUOUS
 62
    7
 10
293.71733203452527
 20
215.55716865833392
 11
293.30814841710173
 21
215.80368231728016
  0
LINE
  8
_0-1_
  6
CONTINUOUS
 62
    7
 10
293.30814841710173
 20
215.80368231728016
 11
292.83412723332549
 21
216.00364422943778
  0
LINE
  8
_0-1_
  6
CONTINUOUS
 62
    7
 10
292.83412723332549
 20
216.00364422943778
 11
292.30967137699929
 21
216.1509786532913
  0
LINE
  8
_0-1_
  6
CONTINUOUS
 62
    7
 10
292.30967137699929
 20
216.1509786532913
 11
291.75071617393019
 21
216.24120890692689
  0
LINE
  8
_0-1_
  6
CONTINUOUS
 62
    7
 10
291.75071617393019
 20
216.24120890692689
 11
291.17424519511849
 21
216.2715933897465
  0
LINE
  8
_0-1_
  6
CONTINUOUS
 62
    7
 10
291.17424519511849
 20
216.2715933897465
 11
290.59777421954686
 21
216.24120888461493
  0
LINE
  8
_0-1_
  6
CONTINUOUS
 62
    7
 10
290.59777421954686
 20
216.24120888461493
 11
290.03881902609976
 21
216.15097860934532
  0
LINE
  8
_0-1_
  6
CONTINUOUS
 62
    7
 10
290.03881902609976
 20
216.15097860934532
 11
289.51436318548519
 21
216.00364416519301
  0
LINE
  8
_0-1_
  6
CONTINUOUS
 62
    7
 10
289.51436318548519
 20
216.00364416519301
 11
289.04034202303262
 21
215.80368223468878
  0
LINE
  8
_0-1_
  6
CONTINUOUS
 62
    7
 10
289.04034202303262
 20
215.80368223468878
 11
288.63115843189689
 21
215.55716855990534
  0
LINE
  8
_0-1_
  6
CONTINUOUS
 62
    7
 10
288.63115843189689
 20
215.55716855990534
 11
288.29924524843784
 21
215.27159333410901
  0
LINE
  8
_0-1_
  6
CONTINUOUS
 62
    7
 10
288.29924524843784
 20
215.27159333410901
 11
288.05468748677868
 21
214.95563361602763
  0
LINE
  8
_0-1_
  6
CONTINUOUS
 62
    7
 10
288.05468748677868
 20
214.95563361602763
 11
287.90491591075522
 21
214.61888968181177
  0
LINE
  8
_0-1_
  6
CONTINUOUS
 62
    7
 10
287.90491591075522
 20
214.61888968181177
 11
287.85448125391679
 21
214.27159338974661
  0
LINE
  8
_0-1_
  6
CONTINUOUS
 62
    7
 10
309.13353741049616
 20
207.57159338974645
 11
309.13353741049616
 21
188.27159338974647
  0
LINE
  8
_0-1_
  6
CONTINUOUS
 62
    7
 10
293.13353741049593
 20
188.27159338974647
 11
293.13353741049593
 21
207.57159338974645
  0
LINE
  8
_0-1_
  6
CONTINUOUS
 62
  152
 10
294.03353754059594
 20
207.57159338974645
 11
294.03353754059594
 21
190.57159338974648
  0
LINE
  8
_0-1_
  6
CONTINUOUS
 62
  152
 10
308.23353734989621
 20
190.57159338974648
 11
308.23353734989621
 21
207.57159338974645
  0
LINE
  8
_0-9_
  6
PHANTOM1
 62
  152
 10
293.13353741049593
 20
279.67159338974614
 11
309.13353741049616
 21
279.67159338974614
  0
LINE
  8
_0-9_
  6
PHANTOM1
 62
  152
 10
308.23353741049584
 20
280.57159338974645
 11
294.03353741049625
 21
280.57159338974645
  0
LINE
  8
_0-9_
  6
PHANTOM1
 62
  152
 10
294.03353741049625
 20
280.57159338974645
 11
293.13353741049593
 21
279.67159338974614
  0
LINE
  8
_0-9_
  6
PHANTOM1
 62
  152
 10
309.13353741049616
 20
279.67159338974614
 11
308.23353741049584
 21
280.57159338974645
  0
LINE
  8
_0-9_
  6
PHANTOM1
 62
  152
 10
294.03353754059594
 20
268.66138706561799
 11
294.03353754059594
 21
280.57159351984615
  0
LINE
  8
_0-9_
  6
PHANTOM1
 62
  152
 10
308.23353734989621
 20
268.66138706561799
 11
308.23353734989621
 21
280.57159345034609
  0
LINE
  8
_0-9_
  6
PHANTOM1
 62
  152
 10
293.13353741049593
 20
279.67159338974614
 11
293.13353741049593
 21
268.66138706561799
  0
LINE
  8
_0-9_
  6
PHANTOM1
 62
  152
 10
309.13353741049616
 20
279.67159338974614
 11
309.13353741049616
 21
268.66138706561799
  0
LINE
  8
_0-1_
  6
CENTER1
 62
  152
 10
301.13353744527797
 20
138.7715933897465
 11
301.13353744527797
 21
283.85980032720312
  0
LINE
  8
_0-9_
  6
PHANTOM1
 62
  152
 10
275.88353744527819
 20
142.27159338974678
 11
275.88353744527819
 21
139.27159338974667
  0
LINE
  8
_0-9_
  6
PHANTOM1
 62
  152
 10
326.38353744527774
 20
139.27159338974667
 11
326.38353744527774
 21
142.27159338974678
  0
LINE
  8
_0-9_
  6
PHANTOM1
 62
  152
 10
277.83353744527813
 20
139.27159338974667
 11
277.83353744527813
 21
136.27159338974656
  0
LINE
  8
_0-9_
  6
PHANTOM1
 62
  152
 10
277.83353744527813
 20
136.27159338974656
 11
324.43353744527838
 21
136.27159338974656
  0
LINE
  8
_0-9_
  6
PHANTOM1
 62
  152
 10
324.43353744527838
 20
136.27159338974656
 11
324.43353744527838
 21
139.27159338974667
  0
LINE
  8
_0-9_
  6
PHANTOM1
 62
  152
 10
276.13353744527797
 20
150.07159338974679
 11
276.13353744527797
 21
142.27159338974678
  0
LINE
  8
_0-9_
  6
PHANTOM1
 62
  152
 10
326.13353744527797
 20
142.27159338974678
 11
326.13353744527797
 21
150.07159338974679
  0
ARC
  8
_0-9_
  6
PHANTOM1
 62
  152
 10
323.13353744527785
 20
150.07159338974679
 40
2.9999999999999933
 50
359.99999999999977
 51
90.000000000000199
  0
ARC
  8
_0-9_
  6
PHANTOM1
 62
  152
 10
279.13353744527808
 20
150.07159338974679
 40
2.9999999999999858
 50
89.999999999999829
 51
180.0000000000002
  0
LINE
  8
_0-9_
  6
PHANTOM1
 62
  152
 10
275.88353744527819
 20
139.27159338974667
 11
277.83353744527813
 21
139.27159338974667
  0
LINE
  8
_0-9_
  6
PHANTOM1
 62
  152
 10
324.43353744527838
 20
139.27159338974667
 11
326.38353744527774
 21
139.27159338974667
  0
LINE
  8
_0-9_
  6
PHANTOM1
 62
  152
 10
326.38353744527774
 20
142.27159338974678
 11
326.13353744527797
 21
142.27159338974678
  0
LINE
  8
_0-9_
  6
PHANTOM1
 62
  152
 10
276.13353744527797
 20
142.27159338974678
 11
275.88353744527819
 21
142.27159338974678
  0
LINE
  8
_0-1_
  6
CONTINUOUS
 62
    7
 10
293.13353741049593
 20
260.37159338974612
 11
293.13353741049593
 21
243.27159338974653
  0
LINE
  8
_0-1_
  6
CONTINUOUS
 62
  152
 10
294.03353754059594
 20
243.27159338974653
 11
294.03353754059594
 21
261.27159351984619
  0
LINE
  8
_0-1_
  6
CONTINUOUS
 62
  152
 10
308.23353734989621
 20
243.27159338974653
 11
308.23353734989621
 21
261.27159345034613
  0
LINE
  8
_0-1_
  6
CONTINUOUS
 62
    7
 10
309.13353741049616
 20
260.37159338974612
 11
309.13353741049616
 21
236.2715933897465
  0
LINE
  8
_0-8_
  6
CONTINUOUS
 62
    7
 10
51.133537445278876
 20
161.2715933897465
 11
507.17160507345102
 21
161.2715933897465
  0
ENDSEC
  0
EOF
