  0
SECTION
  2
HEADER
  9
$ACADVER
  1
AC1009
  9
$INSBASE
 10
0
 20
0
 30
0
  9
$EXTMIN
 10
0
 20
0
  9
$EXTMAX
 10
1189
 20
841
  9
$LIMMIN
 10
0
 20
0
  9
$LIMMAX
 10
1189
 20
841
  9
$LTSCALE
 40
1
  0
ENDSEC
  0
SECTION
  2
TABLES
  0
TABLE
  2
LTYPE
 70
     9
  0
LTYPE
  2
CONTINUOUS
 70
    64
  3
実線
 72
    65
 73
     0
 40
0.0
  0
LTYPE
  2
DASHED1
 70
    64
  3
--  --  --  --  --  --  --  --  
 72
    65
 73
     2
 40
2.5
 49
1.25
 49
-1.25
  0
LTYPE
  2
DASHED2
 70
    64
  3
----    ----    ----    ----    
 72
    65
 73
     2
 40
5.0
 49
2.5
 49
-2.5
  0
LTYPE
  2
DASHED3
 70
    64
  3
------  ------  ------  ------  
 72
    65
 73
     2
 40
5.0
 49
3.75
 49
-1.25
  0
LTYPE
  2
CENTER1
 70
    64
  3
----- - ----- - ----- - ----- - 
 72
    65
 73
     4
 40
10.0
 49
6.25
 49
-1.25
 49
1.25
 49
-1.25
  0
LTYPE
  2
CENTER2
 70
    64
  3
----------  --  ----------  --  
 72
    65
 73
     4
 40
20.0
 49
12.5
 49
-2.5
 49
2.5
 49
-2.5
  0
LTYPE
  2
PHANTOM1
 70
    64
  3
--- - - --- - - --- - - --- - - 
 72
    65
 73
     6
 40
10.0
 49
3.25
 49
-1.25
 49
1.25
 49
-1.25
 49
1.25
 49
-1.25
  0
LTYPE
  2
PHANTOM2
 70
    64
  3
--------  -  -  --------  -  -  
 72
    65
 73
     6
 40
20.0
 49
10.0
 49
-2.5
 49
1.25
 49
-2.5
 49
1.25
 49
-2.5
  0
LTYPE
  2
DOT
 70
    64
  3
-   -   -   -   -   -   -   -   
 72
    65
 73
     2
 40
2.5
 49
0.625
 49
-1.875
  0
LTYPE
  2
DUMMY
 70
    64
  3
ダミー
 72
    65
 73
     0
 40
0.0
  0
LTYPE
  2
RAND1
 70
    64
  3
ランダム線1
 72
    65
 73
     4
 40
10.0
 49
1.0
 49
-2.0
 49
3.0
 49
-4.0
  0
LTYPE
  2
RAND2
 70
    64
  3
ランダム線2
 72
    65
 73
     4
 40
14.0
 49
2.0
 49
-3.0
 49
4.0
 49
-5.0
  0
LTYPE
  2
RAND3
 70
    64
  3
ランダム線3
 72
    65
 73
     4
 40
18.0
 49
3.0
 49
-4.0
 49
5.0
 49
-6.0
  0
LTYPE
  2
RAND4
 70
    64
  3
ランダム線4
 72
    65
 73
     4
 40
22.0
 49
4.0
 49
-5.0
 49
6.0
 49
-7.0
  0
LTYPE
  2
RAND5
 70
    64
  3
ランダム線5
 72
    65
 73
     4
 40
26.0
 49
5.0
 49
-6.0
 49
7.0
 49
-8.0
  0
LTYPE
  2
LONG1
 70
    64
  3
----------  --  ----------  --  
 72
    65
 73
     4
 40
40.0
 49
32.5
 49
-2.5
 49
2.5
 49
-2.5
  0
LTYPE
  2
LONG2
 70
    64
  3
--------  -  -  --------  -  -  
 72
    65
 73
     6
 40
40.0
 49
30.0
 49
-2.5
 49
1.25
 49
-2.5
 49
1.25
 49
-2.5
  0
LTYPE
  2
LONG3
 70
    64
  3
+++++++++++++++..+++++++++++++++
 72
    65
 73
     2
 40
40.0
 49
37.5
 49
-2.5
  0
LTYPE
  2
LONG4
 70
    64
  3
+++++++++++++++..+++++++++++++++
 72
    65
 73
     2
 40
80.0
 49
75.0
 49
-5.0
  0
LTYPE
  2
LONG5
 70
    64
  3
----------  --  ----------  --  
 72
    65
 73
     4
 40
60.0
 49
37.5
 49
-7.5
 49
7.5
 49
-7.5
  0
LTYPE
  2
dashed
 70
   64
  3
-------   -------------   ------
 72
   65
 73
    2
 40
7.5
 49
6
 49
-1.5
  0
LTYPE
  2
dashed_spaced
 70
   64
  3
----        --------        ----
 72
   65
 73
    2
 40
12
 49
6
 49
-6
  0
LTYPE
  2
long_dashed_dotted
 70
   64
  3
------------- --- --------------
 72
   65
 73
    4
 40
15.25
 49
12
 49
-1.5
 49
0.25
 49
-1.5
  0
LTYPE
  2
long_dashed_double-dotted
 70
   64
  3
----------- --- --- ------------
 72
   65
 73
    6
 40
17
 49
12
 49
-1.5
 49
0.25
 49
-1.5
 49
0.25
 49
-1.5
  0
LTYPE
  2
long_dashed_triplicate-dotted
 70
   64
  3
--------- --- --- --- ----------
 72
   65
 73
    8
 40
18.75
 49
12
 49
-1.5
 49
0.25
 49
-1.5
 49
0.25
 49
-1.5
 49
0.25
 49
-1.5
  0
LTYPE
  2
dotted
 70
   64
  3
   -       -       -       -    
 72
   65
 73
    2
 40
1.75
 49
0.25
 49
-1.5
  0
LTYPE
  2
chain
 70
   64
  3
-------------- -- --------------
 72
   65
 73
    4
 40
18.5
 49
12
 49
-1.5
 49
3.5
 49
-1.5
  0
LTYPE
  2
chain_double_dash
 70
   64
  3
------------ -- -- -------------
 72
   65
 73
    6
 40
23.5
 49
12
 49
-1.5
 49
3.5
 49
-1.5
 49
3.5
 49
-1.5
  0
LTYPE
  2
dashed_dotted
 70
   64
  3
-----------     -     ----------
 72
   65
 73
    4
 40
9.25
 49
6
 49
-1.5
 49
0.25
 49
-1.5
  0
LTYPE
  2
double-dashed_dotted
 70
   64
  3
------   -----------   -   -----
 72
   65
 73
    6
 40
16.75
 49
6
 49
-1.5
 49
6
 49
-1.5
 49
0.25
 49
-1.5
  0
LTYPE
  2
dashed_double-dotted
 70
   64
  3
---------    -    -    ---------
 72
   65
 73
    6
 40
11
 49
6
 49
-1.5
 49
0.25
 49
-1.5
 49
0.25
 49
-1.5
  0
LTYPE
  2
double-dashed_double-dotted
 70
   64
  3
-----   ---------   -   -   ----
 72
   65
 73
    8
 40
18.5
 49
6
 49
-1.5
 49
6
 49
-1.5
 49
0.25
 49
-1.5
 49
0.25
 49
-1.5
  0
LTYPE
  2
dashed_triplicate-dotted
 70
   64
  3
-------    -    -    -    ------
 72
   65
 73
    8
 40
12.75
 49
6
 49
-1.5
 49
0.25
 49
-1.5
 49
0.25
 49
-1.5
 49
0.25
 49
-1.5
  0
LTYPE
  2
double-dashed_triplicate-dotted
 70
   64
  3
-----  ---------  -  -  -  -----
 72
   65
 73
   10
 40
20.25
 49
6
 49
-1.5
 49
6
 49
-1.5
 49
0.25
 49
-1.5
 49
0.25
 49
-1.5
 49
0.25
 49
-1.5
  0
LTYPE
  2
undefined
 70
   64
  3
--------------------------------
 72
   65
 73
    0
 40
0
  0
LTYPE
  2
_
 70
   64
  3
                                
 72
   65
 73
    0
 40
0
  0
LTYPE
  2
__18
 70
   64
  3
                                
 72
   65
 73
    0
 40
0
  0
LTYPE
  2
__19
 70
   64
  3
                                
 72
   65
 73
    0
 40
0
  0
LTYPE
  2
__20
 70
   64
  3
                                
 72
   65
 73
    0
 40
0
  0
LTYPE
  2
__21
 70
   64
  3
                                
 72
   65
 73
    0
 40
0
  0
LTYPE
  2
__22
 70
   64
  3
                                
 72
   65
 73
    0
 40
0
  0
LTYPE
  2
__23
 70
   64
  3
                                
 72
   65
 73
    0
 40
0
  0
LTYPE
  2
__24
 70
   64
  3
                                
 72
   65
 73
    0
 40
0
  0
LTYPE
  2
__25
 70
   64
  3
                                
 72
   65
 73
    0
 40
0
  0
LTYPE
  2
__26
 70
   64
  3
                                
 72
   65
 73
    0
 40
0
  0
LTYPE
  2
__27
 70
   64
  3
                                
 72
   65
 73
    0
 40
0
  0
LTYPE
  2
__28
 70
   64
  3
                                
 72
   65
 73
    0
 40
0
  0
LTYPE
  2
__29
 70
   64
  3
                                
 72
   65
 73
    0
 40
0
  0
LTYPE
  2
__30
 70
   64
  3
                                
 72
   65
 73
    0
 40
0
  0
LTYPE
  2
__31
 70
   64
  3
                                
 72
   65
 73
    0
 40
0
  0
LTYPE
  2
__32
 70
   64
  3
                                
 72
   65
 73
    0
 40
0
  0
ENDTAB
  0
TABLE
  2
STYLE
  5
3
100
AcDbSymbolTable
 70
     1
  0
STYLE
  5
10
100
AcDbSymbolTableRecord
100
AcDbTextStyleTableRecord
  2
STANDARD
 70
     0
 40
0.0
 41
1.0
 50
0.0
 71
     0
 42
0.2
  3
txt
  4
bigfont.shx
  0
STYLE
  5
26
100
AcDbSymbolTableRecord
100
AcDbTextStyleTableRecord
  2
TATEGAKI
 70
    68
 40
0.0
 41
1.0
 50
0.0
 71
     0
 42
1.0
  3
txt
  4
bigfont.shx
  0
ENDTAB
  0
TABLE
  2
LAYER
 70
    5
  0
LAYER
  2
_0-0_
 70
   64
 62
    7
  6
CONTINUOUS
  0
LAYER
  2
_0-1_
 70
   64
 62
    7
  6
CONTINUOUS
  0
LAYER
  2
_0-2_
 70
   64
 62
    7
  6
CONTINUOUS
  0
LAYER
  2
_0-e_
 70
   64
 62
    7
  6
CONTINUOUS
  0
LAYER
  2
ADD_LINE
 70
   64
 62
    7
  6
CONTINUOUS
  0
ENDTAB
  0
ENDSEC
  0
SECTION
  2
BLOCKS
  0
ENDSEC
  0
SECTION
  2
ENTITIES
  0
LINE
  8
_0-0_
  6
CONTINUOUS
 62
    7
 10
11.133537445278989
 20
58.645703210973522
 11
11.133537445278989
 21
85.645703210973522
  0
LINE
  8
_0-0_
  6
CONTINUOUS
 62
    7
 10
11.133537445278989
 20
85.645703210973522
 11
14.133537445278989
 21
88.645703210973522
  0
LINE
  8
_0-0_
  6
CONTINUOUS
 62
    7
 10
14.133537445278989
 20
88.645703210973522
 11
88.133537445278876
 21
88.645703210973522
  0
LINE
  8
_0-0_
  6
CONTINUOUS
 62
    7
 10
88.133537445278876
 20
88.645703210973522
 11
91.133537445278876
 21
85.645703210973522
  0
LINE
  8
_0-0_
  6
CONTINUOUS
 62
    7
 10
91.133537445278876
 20
85.645703210973522
 11
91.133537445278876
 21
11.64570321097375
  0
LINE
  8
_0-0_
  6
CONTINUOUS
 62
    7
 10
91.133537445278876
 20
11.64570321097375
 11
88.133537445278876
 21
8.6457032109735223
  0
LINE
  8
_0-0_
  6
CONTINUOUS
 62
    7
 10
88.133537445278876
 20
8.6457032109735223
 11
61.133537445278876
 21
8.6457032109735223
  0
LINE
  8
_0-0_
  6
CONTINUOUS
 62
    7
 10
61.133537445278876
 20
8.6457032109735223
 11
45.487680912213932
 21
24.291559744038693
  0
LINE
  8
_0-0_
  6
CONTINUOUS
 62
    7
 10
26.779393978343933
 20
42.999846677908351
 11
11.133537445278989
 21
58.645703210973522
  0
CIRCLE
  8
_0-0_
  6
CONTINUOUS
 62
    7
 10
81.133537445278876
 20
18.645703210973522
 40
3.25
  0
CIRCLE
  8
_0-0_
  6
CONTINUOUS
 62
    7
 10
81.133537445278876
 20
48.645703210973522
 40
3.25
  0
CIRCLE
  8
_0-0_
  6
CONTINUOUS
 62
    7
 10
51.133537445278876
 20
78.645703210973522
 40
3.25
  0
CIRCLE
  8
_0-0_
  6
CONTINUOUS
 62
    7
 10
81.133537445278876
 20
78.645703210973522
 40
3.25
  0
CIRCLE
  8
_0-0_
  6
CONTINUOUS
 62
    7
 10
21.133537445278989
 20
78.645703210973522
 40
3.25
  0
CIRCLE
  8
_0-0_
  6
CONTINUOUS
 62
    7
 10
51.133537445278876
 20
48.645703210973522
 40
25
  0
CIRCLE
  8
_0-0_
  6
CONTINUOUS
 62
    7
 10
51.133537445278876
 20
48.645703210973522
 40
22
  0
LINE
  8
_0-0_
  6
CONTINUOUS
 62
    7
 10
91.133537445278876
 20
178.21943798793751
 11
91.133537445278876
 21
181.21943798793706
  0
LINE
  8
_0-0_
  6
CONTINUOUS
 62
    7
 10
91.133537445278876
 20
181.21943798793706
 11
11.133537445278989
 21
181.21943798793706
  0
LINE
  8
_0-0_
  6
CONTINUOUS
 62
    7
 10
11.133537445278989
 20
181.21943798793706
 11
11.133537445278989
 21
178.21943798793751
  0
LINE
  8
_0-0_
  6
CONTINUOUS
 62
    7
 10
11.133537445278989
 20
178.21943798793751
 11
91.133537445278876
 21
178.21943798793751
  0
LINE
  8
_0-0_
  6
CONTINUOUS
 62
    7
 10
88.133537445278876
 20
178.21943798793751
 11
88.133537445278876
 21
181.21943798793706
  0
LINE
  8
_0-0_
  6
CONTINUOUS
 62
    7
 10
62.133537445278876
 20
178.21943798793751
 11
62.133537445278876
 21
161.92654798793734
  0
LINE
  8
_0-0_
  6
CONTINUOUS
 62
    7
 10
62.133537445278876
 20
161.92654798793734
 11
40.133537445278876
 21
161.92654798793734
  0
LINE
  8
_0-0_
  6
CONTINUOUS
 62
    7
 10
40.133537445278876
 20
161.92654798793734
 11
40.133537445278876
 21
178.21943798793751
  0
LINE
  8
_0-0_
  6
CONTINUOUS
 62
    7
 10
45.133537445278876
 20
205.17294796240782
 11
46.033537445278512
 21
206.07294796240791
  0
LINE
  8
_0-0_
  6
CONTINUOUS
 62
    7
 10
46.033537445278512
 20
206.07294796240791
 11
56.23353744527742
 21
206.07294796240791
  0
LINE
  8
_0-0_
  6
CONTINUOUS
 62
    7
 10
56.23353744527742
 20
206.07294796240791
 11
57.133537445277966
 21
205.17294796240782
  0
LINE
  8
_0-0_
  6
CONTINUOUS
 62
    7
 10
57.133537445277966
 20
205.17294796240782
 11
45.133537445278876
 21
205.17294796240782
  0
LINE
  8
_0-0_
  6
CONTINUOUS
 62
    7
 10
57.133537445277966
 20
161.21943798793706
 11
57.133537445277966
 21
136.07294796240791
  0
LINE
  8
_0-0_
  6
CONTINUOUS
 62
    7
 10
61.426437445278339
 20
161.21943798793706
 11
40.84064744527825
 21
161.21943798793706
  0
LINE
  8
_0-0_
  6
CONTINUOUS
 62
    7
 10
40.84064744527825
 20
161.21943798793706
 11
40.133537445278876
 21
161.92654798793734
  0
LINE
  8
_0-0_
  6
CONTINUOUS
 62
    7
 10
45.133537445278876
 20
161.21943798793706
 11
45.133537445278876
 21
136.07294796240791
  0
LINE
  8
_0-0_
  6
CONTINUOUS
 62
    7
 10
61.426437445278339
 20
161.21943798793706
 11
62.133537445278876
 21
161.92654798793734
  0
LINE
  8
_0-0_
  6
CONTINUOUS
 62
    7
 10
62.103192489132766
 20
134.93576691878303
 11
62.103192489132766
 21
126.57294796240791
  0
LINE
  8
_0-0_
  6
CONTINUOUS
 62
    7
 10
56.618364970668722
 20
126.57294796240791
 11
56.618364970668722
 21
134.93576691878303
  0
LINE
  8
_0-0_
  6
CONTINUOUS
 62
    7
 10
59.360778968318868
 20
136.07294820082694
 11
42.906295936092306
 21
136.07294820082694
  0
LINE
  8
_0-0_
  6
CONTINUOUS
 62
    7
 10
40.163882415279318
 20
134.93576691878303
 11
40.163882415279318
 21
126.57294796240791
  0
LINE
  8
_0-0_
  6
CONTINUOUS
 62
    7
 10
45.648709933742452
 20
126.57294796240791
 11
45.648709933742452
 21
134.93576691878303
  0
LINE
  8
_0-0_
  6
CONTINUOUS
 62
    7
 10
29.133537445277966
 20
126.57294796240791
 11
73.133537445278876
 21
126.57294796240791
  0
LINE
  8
_0-0_
  6
CONTINUOUS
 62
    7
 10
76.133537445277966
 20
123.57294796240791
 11
76.133537445277966
 21
113.57294796240791
  0
LINE
  8
_0-0_
  6
CONTINUOUS
 62
    7
 10
76.133537445277966
 20
113.57294796240791
 11
26.13353744527808
 21
113.57294796240791
  0
LINE
  8
_0-0_
  6
CONTINUOUS
 62
    7
 10
26.13353744527808
 20
113.57294796240791
 11
26.13353744527808
 21
123.57294796240791
  0
LINE
  8
_0-0_
  6
CONTINUOUS
 62
    7
 10
26.13353744527808
 20
113.57294796240791
 11
29.133537445277966
 21
110.57294796240791
  0
LINE
  8
_0-0_
  6
CONTINUOUS
 62
    7
 10
29.133537445277966
 20
110.57294796240791
 11
73.133537445278876
 21
110.57294796240791
  0
LINE
  8
_0-0_
  6
CONTINUOUS
 62
    7
 10
73.133537445278876
 20
110.57294796240791
 11
76.133537445277966
 21
113.57294796240791
  0
LINE
  8
_0-0_
  6
CONTINUOUS
 62
    7
 10
14.133537445278989
 20
181.21943798793706
 11
14.133537445278989
 21
178.21943798793751
  0
LINE
  8
_0-0_
  6
CONTINUOUS
 62
    7
 10
45.648579156223036
 20
134.93576641666118
 11
44.981155374083187
 21
135.45402191736554
  0
LINE
  8
_0-0_
  6
CONTINUOUS
 62
    7
 10
44.981155374083187
 20
135.45402191736554
 11
44.250688037849613
 21
135.82188437121636
  0
LINE
  8
_0-0_
  6
CONTINUOUS
 62
    7
 10
44.250688037849613
 20
135.82188437121636
 11
43.479372027899331
 21
136.0281764637009
  0
LINE
  8
_0-0_
  6
CONTINUOUS
 62
    7
 10
43.479372027899331
 20
136.0281764637009
 11
42.690643390889932
 21
136.06663011397768
  0
LINE
  8
_0-0_
  6
CONTINUOUS
 62
    7
 10
42.690643390889932
 20
136.06663011397768
 11
41.90846724734115
 21
135.93607692734173
  0
LINE
  8
_0-0_
  6
CONTINUOUS
 62
    7
 10
41.90846724734115
 20
135.93607692734173
 11
41.156609623574354
 21
135.64048369630575
  0
LINE
  8
_0-0_
  6
CONTINUOUS
 62
    7
 10
41.156609623574354
 20
135.64048369630575
 11
40.457915333029405
 21
135.18883187161737
  0
LINE
  8
_0-0_
  6
CONTINUOUS
 62
    7
 10
40.457915333029405
 20
135.18883187161737
 11
40.164013675664251
 21
134.93576731473559
  0
LINE
  8
_0-0_
  6
CONTINUOUS
 62
    7
 10
62.103062188449599
 20
134.93576641666118
 11
61.435638406309749
 21
135.45402191736554
  0
LINE
  8
_0-0_
  6
CONTINUOUS
 62
    7
 10
61.435638406309749
 20
135.45402191736554
 11
60.705171070076176
 21
135.82188437121636
  0
LINE
  8
_0-0_
  6
CONTINUOUS
 62
    7
 10
60.705171070076176
 20
135.82188437121636
 11
59.933855060125893
 21
136.0281764637009
  0
LINE
  8
_0-0_
  6
CONTINUOUS
 62
    7
 10
59.933855060125893
 20
136.0281764637009
 11
59.145126423116494
 21
136.06663011397768
  0
LINE
  8
_0-0_
  6
CONTINUOUS
 62
    7
 10
59.145126423116494
 20
136.06663011397768
 11
58.362950279567713
 21
135.93607692734173
  0
LINE
  8
_0-0_
  6
CONTINUOUS
 62
    7
 10
58.362950279567713
 20
135.93607692734173
 11
57.611092655800917
 21
135.64048369630575
  0
LINE
  8
_0-0_
  6
CONTINUOUS
 62
    7
 10
57.611092655800917
 20
135.64048369630575
 11
56.912398365255967
 21
135.18883187161737
  0
LINE
  8
_0-0_
  6
CONTINUOUS
 62
    7
 10
56.912398365255967
 20
135.18883187161737
 11
56.618496707890813
 21
134.93576731473559
  0
ARC
  8
_0-0_
  6
CONTINUOUS
 62
    7
 10
51.133537452205587
 20
122.27720402014717
 40
13.795743942260742
 50
66.573394775390625
 51
113.4265899658203
  0
ARC
  8
_0-0_
  6
CONTINUOUS
 62
    7
 10
73.133537445278876
 20
123.57294796240791
 40
3.0000000000000004
 50
0
 51
90
  0
ARC
  8
_0-0_
  6
CONTINUOUS
 62
    7
 10
29.133537445277966
 20
123.57294796240791
 40
3.0000000000000004
 50
90
 51
180
  0
LINE
  8
_0-0_
  6
CONTINUOUS
 62
    7
 10
91.133537445278876
 20
226.02975919609418
 11
91.133537445278876
 21
300.02975919609395
  0
LINE
  8
_0-0_
  6
CONTINUOUS
 62
    7
 10
91.133537445278876
 20
300.02975919609395
 11
88.133537445278876
 21
303.02975919609418
  0
LINE
  8
_0-0_
  6
CONTINUOUS
 62
    7
 10
88.133537445278876
 20
303.02975919609418
 11
61.133537445278876
 21
303.02975919609418
  0
LINE
  8
_0-0_
  6
CONTINUOUS
 62
    7
 10
61.133537445278876
 20
303.02975919609418
 11
11.133537445278989
 21
253.02975919609418
  0
LINE
  8
_0-0_
  6
CONTINUOUS
 62
    7
 10
11.133537445278989
 20
253.02975919609418
 11
11.133537445278989
 21
226.02975919609418
  0
LINE
  8
_0-0_
  6
CONTINUOUS
 62
    7
 10
11.133537445278989
 20
226.02975919609418
 11
14.133537445278989
 21
223.02975919609418
  0
LINE
  8
_0-0_
  6
CONTINUOUS
 62
    7
 10
14.133537445278989
 20
223.02975919609418
 11
88.133537445278876
 21
223.02975919609418
  0
LINE
  8
_0-0_
  6
CONTINUOUS
 62
    7
 10
88.133537445278876
 20
223.02975919609418
 11
91.133537445278876
 21
226.02975919609418
  0
CIRCLE
  8
_0-0_
  6
CONTINUOUS
 62
    7
 10
81.133537445278876
 20
293.02975919609418
 40
3.25
  0
CIRCLE
  8
_0-0_
  6
CONTINUOUS
 62
    7
 10
81.133537445278876
 20
263.02975919609418
 40
3.25
  0
CIRCLE
  8
_0-0_
  6
CONTINUOUS
 62
    7
 10
51.133537445278876
 20
263.02975919609418
 40
10
  0
CIRCLE
  8
_0-0_
  6
CONTINUOUS
 62
    7
 10
51.133537445278876
 20
233.02975919609418
 40
3.25
  0
CIRCLE
  8
_0-0_
  6
CONTINUOUS
 62
    7
 10
81.133537445278876
 20
233.02975919609418
 40
3.25
  0
CIRCLE
  8
_0-0_
  6
CONTINUOUS
 62
    7
 10
21.133537445278989
 20
233.02975919609418
 40
3.25
  0
CIRCLE
  8
_0-0_
  6
CONTINUOUS
 62
    7
 10
51.133537445278876
 20
263.02975919609418
 40
5.1999998092651367
  0
CIRCLE
  8
_0-0_
  6
CONTINUOUS
 62
    7
 10
51.133537445278876
 20
48.645703210973522
 40
10
  0
LINE
  8
_0-0_
  6
CONTINUOUS
 62
    7
 10
53.633537445278876
 20
48.145703210973522
 11
53.633537445278876
 21
49.145703210973522
  0
LINE
  8
_0-0_
  6
CONTINUOUS
 62
    7
 10
50.633537445278876
 20
51.145703210973522
 11
51.633537445278876
 21
51.145703210973522
  0
LINE
  8
_0-0_
  6
CONTINUOUS
 62
    7
 10
48.633537445278876
 20
48.145703210973522
 11
48.633537445278876
 21
49.145703210973522
  0
LINE
  8
_0-0_
  6
CONTINUOUS
 62
    7
 10
50.633537445278876
 20
46.145703210973522
 11
51.633537445278876
 21
46.145703210973522
  0
LINE
  8
_0-0_
  6
CONTINUOUS
 62
    7
 10
51.633537445278876
 20
50.145703210973522
 11
51.633537445278876
 21
51.145703210973522
  0
LINE
  8
_0-0_
  6
CONTINUOUS
 62
    7
 10
52.633537445278876
 20
49.145703210973522
 11
53.633537445278876
 21
49.145703210973522
  0
LINE
  8
_0-0_
  6
CONTINUOUS
 62
    7
 10
52.633537445278876
 20
48.145703210973522
 11
53.633537445278876
 21
48.145703210973522
  0
LINE
  8
_0-0_
  6
CONTINUOUS
 62
    7
 10
51.633537445278876
 20
47.145703210973522
 11
51.633537445278876
 21
46.145703210973522
  0
LINE
  8
_0-0_
  6
CONTINUOUS
 62
    7
 10
50.633537445278876
 20
47.145703210973522
 11
50.633537445278876
 21
46.145703210973522
  0
LINE
  8
_0-0_
  6
CONTINUOUS
 62
    7
 10
49.633537445278876
 20
48.145703210973522
 11
48.633537445278876
 21
48.145703210973522
  0
LINE
  8
_0-0_
  6
CONTINUOUS
 62
    7
 10
49.633537445278876
 20
49.145703210973522
 11
48.633537445278876
 21
49.145703210973522
  0
LINE
  8
_0-0_
  6
CONTINUOUS
 62
    7
 10
50.633537445278876
 20
50.145703210973522
 11
50.633537445278876
 21
51.145703210973522
  0
CIRCLE
  8
_0-0_
  6
CONTINUOUS
 62
    7
 10
51.133537445278876
 20
48.645703210973522
 40
5
  0
ARC
  8
_0-0_
  6
CONTINUOUS
 62
    7
 10
52.633537445278876
 20
50.145703210973522
 40
1
 50
180
 51
270
  0
ARC
  8
_0-0_
  6
CONTINUOUS
 62
    7
 10
52.633537445278876
 20
47.145703210973522
 40
1
 50
90
 51
180
  0
ARC
  8
_0-0_
  6
CONTINUOUS
 62
    7
 10
49.633537445278876
 20
47.145703210973522
 40
1
 50
0
 51
90
  0
ARC
  8
_0-0_
  6
CONTINUOUS
 62
    7
 10
49.633537445278876
 20
50.145703210973522
 40
1
 50
270
 51
0
  0
LINE
  8
_0-0_
  6
CONTINUOUS
 62
    7
 10
338.13353744527888
 20
8.6457032109735223
 11
341.13353744527888
 21
11.64570321097375
  0
LINE
  8
_0-0_
  6
CONTINUOUS
 62
    7
 10
341.13353744527888
 20
11.64570321097375
 11
341.13353744527888
 21
85.645703210973522
  0
LINE
  8
_0-0_
  6
CONTINUOUS
 62
    7
 10
341.13353744527888
 20
85.645703210973522
 11
338.13353744527888
 21
88.645703210973522
  0
LINE
  8
_0-0_
  6
CONTINUOUS
 62
    7
 10
338.13353744527888
 20
88.645703210973522
 11
264.13353744527797
 21
88.645703210973522
  0
LINE
  8
_0-0_
  6
CONTINUOUS
 62
    7
 10
264.13353744527797
 20
88.645703210973522
 11
261.13353744527797
 21
85.645703210973522
  0
LINE
  8
_0-0_
  6
CONTINUOUS
 62
    7
 10
261.13353744527797
 20
85.645703210973522
 11
261.13353744527797
 21
58.645703210973522
  0
LINE
  8
_0-0_
  6
CONTINUOUS
 62
    7
 10
261.13353744527797
 20
58.645703210973522
 11
276.77939397834382
 21
42.999846677908351
  0
LINE
  8
_0-0_
  6
CONTINUOUS
 62
    7
 10
295.48768091221302
 20
24.291559744038693
 11
311.13353744527888
 21
8.6457032109735223
  0
LINE
  8
_0-0_
  6
CONTINUOUS
 62
    7
 10
311.13353744527888
 20
8.6457032109735223
 11
338.13353744527888
 21
8.6457032109735223
  0
CIRCLE
  8
_0-0_
  6
CONTINUOUS
 62
    7
 10
331.13353744527888
 20
18.645703210973522
 40
3.25
  0
CIRCLE
  8
_0-0_
  6
CONTINUOUS
 62
    7
 10
331.13353744527888
 20
48.645703210973522
 40
3.25
  0
CIRCLE
  8
_0-0_
  6
CONTINUOUS
 62
    7
 10
301.13353744527888
 20
78.645703210973522
 40
3.25
  0
CIRCLE
  8
_0-0_
  6
CONTINUOUS
 62
    7
 10
331.13353744527888
 20
78.645703210973522
 40
3.25
  0
CIRCLE
  8
_0-0_
  6
CONTINUOUS
 62
    7
 10
271.13353744527888
 20
78.645703210973522
 40
3.25
  0
CIRCLE
  8
_0-0_
  6
CONTINUOUS
 62
    7
 10
301.13353744527888
 20
48.645703210973522
 40
22
  0
CIRCLE
  8
_0-0_
  6
CONTINUOUS
 62
    7
 10
301.13353744527888
 20
48.645703210973522
 40
25
  0
LINE
  8
_0-0_
  6
CONTINUOUS
 62
    7
 10
276.13353744527888
 20
111.57294820082694
 11
326.13353744527888
 21
111.57294820082694
  0
LINE
  8
_0-0_
  6
CONTINUOUS
 62
    7
 10
326.13353744527888
 20
111.57294820082694
 11
323.13353744527888
 21
108.57294820082694
  0
LINE
  8
_0-0_
  6
CONTINUOUS
 62
    7
 10
323.13353744527888
 20
108.57294820082694
 11
279.13353744527888
 21
108.57294820082694
  0
LINE
  8
_0-0_
  6
CONTINUOUS
 62
    7
 10
279.13353744527888
 20
108.57294820082694
 11
276.13353744527888
 21
111.57294820082694
  0
LINE
  8
_0-0_
  6
CONTINUOUS
 62
    7
 10
276.13353744527888
 20
111.57294820082694
 11
276.13353744527888
 21
121.57294820082694
  0
LINE
  8
_0-0_
  6
CONTINUOUS
 62
    7
 10
279.13353744527888
 20
124.57294820082694
 11
323.13353744527888
 21
124.57294820082694
  0
LINE
  8
_0-0_
  6
CONTINUOUS
 62
    7
 10
326.13353744527888
 20
121.57294820082694
 11
326.13353744527888
 21
111.57294820082694
  0
LINE
  8
_0-0_
  6
CONTINUOUS
 62
    7
 10
315.56729744527877
 20
124.57294820082694
 11
315.56729744527877
 21
133.98961439547253
  0
LINE
  8
_0-0_
  6
CONTINUOUS
 62
    7
 10
315.56729744527877
 20
133.98961439547253
 11
311.9588574452788
 21
136.07294820082694
  0
LINE
  8
_0-0_
  6
CONTINUOUS
 62
    7
 10
311.9588574452788
 20
136.07294820082694
 11
290.30821744527896
 21
136.07294820082694
  0
LINE
  8
_0-0_
  6
CONTINUOUS
 62
    7
 10
290.30821744527896
 20
136.07294820082694
 11
286.69977744527898
 21
133.98961439547207
  0
LINE
  8
_0-0_
  6
CONTINUOUS
 62
    7
 10
286.69977744527898
 20
133.98961439547207
 11
286.69977744527898
 21
124.57294820082694
  0
LINE
  8
_0-0_
  6
CONTINUOUS
 62
    7
 10
293.91665744527893
 20
124.57294820082694
 11
293.91665744527893
 21
133.98961439547207
  0
LINE
  8
_0-0_
  6
CONTINUOUS
 62
    7
 10
293.13353744527888
 20
161.21943798793706
 11
293.13353744527888
 21
136.07294820082694
  0
LINE
  8
_0-0_
  6
CONTINUOUS
 62
    7
 10
309.13353744527888
 20
161.21943798793706
 11
309.13353744527888
 21
136.07294820082694
  0
LINE
  8
_0-0_
  6
CONTINUOUS
 62
    7
 10
308.35041744527882
 20
133.98961439547207
 11
308.35041744527882
 21
124.57294820082694
  0
LINE
  8
_0-0_
  6
CONTINUOUS
 62
    7
 10
308.23353744527742
 20
206.07294820082694
 11
309.13353744527888
 21
205.17294820082685
  0
LINE
  8
_0-0_
  6
CONTINUOUS
 62
    7
 10
309.13353744527888
 20
205.17294820082685
 11
293.13353744527888
 21
205.17294820082685
  0
LINE
  8
_0-0_
  6
CONTINUOUS
 62
    7
 10
293.13353744527888
 20
205.17294820082685
 11
294.03353744527851
 21
206.07294820082694
  0
LINE
  8
_0-0_
  6
CONTINUOUS
 62
    7
 10
294.03353744527851
 20
206.07294820082694
 11
308.23353744527742
 21
206.07294820082694
  0
LINE
  8
_0-0_
  6
CONTINUOUS
 62
    7
 10
309.13353744527888
 20
181.21943798793706
 11
309.13353744527888
 21
205.17294820082685
  0
LINE
  8
_0-0_
  6
CONTINUOUS
 62
    7
 10
290.13353744527888
 20
178.21943798793751
 11
290.13353744527888
 21
161.92654798793734
  0
LINE
  8
_0-0_
  6
CONTINUOUS
 62
    7
 10
290.13353744527888
 20
161.92654798793734
 11
290.84064744527825
 21
161.21943798793706
  0
LINE
  8
_0-0_
  6
CONTINUOUS
 62
    7
 10
290.84064744527825
 20
161.21943798793706
 11
311.42643744527925
 21
161.21943798793706
  0
LINE
  8
_0-0_
  6
CONTINUOUS
 62
    7
 10
311.42643744527925
 20
161.21943798793706
 11
312.13353744527888
 21
161.92654798793734
  0
LINE
  8
_0-0_
  6
CONTINUOUS
 62
    7
 10
312.13353744527888
 20
161.92654798793734
 11
312.13353744527888
 21
178.21943798793751
  0
LINE
  8
_0-0_
  6
CONTINUOUS
 62
    7
 10
312.13353744527888
 20
161.92654798793734
 11
290.13353744527888
 21
161.92654798793734
  0
LINE
  8
_0-0_
  6
CONTINUOUS
 62
    7
 10
264.13353744527797
 20
178.21943798793751
 11
264.13353744527797
 21
181.21943798793706
  0
LINE
  8
_0-0_
  6
CONTINUOUS
 62
    7
 10
261.13353744527797
 20
181.21943798793706
 11
261.13353744527797
 21
178.21943798793751
  0
LINE
  8
_0-0_
  6
CONTINUOUS
 62
    7
 10
261.13353744527797
 20
178.21943798793751
 11
341.13353744527888
 21
178.21943798793751
  0
LINE
  8
_0-0_
  6
CONTINUOUS
 62
    7
 10
341.13353744527888
 20
178.21943798793751
 11
341.13353744527888
 21
181.21943798793706
  0
LINE
  8
_0-0_
  6
CONTINUOUS
 62
    7
 10
341.13353744527888
 20
181.21943798793706
 11
261.13353744527797
 21
181.21943798793706
  0
LINE
  8
_0-0_
  6
CONTINUOUS
 62
    7
 10
338.13353744527888
 20
181.21943798793706
 11
338.13353744527888
 21
178.21943798793751
  0
ARC
  8
_0-0_
  6
CONTINUOUS
 62
    7
 10
311.9588574452788
 20
131.90628059011766
 40
4.1666676107091662
 50
90
 51
150.00000000000068
  0
ARC
  8
_0-0_
  6
CONTINUOUS
 62
    7
 10
301.13353744527888
 20
122.53127846602189
 40
13.541669734805117
 50
57.795772496028
 51
122.20422750397205
  0
ARC
  8
_0-0_
  6
CONTINUOUS
 62
    7
 10
290.30821744527896
 20
131.90628059011766
 40
4.1666676107091662
 50
29.999999999999336
 51
90
  0
ARC
  8
_0-0_
  6
CONTINUOUS
 62
    7
 10
323.13353744527888
 20
121.57294820082694
 40
3.0000000000000004
 50
0
 51
90
  0
ARC
  8
_0-0_
  6
CONTINUOUS
 62
    7
 10
279.13353744527888
 20
121.57294820082694
 40
3.0000000000000004
 50
90
 51
180
  0
LINE
  8
_0-0_
  6
CONTINUOUS
 62
    7
 10
264.13353744527797
 20
223.02975919609418
 11
261.13353744527797
 21
226.02975919609418
  0
LINE
  8
_0-0_
  6
CONTINUOUS
 62
    7
 10
261.13353744527797
 20
226.02975919609418
 11
261.13353744527797
 21
253.02975919609418
  0
LINE
  8
_0-0_
  6
CONTINUOUS
 62
    7
 10
261.13353744527797
 20
253.02975919609418
 11
311.13353744527797
 21
303.02975919609418
  0
LINE
  8
_0-0_
  6
CONTINUOUS
 62
    7
 10
311.13353744527797
 20
303.02975919609418
 11
338.13353744527797
 21
303.02975919609418
  0
LINE
  8
_0-0_
  6
CONTINUOUS
 62
    7
 10
338.13353744527797
 20
303.02975919609418
 11
341.13353744527797
 21
300.02975919609395
  0
LINE
  8
_0-0_
  6
CONTINUOUS
 62
    7
 10
341.13353744527797
 20
300.02975919609395
 11
341.13353744527797
 21
226.02975919609418
  0
LINE
  8
_0-0_
  6
CONTINUOUS
 62
    7
 10
341.13353744527797
 20
226.02975919609418
 11
338.13353744527797
 21
223.02975919609418
  0
LINE
  8
_0-0_
  6
CONTINUOUS
 62
    7
 10
338.13353744527797
 20
223.02975919609418
 11
264.13353744527797
 21
223.02975919609418
  0
CIRCLE
  8
_0-0_
  6
CONTINUOUS
 62
    7
 10
331.13353744527797
 20
293.02975919609418
 40
3.25
  0
CIRCLE
  8
_0-0_
  6
CONTINUOUS
 62
    7
 10
331.13353744527797
 20
263.02975919609418
 40
3.25
  0
CIRCLE
  8
_0-0_
  6
CONTINUOUS
 62
    7
 10
301.13353744527797
 20
263.02975919609418
 40
10
  0
CIRCLE
  8
_0-0_
  6
CONTINUOUS
 62
    7
 10
301.13353744527797
 20
263.02975919609418
 40
7.0000000000000009
  0
CIRCLE
  8
_0-0_
  6
CONTINUOUS
 62
    7
 10
301.13353744527797
 20
233.02975919609418
 40
3.25
  0
CIRCLE
  8
_0-0_
  6
CONTINUOUS
 62
    7
 10
331.13353744527797
 20
233.02975919609418
 40
3.25
  0
CIRCLE
  8
_0-0_
  6
CONTINUOUS
 62
    7
 10
271.13353744527797
 20
233.02975919609418
 40
3.25
  0
CIRCLE
  8
_0-0_
  6
CONTINUOUS
 62
    7
 10
301.13353744527888
 20
48.645703210973522
 40
10
  0
LINE
  8
_0-0_
  6
CONTINUOUS
 62
    7
 10
303.63353744527888
 20
48.145703210973522
 11
303.63353744527888
 21
49.145703210973522
  0
LINE
  8
_0-0_
  6
CONTINUOUS
 62
    7
 10
300.63353744527888
 20
51.145703210973522
 11
301.63353744527888
 21
51.145703210973522
  0
LINE
  8
_0-0_
  6
CONTINUOUS
 62
    7
 10
298.63353744527888
 20
48.145703210973522
 11
298.63353744527888
 21
49.145703210973522
  0
LINE
  8
_0-0_
  6
CONTINUOUS
 62
    7
 10
300.63353744527888
 20
46.145703210973522
 11
301.63353744527888
 21
46.145703210973522
  0
LINE
  8
_0-0_
  6
CONTINUOUS
 62
    7
 10
301.63353744527888
 20
50.145703210973522
 11
301.63353744527888
 21
51.145703210973522
  0
LINE
  8
_0-0_
  6
CONTINUOUS
 62
    7
 10
302.63353744527888
 20
49.145703210973522
 11
303.63353744527888
 21
49.145703210973522
  0
LINE
  8
_0-0_
  6
CONTINUOUS
 62
    7
 10
302.63353744527888
 20
48.145703210973522
 11
303.63353744527888
 21
48.145703210973522
  0
LINE
  8
_0-0_
  6
CONTINUOUS
 62
    7
 10
301.63353744527888
 20
47.145703210973522
 11
301.63353744527888
 21
46.145703210973522
  0
LINE
  8
_0-0_
  6
CONTINUOUS
 62
    7
 10
300.63353744527888
 20
47.145703210973522
 11
300.63353744527888
 21
46.145703210973522
  0
LINE
  8
_0-0_
  6
CONTINUOUS
 62
    7
 10
299.63353744527888
 20
48.145703210973522
 11
298.63353744527888
 21
48.145703210973522
  0
LINE
  8
_0-0_
  6
CONTINUOUS
 62
    7
 10
299.63353744527888
 20
49.145703210973522
 11
298.63353744527888
 21
49.145703210973522
  0
LINE
  8
_0-0_
  6
CONTINUOUS
 62
    7
 10
300.63353744527888
 20
50.145703210973522
 11
300.63353744527888
 21
51.145703210973522
  0
CIRCLE
  8
_0-0_
  6
CONTINUOUS
 62
    7
 10
301.13353744527888
 20
48.645703210973522
 40
5
  0
ARC
  8
_0-0_
  6
CONTINUOUS
 62
    7
 10
302.63353744527888
 20
50.145703210973522
 40
1
 50
180
 51
270
  0
ARC
  8
_0-0_
  6
CONTINUOUS
 62
    7
 10
302.63353744527888
 20
47.145703210973522
 40
1
 50
90
 51
180
  0
ARC
  8
_0-0_
  6
CONTINUOUS
 62
    7
 10
299.63353744527888
 20
47.145703210973522
 40
1
 50
0
 51
90
  0
ARC
  8
_0-0_
  6
CONTINUOUS
 62
    7
 10
299.63353744527888
 20
50.145703210973522
 40
1
 50
270
 51
0
  0
LINE
  8
_0-0_
  6
CONTINUOUS
 62
    7
 10
213.13353744527888
 20
303.02975919609418
 11
186.13353744527888
 21
303.02975919609418
  0
LINE
  8
_0-0_
  6
CONTINUOUS
 62
    7
 10
186.13353744527888
 20
303.02975919609418
 11
136.13353744527888
 21
253.02975919609418
  0
LINE
  8
_0-0_
  6
CONTINUOUS
 62
    7
 10
136.13353744527888
 20
253.02975919609418
 11
136.13353744527888
 21
226.02975919609418
  0
LINE
  8
_0-0_
  6
CONTINUOUS
 62
    7
 10
136.13353744527888
 20
226.02975919609418
 11
139.13353744527888
 21
223.02975919609418
  0
LINE
  8
_0-0_
  6
CONTINUOUS
 62
    7
 10
139.13353744527888
 20
223.02975919609418
 11
213.13353744527888
 21
223.02975919609418
  0
LINE
  8
_0-0_
  6
CONTINUOUS
 62
    7
 10
213.13353744527888
 20
223.02975919609418
 11
216.13353744527888
 21
226.02975919609418
  0
LINE
  8
_0-0_
  6
CONTINUOUS
 62
    7
 10
216.13353744527888
 20
226.02975919609418
 11
216.13353744527888
 21
300.02975919609395
  0
LINE
  8
_0-0_
  6
CONTINUOUS
 62
    7
 10
216.13353744527888
 20
300.02975919609395
 11
213.13353744527888
 21
303.02975919609418
  0
LINE
  8
_0-0_
  6
CONTINUOUS
 62
    7
 10
213.13353744527888
 20
180.67257910956192
 11
213.13353744527888
 21
177.67257910956238
  0
LINE
  8
_0-0_
  6
CONTINUOUS
 62
    7
 10
216.13353744527888
 20
177.67257910956238
 11
216.13353744527888
 21
180.67257910956192
  0
LINE
  8
_0-0_
  6
CONTINUOUS
 62
    7
 10
216.13353744527888
 20
180.67257910956192
 11
136.13353744527888
 21
180.67257910956192
  0
LINE
  8
_0-0_
  6
CONTINUOUS
 62
    7
 10
136.13353744527888
 20
180.67257910956192
 11
136.13353744527888
 21
177.67257910956238
  0
LINE
  8
_0-0_
  6
CONTINUOUS
 62
    7
 10
136.13353744527888
 20
177.67257910956238
 11
216.13353744527888
 21
177.67257910956238
  0
LINE
  8
_0-0_
  6
CONTINUOUS
 62
    7
 10
187.13353744527888
 20
177.67257910956238
 11
187.13353744527888
 21
161.37968910956221
  0
LINE
  8
_0-0_
  6
CONTINUOUS
 62
    7
 10
187.13353744527888
 20
161.37968910956221
 11
165.13353744527888
 21
161.37968910956221
  0
LINE
  8
_0-0_
  6
CONTINUOUS
 62
    7
 10
165.13353744527888
 20
161.37968910956221
 11
165.13353744527888
 21
177.67257910956238
  0
LINE
  8
_0-0_
  6
CONTINUOUS
 62
    7
 10
165.84064744527825
 20
160.67257910956192
 11
165.13353744527888
 21
161.37968910956221
  0
LINE
  8
_0-0_
  6
CONTINUOUS
 62
    7
 10
165.84064744527825
 20
160.67257910956192
 11
186.42643744527834
 21
160.67257910956192
  0
LINE
  8
_0-0_
  6
CONTINUOUS
 62
    7
 10
186.42643744527834
 20
160.67257910956192
 11
187.13353744527888
 21
161.37968910956221
  0
LINE
  8
_0-0_
  6
CONTINUOUS
 62
    7
 10
139.13353744527888
 20
177.67257910956238
 11
139.13353744527888
 21
180.67257910956192
  0
CIRCLE
  8
_0-0_
  6
CONTINUOUS
 62
    7
 10
206.13353744527888
 20
293.02975919609418
 40
3.25
  0
CIRCLE
  8
_0-0_
  6
CONTINUOUS
 62
    7
 10
206.13353744527888
 20
263.02975919609418
 40
3.25
  0
CIRCLE
  8
_0-0_
  6
CONTINUOUS
 62
    7
 10
176.13353744527888
 20
263.02975919609418
 40
10
  0
CIRCLE
  8
_0-0_
  6
CONTINUOUS
 62
    7
 10
176.13353744527888
 20
233.02975919609418
 40
3.25
  0
CIRCLE
  8
_0-0_
  6
CONTINUOUS
 62
    7
 10
206.13353744527888
 20
233.02975919609418
 40
3.25
  0
CIRCLE
  8
_0-0_
  6
CONTINUOUS
 62
    7
 10
146.13353744527888
 20
233.02975919609418
 40
3.25
  0
CIRCLE
  8
_0-0_
  6
CONTINUOUS
 62
    7
 10
176.13353744527888
 20
263.02975919609418
 40
5.1999998092651367
  0
LINE
  8
_0-0_
  6
CONTINUOUS
 62
    7
 10
466.13353744527802
 20
177.67257910956238
 11
386.13353744527797
 21
177.67257910956238
  0
LINE
  8
_0-0_
  6
CONTINUOUS
 62
    7
 10
386.13353744527797
 20
177.67257910956238
 11
386.13353744527797
 21
180.67257910956192
  0
LINE
  8
_0-0_
  6
CONTINUOUS
 62
    7
 10
386.13353744527797
 20
180.67257910956192
 11
466.13353744527802
 21
180.67257910956192
  0
LINE
  8
_0-0_
  6
CONTINUOUS
 62
    7
 10
466.13353744527802
 20
180.67257910956192
 11
466.13353744527802
 21
177.67257910956238
  0
LINE
  8
_0-0_
  6
CONTINUOUS
 62
    7
 10
463.13353744527802
 20
177.67257910956238
 11
463.13353744527802
 21
180.67257910956192
  0
LINE
  8
_0-0_
  6
CONTINUOUS
 62
    7
 10
437.13353744527797
 20
177.67257910956238
 11
437.13353744527797
 21
161.37968910956221
  0
LINE
  8
_0-0_
  6
CONTINUOUS
 62
    7
 10
437.13353744527797
 20
161.37968910956221
 11
436.42643744527834
 21
160.67257910956192
  0
LINE
  8
_0-0_
  6
CONTINUOUS
 62
    7
 10
436.42643744527834
 20
160.67257910956192
 11
415.84064744527825
 21
160.67257910956192
  0
LINE
  8
_0-0_
  6
CONTINUOUS
 62
    7
 10
415.84064744527825
 20
160.67257910956192
 11
415.13353744527797
 21
161.37968910956221
  0
LINE
  8
_0-0_
  6
CONTINUOUS
 62
    7
 10
415.13353744527797
 20
161.37968910956221
 11
415.13353744527797
 21
177.67257910956238
  0
LINE
  8
_0-0_
  6
CONTINUOUS
 62
    7
 10
437.13353744527797
 20
161.37968910956221
 11
415.13353744527797
 21
161.37968910956221
  0
LINE
  8
_0-0_
  6
CONTINUOUS
 62
    7
 10
389.13353744527797
 20
177.67257910956238
 11
389.13353744527797
 21
180.67257910956192
  0
LINE
  8
_0-0_
  6
CONTINUOUS
 62
    7
 10
389.13353744527797
 20
223.02975919609418
 11
386.13353744527797
 21
226.02975919609418
  0
LINE
  8
_0-0_
  6
CONTINUOUS
 62
    7
 10
386.13353744527797
 20
226.02975919609418
 11
386.13353744527797
 21
253.02975919609418
  0
LINE
  8
_0-0_
  6
CONTINUOUS
 62
    7
 10
386.13353744527797
 20
253.02975919609418
 11
436.13353744527797
 21
303.02975919609418
  0
LINE
  8
_0-0_
  6
CONTINUOUS
 62
    7
 10
436.13353744527797
 20
303.02975919609418
 11
463.13353744527802
 21
303.02975919609418
  0
LINE
  8
_0-0_
  6
CONTINUOUS
 62
    7
 10
463.13353744527802
 20
303.02975919609418
 11
466.13353744527802
 21
300.02975919609395
  0
LINE
  8
_0-0_
  6
CONTINUOUS
 62
    7
 10
466.13353744527802
 20
300.02975919609395
 11
466.13353744527802
 21
226.02975919609418
  0
LINE
  8
_0-0_
  6
CONTINUOUS
 62
    7
 10
466.13353744527802
 20
226.02975919609418
 11
463.13353744527802
 21
223.02975919609418
  0
LINE
  8
_0-0_
  6
CONTINUOUS
 62
    7
 10
463.13353744527802
 20
223.02975919609418
 11
389.13353744527797
 21
223.02975919609418
  0
CIRCLE
  8
_0-0_
  6
CONTINUOUS
 62
    7
 10
456.13353744527797
 20
293.02975919609418
 40
3.25
  0
CIRCLE
  8
_0-0_
  6
CONTINUOUS
 62
    7
 10
456.13353744527797
 20
263.02975919609418
 40
3.25
  0
CIRCLE
  8
_0-0_
  6
CONTINUOUS
 62
    7
 10
426.13353744527797
 20
263.02975919609418
 40
10
  0
CIRCLE
  8
_0-0_
  6
CONTINUOUS
 62
    7
 10
426.13353744527797
 20
263.02975919609418
 40
7.0000000000000009
  0
CIRCLE
  8
_0-0_
  6
CONTINUOUS
 62
    7
 10
426.13353744527797
 20
233.02975919609418
 40
3.25
  0
CIRCLE
  8
_0-0_
  6
CONTINUOUS
 62
    7
 10
456.13353744527797
 20
233.02975919609418
 40
3.25
  0
CIRCLE
  8
_0-0_
  6
CONTINUOUS
 62
    7
 10
396.13353744527797
 20
233.02975919609418
 40
3.25
  0
LINE
  8
_0-1_
  6
CENTER1
 62
  152
 10
51.133537445278876
 20
38.645703210973522
 11
51.133537445278876
 21
58.645703210973522
  0
LINE
  8
_0-1_
  6
CENTER1
 62
  152
 10
51.133537445278876
 20
75.39570321097375
 11
51.133537445278876
 21
81.895703210973522
  0
LINE
  8
_0-1_
  6
CENTER1
 62
  152
 10
47.883537445278876
 20
78.645703210973522
 11
54.383537445278876
 21
78.645703210973522
  0
LINE
  8
_0-1_
  6
CENTER1
 62
  152
 10
77.883537445278876
 20
78.645703210973522
 11
84.383537445278876
 21
78.645703210973522
  0
LINE
  8
_0-1_
  6
CENTER1
 62
  152
 10
81.133537445278876
 20
75.39570321097375
 11
81.133537445278876
 21
81.895703210973522
  0
LINE
  8
_0-1_
  6
CENTER1
 62
  152
 10
81.133537445278876
 20
51.895703210973522
 11
81.133537445278876
 21
45.39570321097375
  0
LINE
  8
_0-1_
  6
CENTER1
 62
  152
 10
84.383537445278876
 20
48.645703210973522
 11
77.883537445278876
 21
48.645703210973522
  0
LINE
  8
_0-1_
  6
CENTER1
 62
  152
 10
61.133537445278876
 20
48.645703210973522
 11
41.133537445278876
 21
48.645703210973522
  0
LINE
  8
_0-1_
  6
CENTER1
 62
  152
 10
17.883537445278989
 20
78.645703210973522
 11
24.383537445278989
 21
78.645703210973522
  0
LINE
  8
_0-1_
  6
CENTER1
 62
  152
 10
21.133537445278989
 20
75.39570321097375
 11
21.133537445278989
 21
81.895703210973522
  0
LINE
  8
_0-1_
  6
CENTER1
 62
  152
 10
81.133537445278876
 20
21.895703210973522
 11
81.133537445278876
 21
15.39570321097375
  0
LINE
  8
_0-1_
  6
CENTER1
 62
  152
 10
77.883537445278876
 20
18.645703210973522
 11
84.383537445278876
 21
18.645703210973522
  0
LINE
  8
_0-1_
  6
CONTINUOUS
 62
  152
 10
56.23353744527742
 20
136.07294796240791
 11
56.23353744527742
 21
161.21943798793706
  0
LINE
  8
_0-1_
  6
CONTINUOUS
 62
  152
 10
46.033537445278512
 20
136.07294796240791
 11
46.033537445278512
 21
161.21943798793706
  0
LINE
  8
_0-1_
  6
CENTER1
 62
  152
 10
51.133537445278876
 20
110.57294796240791
 11
51.133537445278876
 21
206.07294796240791
  0
LINE
  8
_0-1_
  6
CENTER1
 62
  152
 10
51.133537445278876
 20
229.77975919609418
 11
51.133537445278876
 21
236.27975919609395
  0
LINE
  8
_0-1_
  6
CENTER1
 62
  152
 10
47.883537445278876
 20
233.02975919609418
 11
54.383537445278876
 21
233.02975919609418
  0
LINE
  8
_0-1_
  6
CENTER1
 62
  152
 10
51.133537445278876
 20
253.02975919609418
 11
51.133537445278876
 21
273.02975919609418
  0
LINE
  8
_0-1_
  6
CENTER1
 62
  152
 10
61.133537445278876
 20
263.02975919609418
 11
41.133537445278876
 21
263.02975919609418
  0
LINE
  8
_0-1_
  6
CENTER1
 62
  152
 10
77.883537445278876
 20
263.02975919609418
 11
84.383537445278876
 21
263.02975919609418
  0
LINE
  8
_0-1_
  6
CENTER1
 62
  152
 10
81.133537445278876
 20
266.27975919609395
 11
81.133537445278876
 21
259.77975919609418
  0
LINE
  8
_0-1_
  6
CENTER1
 62
  152
 10
81.133537445278876
 20
236.27975919609395
 11
81.133537445278876
 21
229.77975919609418
  0
LINE
  8
_0-1_
  6
CENTER1
 62
  152
 10
77.883537445278876
 20
233.02975919609418
 11
84.383537445278876
 21
233.02975919609418
  0
LINE
  8
_0-1_
  6
CENTER1
 62
  152
 10
81.133537445278876
 20
289.77975919609418
 11
81.133537445278876
 21
296.27975919609395
  0
LINE
  8
_0-1_
  6
CENTER1
 62
  152
 10
77.883537445278876
 20
293.02975919609418
 11
84.383537445278876
 21
293.02975919609418
  0
LINE
  8
_0-1_
  6
CENTER1
 62
  152
 10
24.383537445278989
 20
233.02975919609418
 11
17.883537445278989
 21
233.02975919609418
  0
LINE
  8
_0-1_
  6
CENTER1
 62
  152
 10
21.133537445278989
 20
236.27975919609395
 11
21.133537445278989
 21
229.77975919609418
  0
CIRCLE
  8
_0-1_
  6
CONTINUOUS
 62
  152
 10
51.133537445278876
 20
263.02975919609418
 40
6
  0
LINE
  8
_0-1_
  6
CENTER1
 62
  152
 10
291.13353744527888
 20
48.645703210973522
 11
311.13353744527888
 21
48.645703210973522
  0
LINE
  8
_0-1_
  6
CENTER1
 62
  152
 10
327.88353744527888
 20
48.645703210973522
 11
334.38353744527888
 21
48.645703210973522
  0
LINE
  8
_0-1_
  6
CENTER1
 62
  152
 10
331.13353744527888
 20
45.39570321097375
 11
331.13353744527888
 21
51.895703210973522
  0
LINE
  8
_0-1_
  6
CENTER1
 62
  152
 10
331.13353744527888
 20
75.39570321097375
 11
331.13353744527888
 21
81.895703210973522
  0
LINE
  8
_0-1_
  6
CENTER1
 62
  152
 10
327.88353744527888
 20
78.645703210973522
 11
334.38353744527888
 21
78.645703210973522
  0
LINE
  8
_0-1_
  6
CENTER1
 62
  152
 10
304.38353744527888
 20
78.645703210973522
 11
297.88353744527888
 21
78.645703210973522
  0
LINE
  8
_0-1_
  6
CENTER1
 62
  152
 10
301.13353744527888
 20
75.39570321097375
 11
301.13353744527888
 21
81.895703210973522
  0
LINE
  8
_0-1_
  6
CENTER1
 62
  152
 10
301.13353744527888
 20
58.645703210973522
 11
301.13353744527888
 21
38.645703210973522
  0
LINE
  8
_0-1_
  6
CENTER1
 62
  152
 10
334.38353744527888
 20
18.645703210973522
 11
327.88353744527888
 21
18.645703210973522
  0
LINE
  8
_0-1_
  6
CENTER1
 62
  152
 10
331.13353744527888
 20
15.39570321097375
 11
331.13353744527888
 21
21.895703210973522
  0
LINE
  8
_0-1_
  6
CENTER1
 62
  152
 10
274.38353744527888
 20
78.645703210973522
 11
267.88353744527888
 21
78.645703210973522
  0
LINE
  8
_0-1_
  6
CENTER1
 62
  152
 10
271.13353744527888
 20
75.39570321097375
 11
271.13353744527888
 21
81.895703210973522
  0
LINE
  8
_0-1_
  6
CONTINUOUS
 62
  152
 10
294.03353744527851
 20
136.07294820082694
 11
294.03353744527851
 21
161.21943798793706
  0
LINE
  8
_0-1_
  6
CONTINUOUS
 62
  152
 10
308.23353744527742
 20
136.07294820082694
 11
308.23353744527742
 21
161.21943798793706
  0
LINE
  8
_0-1_
  6
CENTER1
 62
  152
 10
301.13353744527888
 20
108.57294820082694
 11
301.13353744527888
 21
206.07294820082694
  0
LINE
  8
_0-1_
  6
CENTER1
 62
  152
 10
267.88353744527797
 20
233.02975919609418
 11
274.38353744527797
 21
233.02975919609418
  0
LINE
  8
_0-1_
  6
CENTER1
 62
  152
 10
271.13353744527797
 20
236.27975919609395
 11
271.13353744527797
 21
229.77975919609418
  0
LINE
  8
_0-1_
  6
CENTER1
 62
  152
 10
297.88353744527797
 20
233.02975919609418
 11
304.38353744527797
 21
233.02975919609418
  0
LINE
  8
_0-1_
  6
CENTER1
 62
  152
 10
301.13353744527797
 20
236.27975919609395
 11
301.13353744527797
 21
229.77975919609418
  0
LINE
  8
_0-1_
  6
CENTER1
 62
  152
 10
301.13353744527797
 20
253.02975919609418
 11
301.13353744527797
 21
273.02975919609418
  0
LINE
  8
_0-1_
  6
CENTER1
 62
  152
 10
311.13353744527797
 20
263.02975919609418
 11
291.13353744527797
 21
263.02975919609418
  0
LINE
  8
_0-1_
  6
CENTER1
 62
  152
 10
327.88353744527797
 20
263.02975919609418
 11
334.38353744527797
 21
263.02975919609418
  0
LINE
  8
_0-1_
  6
CENTER1
 62
  152
 10
331.13353744527797
 20
266.27975919609395
 11
331.13353744527797
 21
259.77975919609418
  0
LINE
  8
_0-1_
  6
CENTER1
 62
  152
 10
331.13353744527797
 20
236.27975919609395
 11
331.13353744527797
 21
229.77975919609418
  0
LINE
  8
_0-1_
  6
CENTER1
 62
  152
 10
327.88353744527797
 20
233.02975919609418
 11
334.38353744527797
 21
233.02975919609418
  0
LINE
  8
_0-1_
  6
CENTER1
 62
  152
 10
331.13353744527797
 20
289.77975919609418
 11
331.13353744527797
 21
296.27975919609395
  0
LINE
  8
_0-1_
  6
CENTER1
 62
  152
 10
327.88353744527797
 20
293.02975919609418
 11
334.38353744527797
 21
293.02975919609418
  0
CIRCLE
  8
_0-1_
  6
CONTINUOUS
 62
  152
 10
301.13353744527797
 20
263.02975919609418
 40
8
  0
TEXT
  8
_0-e_
 62
    7
 10
11.133537445278989
 20
293.02975919609418
 40
5
 41
1
 50
0
  1
LS40-M12
  0
TEXT
  8
_0-e_
 62
    7
 10
261.13353744527797
 20
293.02975919609418
 40
5
 41
1
 50
0
  1
LS40-M16
  0
LINE
  8
_0-1_
  6
CENTER1
 62
  152
 10
209.38353744527888
 20
293.02975919609418
 11
202.88353744527888
 21
293.02975919609418
  0
LINE
  8
_0-1_
  6
CENTER1
 62
  152
 10
206.13353744527888
 20
296.27975919609395
 11
206.13353744527888
 21
289.77975919609418
  0
LINE
  8
_0-1_
  6
CENTER1
 62
  152
 10
206.13353744527888
 20
266.27975919609395
 11
206.13353744527888
 21
259.77975919609418
  0
LINE
  8
_0-1_
  6
CENTER1
 62
  152
 10
209.38353744527888
 20
263.02975919609418
 11
202.88353744527888
 21
263.02975919609418
  0
LINE
  8
_0-1_
  6
CENTER1
 62
  152
 10
186.13353744527888
 20
263.02975919609418
 11
166.13353744527888
 21
263.02975919609418
  0
LINE
  8
_0-1_
  6
CENTER1
 62
  152
 10
176.13353744527888
 20
253.02975919609418
 11
176.13353744527888
 21
273.02975919609418
  0
LINE
  8
_0-1_
  6
CENTER1
 62
  152
 10
176.13353744527888
 20
236.27975919609395
 11
176.13353744527888
 21
229.77975919609418
  0
LINE
  8
_0-1_
  6
CENTER1
 62
  152
 10
172.88353744527888
 20
233.02975919609418
 11
179.38353744527888
 21
233.02975919609418
  0
LINE
  8
_0-1_
  6
CENTER1
 62
  152
 10
202.88353744527888
 20
233.02975919609418
 11
209.38353744527888
 21
233.02975919609418
  0
LINE
  8
_0-1_
  6
CENTER1
 62
  152
 10
206.13353744527888
 20
236.27975919609395
 11
206.13353744527888
 21
229.77975919609418
  0
LINE
  8
_0-1_
  6
CENTER1
 62
  152
 10
176.13353744527888
 20
180.67257910956192
 11
176.13353744527888
 21
160.67257910956192
  0
LINE
  8
_0-1_
  6
CENTER1
 62
  152
 10
142.88353744527888
 20
233.02975919609418
 11
149.38353744527888
 21
233.02975919609418
  0
LINE
  8
_0-1_
  6
CENTER1
 62
  152
 10
146.13353744527888
 20
236.27975919609395
 11
146.13353744527888
 21
229.77975919609418
  0
CIRCLE
  8
_0-1_
  6
CONTINUOUS
 62
  152
 10
176.13353744527888
 20
263.02975919609418
 40
6
  0
TEXT
  8
_0-e_
 62
    7
 10
136.13353744527888
 20
293.02975919609418
 40
5
 41
1
 50
0
  1
LP40-M12
  0
LINE
  8
_0-1_
  6
CENTER1
 62
  152
 10
426.13353744527797
 20
180.67257910956192
 11
426.13353744527797
 21
160.67257910956192
  0
LINE
  8
_0-1_
  6
CENTER1
 62
  152
 10
392.88353744527797
 20
233.02975919609418
 11
399.38353744527797
 21
233.02975919609418
  0
LINE
  8
_0-1_
  6
CENTER1
 62
  152
 10
396.13353744527797
 20
236.27975919609395
 11
396.13353744527797
 21
229.77975919609418
  0
LINE
  8
_0-1_
  6
CENTER1
 62
  152
 10
422.88353744527797
 20
233.02975919609418
 11
429.38353744527797
 21
233.02975919609418
  0
LINE
  8
_0-1_
  6
CENTER1
 62
  152
 10
426.13353744527797
 20
236.27975919609395
 11
426.13353744527797
 21
229.77975919609418
  0
LINE
  8
_0-1_
  6
CENTER1
 62
  152
 10
426.13353744527797
 20
253.02975919609418
 11
426.13353744527797
 21
273.02975919609418
  0
LINE
  8
_0-1_
  6
CENTER1
 62
  152
 10
436.13353744527797
 20
263.02975919609418
 11
416.13353744527797
 21
263.02975919609418
  0
LINE
  8
_0-1_
  6
CENTER1
 62
  152
 10
452.88353744527797
 20
263.02975919609418
 11
459.38353744527802
 21
263.02975919609418
  0
LINE
  8
_0-1_
  6
CENTER1
 62
  152
 10
456.13353744527797
 20
266.27975919609395
 11
456.13353744527797
 21
259.77975919609418
  0
LINE
  8
_0-1_
  6
CENTER1
 62
  152
 10
456.13353744527797
 20
236.27975919609395
 11
456.13353744527797
 21
229.77975919609418
  0
LINE
  8
_0-1_
  6
CENTER1
 62
  152
 10
452.88353744527797
 20
233.02975919609418
 11
459.38353744527802
 21
233.02975919609418
  0
LINE
  8
_0-1_
  6
CENTER1
 62
  152
 10
456.13353744527797
 20
289.77975919609418
 11
456.13353744527797
 21
296.27975919609395
  0
LINE
  8
_0-1_
  6
CENTER1
 62
  152
 10
452.88353744527797
 20
293.02975919609418
 11
459.38353744527802
 21
293.02975919609418
  0
CIRCLE
  8
_0-1_
  6
CONTINUOUS
 62
  152
 10
426.13353744527797
 20
263.02975919609418
 40
8
  0
TEXT
  8
_0-e_
 62
    7
 10
386.13353744527797
 20
293.02975919609418
 40
5
 41
1
 50
0
  1
LP40-M16
  0
LINE
  8
_0-1_
  6
CENTER1
 62
  152
 10
21.133537445278989
 20
185.30047983903754
 11
21.133537445278989
 21
174.52983813506248
  0
LINE
  8
_0-1_
  6
CENTER1
 62
  152
 10
81.133537445278989
 20
185.30047983903754
 11
81.133537445278989
 21
174.52983813506248
  0
LINE
  8
_0-2_
  6
CONTINUOUS
 62
  152
 10
76.758537445278989
 20
171.31943801177937
 11
76.758537445278989
 21
176.71943798793751
  0
LINE
  8
_0-2_
  6
CONTINUOUS
 62
  152
 10
79.258537445278989
 20
171.31943801177937
 11
79.258537445278989
 21
176.71943798793751
  0
LINE
  8
_0-2_
  6
CONTINUOUS
 62
  152
 10
78.633537445278989
 20
171.31943801177937
 11
78.633537445278989
 21
176.71943798793751
  0
LINE
  8
_0-2_
  6
CONTINUOUS
 62
  152
 10
78.008537445278989
 20
171.31943801177937
 11
78.008537445278989
 21
176.71943798793751
  0
LINE
  8
_0-2_
  6
CONTINUOUS
 62
  152
 10
77.383537445278989
 20
171.31943801177937
 11
77.383537445278989
 21
176.71943798793751
  0
LINE
  8
_0-2_
  6
CONTINUOUS
 62
   56
 10
86.133537445278989
 20
171.31943801177937
 11
85.533537540646421
 21
170.71943798793751
  0
LINE
  8
_0-2_
  6
CONTINUOUS
 62
   56
 10
76.733537349911558
 20
170.71943798793751
 11
85.533537540646421
 21
170.71943798793751
  0
LINE
  8
_0-2_
  6
CONTINUOUS
 62
   56
 10
76.733537349911558
 20
170.71943798793751
 11
76.133537445278989
 21
171.31943801177937
  0
LINE
  8
_0-2_
  6
CONTINUOUS
 62
   56
 10
86.133537445278989
 20
171.31943801177937
 11
76.133537445278989
 21
171.31943801177937
  0
LINE
  8
_0-2_
  6
CONTINUOUS
 62
   56
 10
86.133537445278989
 20
176.71943798793751
 11
76.133537445278989
 21
176.71943798793751
  0
LINE
  8
_0-2_
  6
CONTINUOUS
 62
   56
 10
86.133537445278989
 20
171.31943801177937
 11
86.133537445278989
 21
178.21943798793751
  0
LINE
  8
_0-2_
  6
CONTINUOUS
 62
   56
 10
76.133537445278989
 20
171.31943801177937
 11
76.133537445278989
 21
178.21943798793751
  0
LINE
  8
_0-2_
  6
CONTINUOUS
 62
   56
 10
84.133537445278989
 20
188.26943722499806
 11
83.683537397595273
 21
188.71943798793751
  0
LINE
  8
_0-2_
  6
CONTINUOUS
 62
   56
 10
78.583537492962705
 20
188.71943798793751
 11
83.683537397595273
 21
188.71943798793751
  0
LINE
  8
_0-2_
  6
CONTINUOUS
 62
   56
 10
78.583537492962705
 20
188.71943798793751
 11
78.133537445278989
 21
188.26943722499806
  0
LINE
  8
_0-2_
  6
CONTINUOUS
 62
   56
 10
84.133537445278989
 20
188.26943722499806
 11
78.133537445278989
 21
188.26943722499806
  0
LINE
  8
ADD_LINE
  6
DOT
 62
    9
 10
81.133537445278989
 20
178.21943798793751
 11
81.840644226465656
 21
178.92654476912406
  0
LINE
  8
ADD_LINE
  6
DOT
 62
    9
 10
81.133537445278989
 20
178.21943798793751
 11
80.426430664092322
 21
178.92654476912406
  0
LINE
  8
_0-2_
  6
CONTINUOUS
 62
   56
 10
80.700524751158582
 20
178.21943798793751
 11
81.566550139399396
 21
176.71943798793751
  0
LINE
  8
_0-2_
  6
CONTINUOUS
 62
    7
 10
76.293605683241594
 20
182.27586011656325
 11
76.150934978775467
 21
183.90659373068473
  0
LINE
  8
_0-2_
  6
CONTINUOUS
 62
    7
 10
75.154740280683427
 20
184.81943798793708
 11
74.833537445278807
 21
184.81943798793708
  0
LINE
  8
_0-2_
  6
CONTINUOUS
 62
    7
 10
74.35057453213426
 20
185.44884751048829
 11
74.537786889078006
 21
186.147533538407
  0
LINE
  8
_0-2_
  6
CONTINUOUS
 62
    7
 10
74.770749802222554
 20
186.45113671774783
 11
77.137385022572062
 21
187.81751419929031
  0
LINE
  8
_0-2_
  6
CONTINUOUS
 62
    7
 10
78.637385022572062
 20
188.21943798793717
 11
83.629689867985462
 21
188.21943798793717
  0
LINE
  8
_0-2_
  6
CONTINUOUS
 62
    7
 10
85.129689867985462
 20
187.81751419929031
 11
87.49632508833497
 21
186.45113671774783
  0
LINE
  8
_0-2_
  6
CONTINUOUS
 62
    7
 10
87.729288001479517
 20
186.147533538407
 11
87.916500358423264
 21
185.44884751048829
  0
LINE
  8
_0-2_
  6
CONTINUOUS
 62
    7
 10
87.433537445278716
 20
184.81943798793708
 11
87.112334609874097
 21
184.81943798793708
  0
LINE
  8
_0-2_
  6
CONTINUOUS
 62
    7
 10
86.116139911782057
 20
183.90659373068473
 11
85.973469207315929
 21
182.27586011656325
  0
LINE
  8
_0-2_
  6
CONTINUOUS
 62
    7
 10
85.475371858269909
 20
181.81943798793708
 11
76.791703032287614
 21
181.81943798793708
  0
ARC
  8
_0-2_
  6
CONTINUOUS
 62
    7
 10
85.475371858269909
 20
182.31943798793708
 40
0.5
 50
270
 51
355
  0
ARC
  8
_0-2_
  6
CONTINUOUS
 62
    7
 10
87.112334609874097
 20
183.81943798793708
 40
1
 50
90
 51
175.00000000000006
  0
ARC
  8
_0-2_
  6
CONTINUOUS
 62
    7
 10
87.433537445278716
 20
185.31943798793708
 40
0.5
 50
270
 51
318.59270234267069
  0
ARC
  8
_0-2_
  6
CONTINUOUS
 62
    7
 10
87.433537445278716
 20
185.31943798793708
 40
0.5
 50
318.59270234267069
 51
15.000000000000014
  0
ARC
  8
_0-2_
  6
CONTINUOUS
 62
    7
 10
87.24632508833497
 20
186.01812401585556
 40
0.5
 50
14.999999999999982
 51
59.999999999999986
  0
ARC
  8
_0-2_
  6
CONTINUOUS
 62
    7
 10
83.629689867985462
 20
185.21943798793717
 40
3
 50
59.999999999999929
 51
89.999999999999986
  0
ARC
  8
_0-2_
  6
CONTINUOUS
 62
    7
 10
76.791703032287614
 20
182.31943798793708
 40
0.5
 50
185
 51
270
  0
ARC
  8
_0-2_
  6
CONTINUOUS
 62
    7
 10
75.154740280683427
 20
183.81943798793708
 40
1
 50
4.9999999999999432
 51
90
  0
ARC
  8
_0-2_
  6
CONTINUOUS
 62
    7
 10
74.833537445278807
 20
185.31943798793708
 40
0.5
 50
221.40729765732931
 51
270
  0
ARC
  8
_0-2_
  6
CONTINUOUS
 62
    7
 10
74.833537445278807
 20
185.31943798793708
 40
0.5
 50
165.00000000000003
 51
221.40729765732931
  0
ARC
  8
_0-2_
  6
CONTINUOUS
 62
    7
 10
75.020749802222554
 20
186.01812401585556
 40
0.5
 50
119.99999999999999
 51
164.99999999999997
  0
ARC
  8
_0-2_
  6
CONTINUOUS
 62
    7
 10
78.637385022572062
 20
185.21943798793717
 40
3
 50
90.000000000000028
 51
120.00000000000007
  0
LINE
  8
_0-2_
  6
CENTER2
 62
  152
 10
81.133537445278989
 20
181.21943798793706
 11
81.133537445278989
 21
188.21943798793717
  0
LINE
  8
_0-2_
  6
CONTINUOUS
 62
   56
 10
78.133537445278989
 20
188.26943722499806
 11
78.133537445278989
 21
188.17682494585389
  0
LINE
  8
_0-2_
  6
CONTINUOUS
 62
  152
 10
78.583537492962705
 20
188.71943798793751
 11
78.583537492962705
 21
188.21895468960011
  0
LINE
  8
_0-2_
  6
CONTINUOUS
 62
  152
 10
83.683537397595273
 20
188.21895468960011
 11
83.683537397595273
 21
188.71943798793751
  0
LINE
  8
_0-2_
  6
CONTINUOUS
 62
   56
 10
84.133537445278989
 20
188.26943722499806
 11
84.133537445278989
 21
188.17682494585381
  0
LINE
  8
_0-2_
  6
CONTINUOUS
 62
   56
 10
78.133537445278989
 20
181.81943798793708
 11
78.133537445278989
 21
181.21943798793706
  0
LINE
  8
_0-2_
  6
CONTINUOUS
 62
  152
 10
78.583537492962705
 20
181.81943798793708
 11
78.583537492962705
 21
181.21943798793706
  0
LINE
  8
_0-2_
  6
CONTINUOUS
 62
  152
 10
83.683537397595273
 20
181.21943798793706
 11
83.683537397595273
 21
181.81943798793708
  0
LINE
  8
_0-2_
  6
CONTINUOUS
 62
   56
 10
84.133537445278989
 20
181.81943798793708
 11
84.133537445278989
 21
181.21943798793706
  0
LINE
  8
_0-2_
  6
CONTINUOUS
 62
    7
 10
58.633537445278989
 20
181.81943798793708
 11
13.633537445278989
 21
181.81943798793708
  0
LINE
  8
_0-2_
  6
CONTINUOUS
 62
    7
 10
58.633537445278989
 20
184.81943798793708
 11
13.633537445278989
 21
184.81943798793708
  0
LINE
  8
_0-2_
  6
CONTINUOUS
 62
    7
 10
58.633537445278989
 20
188.21943798793708
 11
58.633537445278989
 21
181.81943798793708
  0
LINE
  8
_0-2_
  6
CONTINUOUS
 62
    7
 10
58.633537445278989
 20
188.21943798793708
 11
13.633537445278989
 21
188.21943798793708
  0
LINE
  8
_0-2_
  6
CONTINUOUS
 62
    7
 10
13.633537445278989
 20
188.21943798793708
 11
13.633537445278989
 21
181.81943798793708
  0
LINE
  8
_0-2_
  6
CONTINUOUS
 62
  152
 10
46.758537445278876
 20
171.31943801177937
 11
46.758537445278876
 21
176.71943798793751
  0
LINE
  8
_0-2_
  6
CONTINUOUS
 62
  152
 10
49.258537445278876
 20
171.31943801177937
 11
49.258537445278876
 21
176.71943798793751
  0
LINE
  8
_0-2_
  6
CONTINUOUS
 62
  152
 10
48.633537445278876
 20
171.31943801177937
 11
48.633537445278876
 21
176.71943798793751
  0
LINE
  8
_0-2_
  6
CONTINUOUS
 62
  152
 10
48.008537445278876
 20
171.31943801177937
 11
48.008537445278876
 21
176.71943798793751
  0
LINE
  8
_0-2_
  6
CONTINUOUS
 62
  152
 10
47.383537445278876
 20
171.31943801177937
 11
47.383537445278876
 21
176.71943798793751
  0
LINE
  8
_0-2_
  6
CONTINUOUS
 62
   56
 10
56.133537445278876
 20
171.31943801177937
 11
55.533537540646307
 21
170.71943798793751
  0
LINE
  8
_0-2_
  6
CONTINUOUS
 62
   56
 10
46.733537349911444
 20
170.71943798793751
 11
55.533537540646307
 21
170.71943798793751
  0
LINE
  8
_0-2_
  6
CONTINUOUS
 62
   56
 10
46.733537349911444
 20
170.71943798793751
 11
46.133537445278876
 21
171.31943801177937
  0
LINE
  8
_0-2_
  6
CONTINUOUS
 62
   56
 10
56.133537445278876
 20
171.31943801177937
 11
46.133537445278876
 21
171.31943801177937
  0
LINE
  8
_0-2_
  6
CONTINUOUS
 62
   56
 10
56.133537445278876
 20
176.71943798793751
 11
46.133537445278876
 21
176.71943798793751
  0
LINE
  8
_0-2_
  6
CONTINUOUS
 62
   56
 10
56.133537445278876
 20
171.31943801177937
 11
56.133537445278876
 21
178.21943798793751
  0
LINE
  8
_0-2_
  6
CONTINUOUS
 62
   56
 10
46.133537445278876
 20
171.31943801177937
 11
46.133537445278876
 21
178.21943798793751
  0
LINE
  8
_0-2_
  6
CONTINUOUS
 62
   56
 10
54.133537445278876
 20
188.26943722499806
 11
53.68353739759516
 21
188.71943798793751
  0
LINE
  8
_0-2_
  6
CONTINUOUS
 62
   56
 10
48.583537492962591
 20
188.71943798793751
 11
53.68353739759516
 21
188.71943798793751
  0
LINE
  8
_0-2_
  6
CONTINUOUS
 62
   56
 10
48.583537492962591
 20
188.71943798793751
 11
48.133537445278876
 21
188.26943722499806
  0
LINE
  8
_0-2_
  6
CONTINUOUS
 62
   56
 10
54.133537445278876
 20
188.26943722499806
 11
48.133537445278876
 21
188.26943722499806
  0
LINE
  8
ADD_LINE
  6
DOT
 62
    9
 10
51.133537445278876
 20
178.21943798793751
 11
51.840644226465542
 21
178.92654476912406
  0
LINE
  8
ADD_LINE
  6
DOT
 62
    9
 10
51.133537445278876
 20
178.21943798793751
 11
50.426430664092209
 21
178.92654476912406
  0
LINE
  8
_0-2_
  6
CONTINUOUS
 62
   56
 10
50.700524751158468
 20
178.21943798793751
 11
51.566550139399283
 21
176.71943798793751
  0
LINE
  8
_0-2_
  6
CONTINUOUS
 62
   56
 10
48.133537445278876
 20
188.26943722499806
 11
48.133537445278876
 21
188.17682494585389
  0
LINE
  8
_0-2_
  6
CONTINUOUS
 62
  152
 10
48.583537492962591
 20
188.71943798793751
 11
48.583537492962591
 21
188.21895468960011
  0
LINE
  8
_0-2_
  6
CONTINUOUS
 62
  152
 10
53.68353739759516
 20
188.21895468960011
 11
53.68353739759516
 21
188.71943798793751
  0
LINE
  8
_0-2_
  6
CONTINUOUS
 62
   56
 10
54.133537445278876
 20
188.26943722499806
 11
54.133537445278876
 21
188.17682494585381
  0
LINE
  8
_0-2_
  6
CONTINUOUS
 62
   56
 10
48.133537445278876
 20
181.81943798793708
 11
48.133537445278876
 21
181.21943798793706
  0
LINE
  8
_0-2_
  6
CONTINUOUS
 62
  152
 10
48.583537492962591
 20
181.81943798793708
 11
48.583537492962591
 21
181.21943798793706
  0
LINE
  8
_0-2_
  6
CONTINUOUS
 62
  152
 10
53.68353739759516
 20
181.21943798793706
 11
53.68353739759516
 21
181.81943798793708
  0
LINE
  8
_0-2_
  6
CONTINUOUS
 62
   56
 10
54.133537445278876
 20
181.81943798793708
 11
54.133537445278876
 21
181.21943798793706
  0
LINE
  8
_0-2_
  6
CONTINUOUS
 62
  152
 10
16.758537445278989
 20
171.31943801177937
 11
16.758537445278989
 21
176.71943798793751
  0
LINE
  8
_0-2_
  6
CONTINUOUS
 62
  152
 10
19.258537445278989
 20
171.31943801177937
 11
19.258537445278989
 21
176.71943798793751
  0
LINE
  8
_0-2_
  6
CONTINUOUS
 62
  152
 10
18.633537445278989
 20
171.31943801177937
 11
18.633537445278989
 21
176.71943798793751
  0
LINE
  8
_0-2_
  6
CONTINUOUS
 62
  152
 10
18.008537445278989
 20
171.31943801177937
 11
18.008537445278989
 21
176.71943798793751
  0
LINE
  8
_0-2_
  6
CONTINUOUS
 62
  152
 10
17.383537445278989
 20
171.31943801177937
 11
17.383537445278989
 21
176.71943798793751
  0
LINE
  8
_0-2_
  6
CONTINUOUS
 62
   56
 10
26.133537445278989
 20
171.31943801177937
 11
25.533537540646421
 21
170.71943798793751
  0
LINE
  8
_0-2_
  6
CONTINUOUS
 62
   56
 10
16.733537349911558
 20
170.71943798793751
 11
25.533537540646421
 21
170.71943798793751
  0
LINE
  8
_0-2_
  6
CONTINUOUS
 62
   56
 10
16.733537349911558
 20
170.71943798793751
 11
16.133537445278989
 21
171.31943801177937
  0
LINE
  8
_0-2_
  6
CONTINUOUS
 62
   56
 10
26.133537445278989
 20
171.31943801177937
 11
16.133537445278989
 21
171.31943801177937
  0
LINE
  8
_0-2_
  6
CONTINUOUS
 62
   56
 10
26.133537445278989
 20
176.71943798793751
 11
16.133537445278989
 21
176.71943798793751
  0
LINE
  8
_0-2_
  6
CONTINUOUS
 62
   56
 10
26.133537445278989
 20
171.31943801177937
 11
26.133537445278989
 21
178.21943798793751
  0
LINE
  8
_0-2_
  6
CONTINUOUS
 62
   56
 10
16.133537445278989
 20
171.31943801177937
 11
16.133537445278989
 21
178.21943798793751
  0
LINE
  8
_0-2_
  6
CONTINUOUS
 62
   56
 10
24.133537445278989
 20
188.26943722499806
 11
23.683537397595273
 21
188.71943798793751
  0
LINE
  8
_0-2_
  6
CONTINUOUS
 62
   56
 10
18.583537492962705
 20
188.71943798793751
 11
23.683537397595273
 21
188.71943798793751
  0
LINE
  8
_0-2_
  6
CONTINUOUS
 62
   56
 10
18.583537492962705
 20
188.71943798793751
 11
18.133537445278989
 21
188.26943722499806
  0
LINE
  8
_0-2_
  6
CONTINUOUS
 62
   56
 10
24.133537445278989
 20
188.26943722499806
 11
18.133537445278989
 21
188.26943722499806
  0
LINE
  8
ADD_LINE
  6
DOT
 62
    9
 10
21.133537445278989
 20
178.21943798793751
 11
21.840644226465656
 21
178.92654476912406
  0
LINE
  8
ADD_LINE
  6
DOT
 62
    9
 10
21.133537445278989
 20
178.21943798793751
 11
20.426430664092322
 21
178.92654476912406
  0
LINE
  8
_0-2_
  6
CONTINUOUS
 62
   56
 10
20.700524751158582
 20
178.21943798793751
 11
21.566550139399396
 21
176.71943798793751
  0
LINE
  8
_0-2_
  6
CONTINUOUS
 62
   56
 10
18.133537445278989
 20
188.26943722499806
 11
18.133537445278989
 21
188.17682494585389
  0
LINE
  8
_0-2_
  6
CONTINUOUS
 62
  152
 10
18.583537492962705
 20
188.71943798793751
 11
18.583537492962705
 21
188.21895468960011
  0
LINE
  8
_0-2_
  6
CONTINUOUS
 62
  152
 10
23.683537397595273
 20
188.21895468960011
 11
23.683537397595273
 21
188.71943798793751
  0
LINE
  8
_0-2_
  6
CONTINUOUS
 62
   56
 10
24.133537445278989
 20
188.26943722499806
 11
24.133537445278989
 21
188.17682494585381
  0
LINE
  8
_0-2_
  6
CONTINUOUS
 62
   56
 10
18.133537445278989
 20
181.81943798793708
 11
18.133537445278989
 21
181.21943798793706
  0
LINE
  8
_0-2_
  6
CONTINUOUS
 62
  152
 10
18.583537492962705
 20
181.81943798793708
 11
18.583537492962705
 21
181.21943798793706
  0
LINE
  8
_0-2_
  6
CONTINUOUS
 62
  152
 10
23.683537397595273
 20
181.21943798793706
 11
23.683537397595273
 21
181.81943798793708
  0
LINE
  8
_0-2_
  6
CONTINUOUS
 62
   56
 10
24.133537445278989
 20
181.81943798793708
 11
24.133537445278989
 21
181.21943798793706
  0
LINE
  8
_0-2_
  6
CONTINUOUS
 62
   56
 10
23.633537445278989
 20
77.202327504300854
 11
23.633537445278989
 21
80.089078917646191
  0
LINE
  8
_0-2_
  6
CONTINUOUS
 62
   56
 10
23.633537445278989
 20
80.089078917646191
 11
21.133537445278989
 21
81.532454624318859
  0
LINE
  8
_0-2_
  6
CONTINUOUS
 62
   56
 10
21.133537445278989
 20
81.532454624318859
 11
18.633537445278989
 21
80.089078917646191
  0
LINE
  8
_0-2_
  6
CONTINUOUS
 62
   56
 10
18.633537445278989
 20
80.089078917646191
 11
18.633537445278989
 21
77.202327504300854
  0
LINE
  8
_0-2_
  6
CONTINUOUS
 62
   56
 10
18.633537445278989
 20
77.202327504300854
 11
21.133537445278989
 21
75.758951797628185
  0
LINE
  8
_0-2_
  6
CONTINUOUS
 62
   56
 10
21.133537445278989
 20
75.758951797628185
 11
23.633537445278989
 21
77.202327504300854
  0
CIRCLE
  8
_0-2_
  6
CONTINUOUS
 62
   56
 10
21.133537445278989
 20
78.645703210973522
 40
5
  0
LINE
  8
_0-2_
  6
CONTINUOUS
 62
   56
 10
53.633537445278876
 20
77.202327504300854
 11
53.633537445278876
 21
80.089078917646191
  0
LINE
  8
_0-2_
  6
CONTINUOUS
 62
   56
 10
53.633537445278876
 20
80.089078917646191
 11
51.133537445278876
 21
81.532454624318859
  0
LINE
  8
_0-2_
  6
CONTINUOUS
 62
   56
 10
51.133537445278876
 20
81.532454624318859
 11
48.633537445278876
 21
80.089078917646191
  0
LINE
  8
_0-2_
  6
CONTINUOUS
 62
   56
 10
48.633537445278876
 20
80.089078917646191
 11
48.633537445278876
 21
77.202327504300854
  0
LINE
  8
_0-2_
  6
CONTINUOUS
 62
   56
 10
48.633537445278876
 20
77.202327504300854
 11
51.133537445278876
 21
75.758951797628185
  0
LINE
  8
_0-2_
  6
CONTINUOUS
 62
   56
 10
51.133537445278876
 20
75.758951797628185
 11
53.633537445278876
 21
77.202327504300854
  0
CIRCLE
  8
_0-2_
  6
CONTINUOUS
 62
   56
 10
51.133537445278876
 20
78.645703210973522
 40
5
  0
LINE
  8
_0-2_
  6
CONTINUOUS
 62
   56
 10
83.633537445278876
 20
47.202327504300854
 11
83.633537445278876
 21
50.089078917646191
  0
LINE
  8
_0-2_
  6
CONTINUOUS
 62
   56
 10
83.633537445278876
 20
50.089078917646191
 11
81.133537445278876
 21
51.532454624318859
  0
LINE
  8
_0-2_
  6
CONTINUOUS
 62
   56
 10
81.133537445278876
 20
51.532454624318859
 11
78.633537445278876
 21
50.089078917646191
  0
LINE
  8
_0-2_
  6
CONTINUOUS
 62
   56
 10
78.633537445278876
 20
50.089078917646191
 11
78.633537445278876
 21
47.202327504300854
  0
LINE
  8
_0-2_
  6
CONTINUOUS
 62
   56
 10
78.633537445278876
 20
47.202327504300854
 11
81.133537445278876
 21
45.758951797628185
  0
LINE
  8
_0-2_
  6
CONTINUOUS
 62
   56
 10
81.133537445278876
 20
45.758951797628185
 11
83.633537445278876
 21
47.202327504300854
  0
CIRCLE
  8
_0-2_
  6
CONTINUOUS
 62
   56
 10
81.133537445278876
 20
48.645703210973522
 40
5
  0
LINE
  8
_0-2_
  6
CONTINUOUS
 62
   56
 10
83.633537445278876
 20
17.202327504300854
 11
83.633537445278876
 21
20.089078917646191
  0
LINE
  8
_0-2_
  6
CONTINUOUS
 62
   56
 10
83.633537445278876
 20
20.089078917646191
 11
81.133537445278876
 21
21.532454624318859
  0
LINE
  8
_0-2_
  6
CONTINUOUS
 62
   56
 10
81.133537445278876
 20
21.532454624318859
 11
78.633537445278876
 21
20.089078917646191
  0
LINE
  8
_0-2_
  6
CONTINUOUS
 62
   56
 10
78.633537445278876
 20
20.089078917646191
 11
78.633537445278876
 21
17.202327504300854
  0
LINE
  8
_0-2_
  6
CONTINUOUS
 62
   56
 10
78.633537445278876
 20
17.202327504300854
 11
81.133537445278876
 21
15.758951797628185
  0
LINE
  8
_0-2_
  6
CONTINUOUS
 62
   56
 10
81.133537445278876
 20
15.758951797628185
 11
83.633537445278876
 21
17.202327504300854
  0
CIRCLE
  8
_0-2_
  6
CONTINUOUS
 62
   56
 10
81.133537445278876
 20
18.645703210973522
 40
5
  0
LINE
  8
_0-2_
  6
CONTINUOUS
 62
  152
 10
326.75853744527899
 20
171.31943801177937
 11
326.75853744527899
 21
176.71943798793751
  0
LINE
  8
_0-2_
  6
CONTINUOUS
 62
  152
 10
329.25853744527899
 20
171.31943801177937
 11
329.25853744527899
 21
176.71943798793751
  0
LINE
  8
_0-2_
  6
CONTINUOUS
 62
  152
 10
328.63353744527899
 20
171.31943801177937
 11
328.63353744527899
 21
176.71943798793751
  0
LINE
  8
_0-2_
  6
CONTINUOUS
 62
  152
 10
328.00853744527899
 20
171.31943801177937
 11
328.00853744527899
 21
176.71943798793751
  0
LINE
  8
_0-2_
  6
CONTINUOUS
 62
  152
 10
327.38353744527899
 20
171.31943801177937
 11
327.38353744527899
 21
176.71943798793751
  0
LINE
  8
_0-2_
  6
CONTINUOUS
 62
   56
 10
336.13353744527899
 20
171.31943801177937
 11
335.53353754064642
 21
170.71943798793751
  0
LINE
  8
_0-2_
  6
CONTINUOUS
 62
   56
 10
326.73353734991156
 20
170.71943798793751
 11
335.53353754064642
 21
170.71943798793751
  0
LINE
  8
_0-2_
  6
CONTINUOUS
 62
   56
 10
326.73353734991156
 20
170.71943798793751
 11
326.13353744527899
 21
171.31943801177937
  0
LINE
  8
_0-2_
  6
CONTINUOUS
 62
   56
 10
336.13353744527899
 20
171.31943801177937
 11
326.13353744527899
 21
171.31943801177937
  0
LINE
  8
_0-2_
  6
CONTINUOUS
 62
   56
 10
336.13353744527899
 20
176.71943798793751
 11
326.13353744527899
 21
176.71943798793751
  0
LINE
  8
_0-2_
  6
CONTINUOUS
 62
   56
 10
336.13353744527899
 20
171.31943801177937
 11
336.13353744527899
 21
178.21943798793751
  0
LINE
  8
_0-2_
  6
CONTINUOUS
 62
   56
 10
326.13353744527899
 20
171.31943801177937
 11
326.13353744527899
 21
178.21943798793751
  0
LINE
  8
_0-2_
  6
CONTINUOUS
 62
   56
 10
334.13353744527899
 20
188.26943722499806
 11
333.68353739759527
 21
188.71943798793751
  0
LINE
  8
_0-2_
  6
CONTINUOUS
 62
   56
 10
328.58353749296271
 20
188.71943798793751
 11
333.68353739759527
 21
188.71943798793751
  0
LINE
  8
_0-2_
  6
CONTINUOUS
 62
   56
 10
328.58353749296271
 20
188.71943798793751
 11
328.13353744527899
 21
188.26943722499806
  0
LINE
  8
_0-2_
  6
CONTINUOUS
 62
   56
 10
334.13353744527899
 20
188.26943722499806
 11
328.13353744527899
 21
188.26943722499806
  0
LINE
  8
ADD_LINE
  6
DOT
 62
    9
 10
331.13353744527899
 20
178.21943798793751
 11
331.84064422646566
 21
178.92654476912406
  0
LINE
  8
ADD_LINE
  6
DOT
 62
    9
 10
331.13353744527899
 20
178.21943798793751
 11
330.42643066409232
 21
178.92654476912406
  0
LINE
  8
_0-2_
  6
CONTINUOUS
 62
   56
 10
330.70052475115858
 20
178.21943798793751
 11
331.5665501393994
 21
176.71943798793751
  0
LINE
  8
_0-2_
  6
CONTINUOUS
 62
    7
 10
326.29360568324159
 20
182.27586011656325
 11
326.15093497877547
 21
183.90659373068473
  0
LINE
  8
_0-2_
  6
CONTINUOUS
 62
    7
 10
325.15474028068343
 20
184.81943798793708
 11
324.83353744527881
 21
184.81943798793708
  0
LINE
  8
_0-2_
  6
CONTINUOUS
 62
    7
 10
324.35057453213426
 20
185.44884751048829
 11
324.53778688907801
 21
186.147533538407
  0
LINE
  8
_0-2_
  6
CONTINUOUS
 62
    7
 10
324.77074980222255
 20
186.45113671774783
 11
327.13738502257206
 21
187.81751419929031
  0
LINE
  8
_0-2_
  6
CONTINUOUS
 62
    7
 10
328.63738502257206
 20
188.21943798793717
 11
333.62968986798546
 21
188.21943798793717
  0
LINE
  8
_0-2_
  6
CONTINUOUS
 62
    7
 10
335.12968986798546
 20
187.81751419929031
 11
337.49632508833497
 21
186.45113671774783
  0
LINE
  8
_0-2_
  6
CONTINUOUS
 62
    7
 10
337.72928800147952
 20
186.147533538407
 11
337.91650035842326
 21
185.44884751048829
  0
LINE
  8
_0-2_
  6
CONTINUOUS
 62
    7
 10
337.43353744527872
 20
184.81943798793708
 11
337.1123346098741
 21
184.81943798793708
  0
LINE
  8
_0-2_
  6
CONTINUOUS
 62
    7
 10
336.11613991178206
 20
183.90659373068473
 11
335.97346920731593
 21
182.27586011656325
  0
LINE
  8
_0-2_
  6
CONTINUOUS
 62
    7
 10
335.47537185826991
 20
181.81943798793708
 11
326.79170303228761
 21
181.81943798793708
  0
ARC
  8
_0-2_
  6
CONTINUOUS
 62
    7
 10
335.47537185826991
 20
182.31943798793708
 40
0.5
 50
270
 51
355
  0
ARC
  8
_0-2_
  6
CONTINUOUS
 62
    7
 10
337.1123346098741
 20
183.81943798793708
 40
1
 50
90
 51
175.00000000000006
  0
ARC
  8
_0-2_
  6
CONTINUOUS
 62
    7
 10
337.43353744527872
 20
185.31943798793708
 40
0.5
 50
270
 51
318.59270234267069
  0
ARC
  8
_0-2_
  6
CONTINUOUS
 62
    7
 10
337.43353744527872
 20
185.31943798793708
 40
0.5
 50
318.59270234267069
 51
15.000000000000014
  0
ARC
  8
_0-2_
  6
CONTINUOUS
 62
    7
 10
337.24632508833497
 20
186.01812401585556
 40
0.5
 50
14.999999999999982
 51
59.999999999999986
  0
ARC
  8
_0-2_
  6
CONTINUOUS
 62
    7
 10
333.62968986798546
 20
185.21943798793717
 40
3
 50
59.999999999999929
 51
89.999999999999986
  0
ARC
  8
_0-2_
  6
CONTINUOUS
 62
    7
 10
326.79170303228761
 20
182.31943798793708
 40
0.5
 50
185
 51
270
  0
ARC
  8
_0-2_
  6
CONTINUOUS
 62
    7
 10
325.15474028068343
 20
183.81943798793708
 40
1
 50
4.9999999999999432
 51
90
  0
ARC
  8
_0-2_
  6
CONTINUOUS
 62
    7
 10
324.83353744527881
 20
185.31943798793708
 40
0.5
 50
221.40729765732931
 51
270
  0
ARC
  8
_0-2_
  6
CONTINUOUS
 62
    7
 10
324.83353744527881
 20
185.31943798793708
 40
0.5
 50
165.00000000000003
 51
221.40729765732931
  0
ARC
  8
_0-2_
  6
CONTINUOUS
 62
    7
 10
325.02074980222255
 20
186.01812401585556
 40
0.5
 50
119.99999999999999
 51
164.99999999999997
  0
ARC
  8
_0-2_
  6
CONTINUOUS
 62
    7
 10
328.63738502257206
 20
185.21943798793717
 40
3
 50
90.000000000000028
 51
120.00000000000007
  0
LINE
  8
_0-2_
  6
CENTER2
 62
  152
 10
331.13353744527899
 20
181.21943798793706
 11
331.13353744527899
 21
188.21943798793717
  0
LINE
  8
_0-2_
  6
CONTINUOUS
 62
   56
 10
328.13353744527899
 20
188.26943722499806
 11
328.13353744527899
 21
188.17682494585389
  0
LINE
  8
_0-2_
  6
CONTINUOUS
 62
  152
 10
328.58353749296271
 20
188.71943798793751
 11
328.58353749296271
 21
188.21895468960011
  0
LINE
  8
_0-2_
  6
CONTINUOUS
 62
  152
 10
333.68353739759527
 20
188.21895468960011
 11
333.68353739759527
 21
188.71943798793751
  0
LINE
  8
_0-2_
  6
CONTINUOUS
 62
   56
 10
334.13353744527899
 20
188.26943722499806
 11
334.13353744527899
 21
188.17682494585381
  0
LINE
  8
_0-2_
  6
CONTINUOUS
 62
   56
 10
328.13353744527899
 20
181.81943798793708
 11
328.13353744527899
 21
181.21943798793706
  0
LINE
  8
_0-2_
  6
CONTINUOUS
 62
  152
 10
328.58353749296271
 20
181.81943798793708
 11
328.58353749296271
 21
181.21943798793706
  0
LINE
  8
_0-2_
  6
CONTINUOUS
 62
  152
 10
333.68353739759527
 20
181.21943798793706
 11
333.68353739759527
 21
181.81943798793708
  0
LINE
  8
_0-2_
  6
CONTINUOUS
 62
   56
 10
334.13353744527899
 20
181.81943798793708
 11
334.13353744527899
 21
181.21943798793706
  0
LINE
  8
_0-2_
  6
CONTINUOUS
 62
    7
 10
308.63353744527899
 20
181.81943798793708
 11
263.63353744527899
 21
181.81943798793708
  0
LINE
  8
_0-2_
  6
CONTINUOUS
 62
    7
 10
308.63353744527899
 20
184.81943798793708
 11
263.63353744527899
 21
184.81943798793708
  0
LINE
  8
_0-2_
  6
CONTINUOUS
 62
    7
 10
308.63353744527899
 20
188.21943798793708
 11
308.63353744527899
 21
181.81943798793708
  0
LINE
  8
_0-2_
  6
CONTINUOUS
 62
    7
 10
308.63353744527899
 20
188.21943798793708
 11
263.63353744527899
 21
188.21943798793708
  0
LINE
  8
_0-2_
  6
CONTINUOUS
 62
    7
 10
263.63353744527899
 20
188.21943798793708
 11
263.63353744527899
 21
181.81943798793708
  0
LINE
  8
_0-2_
  6
CONTINUOUS
 62
  152
 10
296.75853744527888
 20
171.31943801177937
 11
296.75853744527888
 21
176.71943798793751
  0
LINE
  8
_0-2_
  6
CONTINUOUS
 62
  152
 10
299.25853744527888
 20
171.31943801177937
 11
299.25853744527888
 21
176.71943798793751
  0
LINE
  8
_0-2_
  6
CONTINUOUS
 62
  152
 10
298.63353744527888
 20
171.31943801177937
 11
298.63353744527888
 21
176.71943798793751
  0
LINE
  8
_0-2_
  6
CONTINUOUS
 62
  152
 10
298.00853744527888
 20
171.31943801177937
 11
298.00853744527888
 21
176.71943798793751
  0
LINE
  8
_0-2_
  6
CONTINUOUS
 62
  152
 10
297.38353744527888
 20
171.31943801177937
 11
297.38353744527888
 21
176.71943798793751
  0
LINE
  8
_0-2_
  6
CONTINUOUS
 62
   56
 10
306.13353744527888
 20
171.31943801177937
 11
305.53353754064631
 21
170.71943798793751
  0
LINE
  8
_0-2_
  6
CONTINUOUS
 62
   56
 10
296.73353734991144
 20
170.71943798793751
 11
305.53353754064631
 21
170.71943798793751
  0
LINE
  8
_0-2_
  6
CONTINUOUS
 62
   56
 10
296.73353734991144
 20
170.71943798793751
 11
296.13353744527888
 21
171.31943801177937
  0
LINE
  8
_0-2_
  6
CONTINUOUS
 62
   56
 10
306.13353744527888
 20
171.31943801177937
 11
296.13353744527888
 21
171.31943801177937
  0
LINE
  8
_0-2_
  6
CONTINUOUS
 62
   56
 10
306.13353744527888
 20
176.71943798793751
 11
296.13353744527888
 21
176.71943798793751
  0
LINE
  8
_0-2_
  6
CONTINUOUS
 62
   56
 10
306.13353744527888
 20
171.31943801177937
 11
306.13353744527888
 21
178.21943798793751
  0
LINE
  8
_0-2_
  6
CONTINUOUS
 62
   56
 10
296.13353744527888
 20
171.31943801177937
 11
296.13353744527888
 21
178.21943798793751
  0
LINE
  8
_0-2_
  6
CONTINUOUS
 62
   56
 10
304.13353744527888
 20
188.26943722499806
 11
303.68353739759516
 21
188.71943798793751
  0
LINE
  8
_0-2_
  6
CONTINUOUS
 62
   56
 10
298.58353749296259
 20
188.71943798793751
 11
303.68353739759516
 21
188.71943798793751
  0
LINE
  8
_0-2_
  6
CONTINUOUS
 62
   56
 10
298.58353749296259
 20
188.71943798793751
 11
298.13353744527888
 21
188.26943722499806
  0
LINE
  8
_0-2_
  6
CONTINUOUS
 62
   56
 10
304.13353744527888
 20
188.26943722499806
 11
298.13353744527888
 21
188.26943722499806
  0
LINE
  8
ADD_LINE
  6
DOT
 62
    9
 10
301.13353744527888
 20
178.21943798793751
 11
301.84064422646554
 21
178.92654476912406
  0
LINE
  8
ADD_LINE
  6
DOT
 62
    9
 10
301.13353744527888
 20
178.21943798793751
 11
300.42643066409221
 21
178.92654476912406
  0
LINE
  8
_0-2_
  6
CONTINUOUS
 62
   56
 10
300.70052475115847
 20
178.21943798793751
 11
301.56655013939928
 21
176.71943798793751
  0
LINE
  8
_0-2_
  6
CONTINUOUS
 62
   56
 10
298.13353744527888
 20
188.26943722499806
 11
298.13353744527888
 21
188.17682494585389
  0
LINE
  8
_0-2_
  6
CONTINUOUS
 62
  152
 10
298.58353749296259
 20
188.71943798793751
 11
298.58353749296259
 21
188.21895468960011
  0
LINE
  8
_0-2_
  6
CONTINUOUS
 62
  152
 10
303.68353739759516
 20
188.21895468960011
 11
303.68353739759516
 21
188.71943798793751
  0
LINE
  8
_0-2_
  6
CONTINUOUS
 62
   56
 10
304.13353744527888
 20
188.26943722499806
 11
304.13353744527888
 21
188.17682494585381
  0
LINE
  8
_0-2_
  6
CONTINUOUS
 62
   56
 10
298.13353744527888
 20
181.81943798793708
 11
298.13353744527888
 21
181.21943798793706
  0
LINE
  8
_0-2_
  6
CONTINUOUS
 62
  152
 10
298.58353749296259
 20
181.81943798793708
 11
298.58353749296259
 21
181.21943798793706
  0
LINE
  8
_0-2_
  6
CONTINUOUS
 62
  152
 10
303.68353739759516
 20
181.21943798793706
 11
303.68353739759516
 21
181.81943798793708
  0
LINE
  8
_0-2_
  6
CONTINUOUS
 62
   56
 10
304.13353744527888
 20
181.81943798793708
 11
304.13353744527888
 21
181.21943798793706
  0
LINE
  8
_0-2_
  6
CONTINUOUS
 62
  152
 10
266.75853744527899
 20
171.31943801177937
 11
266.75853744527899
 21
176.71943798793751
  0
LINE
  8
_0-2_
  6
CONTINUOUS
 62
  152
 10
269.25853744527899
 20
171.31943801177937
 11
269.25853744527899
 21
176.71943798793751
  0
LINE
  8
_0-2_
  6
CONTINUOUS
 62
  152
 10
268.63353744527899
 20
171.31943801177937
 11
268.63353744527899
 21
176.71943798793751
  0
LINE
  8
_0-2_
  6
CONTINUOUS
 62
  152
 10
268.00853744527899
 20
171.31943801177937
 11
268.00853744527899
 21
176.71943798793751
  0
LINE
  8
_0-2_
  6
CONTINUOUS
 62
  152
 10
267.38353744527899
 20
171.31943801177937
 11
267.38353744527899
 21
176.71943798793751
  0
LINE
  8
_0-2_
  6
CONTINUOUS
 62
   56
 10
276.13353744527899
 20
171.31943801177937
 11
275.53353754064642
 21
170.71943798793751
  0
LINE
  8
_0-2_
  6
CONTINUOUS
 62
   56
 10
266.73353734991156
 20
170.71943798793751
 11
275.53353754064642
 21
170.71943798793751
  0
LINE
  8
_0-2_
  6
CONTINUOUS
 62
   56
 10
266.73353734991156
 20
170.71943798793751
 11
266.13353744527899
 21
171.31943801177937
  0
LINE
  8
_0-2_
  6
CONTINUOUS
 62
   56
 10
276.13353744527899
 20
171.31943801177937
 11
266.13353744527899
 21
171.31943801177937
  0
LINE
  8
_0-2_
  6
CONTINUOUS
 62
   56
 10
276.13353744527899
 20
176.71943798793751
 11
266.13353744527899
 21
176.71943798793751
  0
LINE
  8
_0-2_
  6
CONTINUOUS
 62
   56
 10
276.13353744527899
 20
171.31943801177937
 11
276.13353744527899
 21
178.21943798793751
  0
LINE
  8
_0-2_
  6
CONTINUOUS
 62
   56
 10
266.13353744527899
 20
171.31943801177937
 11
266.13353744527899
 21
178.21943798793751
  0
LINE
  8
_0-2_
  6
CONTINUOUS
 62
   56
 10
274.13353744527899
 20
188.26943722499806
 11
273.68353739759527
 21
188.71943798793751
  0
LINE
  8
_0-2_
  6
CONTINUOUS
 62
   56
 10
268.58353749296271
 20
188.71943798793751
 11
273.68353739759527
 21
188.71943798793751
  0
LINE
  8
_0-2_
  6
CONTINUOUS
 62
   56
 10
268.58353749296271
 20
188.71943798793751
 11
268.13353744527899
 21
188.26943722499806
  0
LINE
  8
_0-2_
  6
CONTINUOUS
 62
   56
 10
274.13353744527899
 20
188.26943722499806
 11
268.13353744527899
 21
188.26943722499806
  0
LINE
  8
ADD_LINE
  6
DOT
 62
    9
 10
271.13353744527899
 20
178.21943798793751
 11
271.84064422646566
 21
178.92654476912406
  0
LINE
  8
ADD_LINE
  6
DOT
 62
    9
 10
271.13353744527899
 20
178.21943798793751
 11
270.42643066409232
 21
178.92654476912406
  0
LINE
  8
_0-2_
  6
CONTINUOUS
 62
   56
 10
270.70052475115858
 20
178.21943798793751
 11
271.5665501393994
 21
176.71943798793751
  0
LINE
  8
_0-2_
  6
CONTINUOUS
 62
   56
 10
268.13353744527899
 20
188.26943722499806
 11
268.13353744527899
 21
188.17682494585389
  0
LINE
  8
_0-2_
  6
CONTINUOUS
 62
  152
 10
268.58353749296271
 20
188.71943798793751
 11
268.58353749296271
 21
188.21895468960011
  0
LINE
  8
_0-2_
  6
CONTINUOUS
 62
  152
 10
273.68353739759527
 20
188.21895468960011
 11
273.68353739759527
 21
188.71943798793751
  0
LINE
  8
_0-2_
  6
CONTINUOUS
 62
   56
 10
274.13353744527899
 20
188.26943722499806
 11
274.13353744527899
 21
188.17682494585381
  0
LINE
  8
_0-2_
  6
CONTINUOUS
 62
   56
 10
268.13353744527899
 20
181.81943798793708
 11
268.13353744527899
 21
181.21943798793706
  0
LINE
  8
_0-2_
  6
CONTINUOUS
 62
  152
 10
268.58353749296271
 20
181.81943798793708
 11
268.58353749296271
 21
181.21943798793706
  0
LINE
  8
_0-2_
  6
CONTINUOUS
 62
  152
 10
273.68353739759527
 20
181.21943798793706
 11
273.68353739759527
 21
181.81943798793708
  0
LINE
  8
_0-2_
  6
CONTINUOUS
 62
   56
 10
274.13353744527899
 20
181.81943798793708
 11
274.13353744527899
 21
181.21943798793706
  0
LINE
  8
_0-2_
  6
CONTINUOUS
 62
   56
 10
273.63353744527899
 20
77.202327504300854
 11
273.63353744527899
 21
80.089078917646191
  0
LINE
  8
_0-2_
  6
CONTINUOUS
 62
   56
 10
273.63353744527899
 20
80.089078917646191
 11
271.13353744527899
 21
81.532454624318859
  0
LINE
  8
_0-2_
  6
CONTINUOUS
 62
   56
 10
271.13353744527899
 20
81.532454624318859
 11
268.63353744527899
 21
80.089078917646191
  0
LINE
  8
_0-2_
  6
CONTINUOUS
 62
   56
 10
268.63353744527899
 20
80.089078917646191
 11
268.63353744527899
 21
77.202327504300854
  0
LINE
  8
_0-2_
  6
CONTINUOUS
 62
   56
 10
268.63353744527899
 20
77.202327504300854
 11
271.13353744527899
 21
75.758951797628185
  0
LINE
  8
_0-2_
  6
CONTINUOUS
 62
   56
 10
271.13353744527899
 20
75.758951797628185
 11
273.63353744527899
 21
77.202327504300854
  0
CIRCLE
  8
_0-2_
  6
CONTINUOUS
 62
   56
 10
271.13353744527899
 20
78.645703210973522
 40
5
  0
LINE
  8
_0-2_
  6
CONTINUOUS
 62
   56
 10
303.63353744527888
 20
77.202327504300854
 11
303.63353744527888
 21
80.089078917646191
  0
LINE
  8
_0-2_
  6
CONTINUOUS
 62
   56
 10
303.63353744527888
 20
80.089078917646191
 11
301.13353744527888
 21
81.532454624318859
  0
LINE
  8
_0-2_
  6
CONTINUOUS
 62
   56
 10
301.13353744527888
 20
81.532454624318859
 11
298.63353744527888
 21
80.089078917646191
  0
LINE
  8
_0-2_
  6
CONTINUOUS
 62
   56
 10
298.63353744527888
 20
80.089078917646191
 11
298.63353744527888
 21
77.202327504300854
  0
LINE
  8
_0-2_
  6
CONTINUOUS
 62
   56
 10
298.63353744527888
 20
77.202327504300854
 11
301.13353744527888
 21
75.758951797628185
  0
LINE
  8
_0-2_
  6
CONTINUOUS
 62
   56
 10
301.13353744527888
 20
75.758951797628185
 11
303.63353744527888
 21
77.202327504300854
  0
CIRCLE
  8
_0-2_
  6
CONTINUOUS
 62
   56
 10
301.13353744527888
 20
78.645703210973522
 40
5
  0
LINE
  8
_0-2_
  6
CONTINUOUS
 62
   56
 10
333.63353744527888
 20
47.202327504300854
 11
333.63353744527888
 21
50.089078917646191
  0
LINE
  8
_0-2_
  6
CONTINUOUS
 62
   56
 10
333.63353744527888
 20
50.089078917646191
 11
331.13353744527888
 21
51.532454624318859
  0
LINE
  8
_0-2_
  6
CONTINUOUS
 62
   56
 10
331.13353744527888
 20
51.532454624318859
 11
328.63353744527888
 21
50.089078917646191
  0
LINE
  8
_0-2_
  6
CONTINUOUS
 62
   56
 10
328.63353744527888
 20
50.089078917646191
 11
328.63353744527888
 21
47.202327504300854
  0
LINE
  8
_0-2_
  6
CONTINUOUS
 62
   56
 10
328.63353744527888
 20
47.202327504300854
 11
331.13353744527888
 21
45.758951797628185
  0
LINE
  8
_0-2_
  6
CONTINUOUS
 62
   56
 10
331.13353744527888
 20
45.758951797628185
 11
333.63353744527888
 21
47.202327504300854
  0
CIRCLE
  8
_0-2_
  6
CONTINUOUS
 62
   56
 10
331.13353744527888
 20
48.645703210973522
 40
5
  0
LINE
  8
_0-2_
  6
CONTINUOUS
 62
   56
 10
333.63353744527888
 20
17.202327504300854
 11
333.63353744527888
 21
20.089078917646191
  0
LINE
  8
_0-2_
  6
CONTINUOUS
 62
   56
 10
333.63353744527888
 20
20.089078917646191
 11
331.13353744527888
 21
21.532454624318859
  0
LINE
  8
_0-2_
  6
CONTINUOUS
 62
   56
 10
331.13353744527888
 20
21.532454624318859
 11
328.63353744527888
 21
20.089078917646191
  0
LINE
  8
_0-2_
  6
CONTINUOUS
 62
   56
 10
328.63353744527888
 20
20.089078917646191
 11
328.63353744527888
 21
17.202327504300854
  0
LINE
  8
_0-2_
  6
CONTINUOUS
 62
   56
 10
328.63353744527888
 20
17.202327504300854
 11
331.13353744527888
 21
15.758951797628185
  0
LINE
  8
_0-2_
  6
CONTINUOUS
 62
   56
 10
331.13353744527888
 20
15.758951797628185
 11
333.63353744527888
 21
17.202327504300854
  0
CIRCLE
  8
_0-2_
  6
CONTINUOUS
 62
   56
 10
331.13353744527888
 20
18.645703210973522
 40
5
  0
LINE
  8
_0-0_
  6
CONTINUOUS
 62
    7
 10
45.133537445278876
 20
188.21943798793708
 11
45.133537445278876
 21
205.17294796240782
  0
LINE
  8
_0-1_
  6
CONTINUOUS
 62
  152
 10
46.033537445278512
 20
206.07294796240791
 11
46.033537445278512
 21
188.21943798793708
  0
LINE
  8
_0-1_
  6
CONTINUOUS
 62
  152
 10
56.23353744527742
 20
188.21943798793708
 11
56.23353744527742
 21
206.07294796240791
  0
LINE
  8
_0-0_
  6
CONTINUOUS
 62
    7
 10
57.133537445277966
 20
205.17294796240782
 11
57.133537445277966
 21
188.21943798793708
  0
LINE
  8
_0-0_
  6
CONTINUOUS
 62
    7
 10
293.13353744527888
 20
205.17294820082685
 11
293.13353744527888
 21
188.21943798793708
  0
LINE
  8
_0-1_
  6
CONTINUOUS
 62
  152
 10
294.03353744527851
 20
188.21943798793708
 11
294.03353744527851
 21
206.07294820082694
  0
LINE
  8
_0-1_
  6
CONTINUOUS
 62
  152
 10
308.23353744527742
 20
206.07294820082694
 11
308.23353744527742
 21
188.21943798793708
  0
ENDSEC
  0
EOF
