  0
SECTION
  2
HEADER
  9
$ACADVER
  1
AC1009
  9
$INSBASE
 10
0
 20
0
 30
0
  9
$EXTMIN
 10
0
 20
0
  9
$EXTMAX
 10
1189
 20
841
  9
$LIMMIN
 10
0
 20
0
  9
$LIMMAX
 10
1189
 20
841
  9
$LTSCALE
 40
1
  0
ENDSEC
  0
SECTION
  2
TABLES
  0
TABLE
  2
LTYPE
 70
     9
  0
LTYPE
  2
CONTINUOUS
 70
    64
  3
実線
 72
    65
 73
     0
 40
0.0
  0
LTYPE
  2
DASHED1
 70
    64
  3
--  --  --  --  --  --  --  --  
 72
    65
 73
     2
 40
2.5
 49
1.25
 49
-1.25
  0
LTYPE
  2
DASHED2
 70
    64
  3
----    ----    ----    ----    
 72
    65
 73
     2
 40
5.0
 49
2.5
 49
-2.5
  0
LTYPE
  2
DASHED3
 70
    64
  3
------  ------  ------  ------  
 72
    65
 73
     2
 40
5.0
 49
3.75
 49
-1.25
  0
LTYPE
  2
CENTER1
 70
    64
  3
----- - ----- - ----- - ----- - 
 72
    65
 73
     4
 40
10.0
 49
6.25
 49
-1.25
 49
1.25
 49
-1.25
  0
LTYPE
  2
CENTER2
 70
    64
  3
----------  --  ----------  --  
 72
    65
 73
     4
 40
20.0
 49
12.5
 49
-2.5
 49
2.5
 49
-2.5
  0
LTYPE
  2
PHANTOM1
 70
    64
  3
--- - - --- - - --- - - --- - - 
 72
    65
 73
     6
 40
10.0
 49
3.25
 49
-1.25
 49
1.25
 49
-1.25
 49
1.25
 49
-1.25
  0
LTYPE
  2
PHANTOM2
 70
    64
  3
--------  -  -  --------  -  -  
 72
    65
 73
     6
 40
20.0
 49
10.0
 49
-2.5
 49
1.25
 49
-2.5
 49
1.25
 49
-2.5
  0
LTYPE
  2
DOT
 70
    64
  3
-   -   -   -   -   -   -   -   
 72
    65
 73
     2
 40
2.5
 49
0.625
 49
-1.875
  0
LTYPE
  2
DUMMY
 70
    64
  3
ダミー
 72
    65
 73
     0
 40
0.0
  0
LTYPE
  2
RAND1
 70
    64
  3
ランダム線1
 72
    65
 73
     4
 40
10.0
 49
1.0
 49
-2.0
 49
3.0
 49
-4.0
  0
LTYPE
  2
RAND2
 70
    64
  3
ランダム線2
 72
    65
 73
     4
 40
14.0
 49
2.0
 49
-3.0
 49
4.0
 49
-5.0
  0
LTYPE
  2
RAND3
 70
    64
  3
ランダム線3
 72
    65
 73
     4
 40
18.0
 49
3.0
 49
-4.0
 49
5.0
 49
-6.0
  0
LTYPE
  2
RAND4
 70
    64
  3
ランダム線4
 72
    65
 73
     4
 40
22.0
 49
4.0
 49
-5.0
 49
6.0
 49
-7.0
  0
LTYPE
  2
RAND5
 70
    64
  3
ランダム線5
 72
    65
 73
     4
 40
26.0
 49
5.0
 49
-6.0
 49
7.0
 49
-8.0
  0
LTYPE
  2
LONG1
 70
    64
  3
----------  --  ----------  --  
 72
    65
 73
     4
 40
40.0
 49
32.5
 49
-2.5
 49
2.5
 49
-2.5
  0
LTYPE
  2
LONG2
 70
    64
  3
--------  -  -  --------  -  -  
 72
    65
 73
     6
 40
40.0
 49
30.0
 49
-2.5
 49
1.25
 49
-2.5
 49
1.25
 49
-2.5
  0
LTYPE
  2
LONG3
 70
    64
  3
+++++++++++++++..+++++++++++++++
 72
    65
 73
     2
 40
40.0
 49
37.5
 49
-2.5
  0
LTYPE
  2
LONG4
 70
    64
  3
+++++++++++++++..+++++++++++++++
 72
    65
 73
     2
 40
80.0
 49
75.0
 49
-5.0
  0
LTYPE
  2
LONG5
 70
    64
  3
----------  --  ----------  --  
 72
    65
 73
     4
 40
60.0
 49
37.5
 49
-7.5
 49
7.5
 49
-7.5
  0
LTYPE
  2
dashed
 70
   64
  3
-------   -------------   ------
 72
   65
 73
    2
 40
7.5
 49
6
 49
-1.5
  0
LTYPE
  2
dashed_spaced
 70
   64
  3
----        --------        ----
 72
   65
 73
    2
 40
12
 49
6
 49
-6
  0
LTYPE
  2
long_dashed_dotted
 70
   64
  3
------------- --- --------------
 72
   65
 73
    4
 40
15.25
 49
12
 49
-1.5
 49
0.25
 49
-1.5
  0
LTYPE
  2
long_dashed_double-dotted
 70
   64
  3
----------- --- --- ------------
 72
   65
 73
    6
 40
17
 49
12
 49
-1.5
 49
0.25
 49
-1.5
 49
0.25
 49
-1.5
  0
LTYPE
  2
long_dashed_triplicate-dotted
 70
   64
  3
--------- --- --- --- ----------
 72
   65
 73
    8
 40
18.75
 49
12
 49
-1.5
 49
0.25
 49
-1.5
 49
0.25
 49
-1.5
 49
0.25
 49
-1.5
  0
LTYPE
  2
dotted
 70
   64
  3
   -       -       -       -    
 72
   65
 73
    2
 40
1.75
 49
0.25
 49
-1.5
  0
LTYPE
  2
chain
 70
   64
  3
-------------- -- --------------
 72
   65
 73
    4
 40
18.5
 49
12
 49
-1.5
 49
3.5
 49
-1.5
  0
LTYPE
  2
chain_double_dash
 70
   64
  3
------------ -- -- -------------
 72
   65
 73
    6
 40
23.5
 49
12
 49
-1.5
 49
3.5
 49
-1.5
 49
3.5
 49
-1.5
  0
LTYPE
  2
dashed_dotted
 70
   64
  3
-----------     -     ----------
 72
   65
 73
    4
 40
9.25
 49
6
 49
-1.5
 49
0.25
 49
-1.5
  0
LTYPE
  2
double-dashed_dotted
 70
   64
  3
------   -----------   -   -----
 72
   65
 73
    6
 40
16.75
 49
6
 49
-1.5
 49
6
 49
-1.5
 49
0.25
 49
-1.5
  0
LTYPE
  2
dashed_double-dotted
 70
   64
  3
---------    -    -    ---------
 72
   65
 73
    6
 40
11
 49
6
 49
-1.5
 49
0.25
 49
-1.5
 49
0.25
 49
-1.5
  0
LTYPE
  2
double-dashed_double-dotted
 70
   64
  3
-----   ---------   -   -   ----
 72
   65
 73
    8
 40
18.5
 49
6
 49
-1.5
 49
6
 49
-1.5
 49
0.25
 49
-1.5
 49
0.25
 49
-1.5
  0
LTYPE
  2
dashed_triplicate-dotted
 70
   64
  3
-------    -    -    -    ------
 72
   65
 73
    8
 40
12.75
 49
6
 49
-1.5
 49
0.25
 49
-1.5
 49
0.25
 49
-1.5
 49
0.25
 49
-1.5
  0
LTYPE
  2
double-dashed_triplicate-dotted
 70
   64
  3
-----  ---------  -  -  -  -----
 72
   65
 73
   10
 40
20.25
 49
6
 49
-1.5
 49
6
 49
-1.5
 49
0.25
 49
-1.5
 49
0.25
 49
-1.5
 49
0.25
 49
-1.5
  0
LTYPE
  2
undefined
 70
   64
  3
--------------------------------
 72
   65
 73
    0
 40
0
  0
LTYPE
  2
_
 70
   64
  3
                                
 72
   65
 73
    0
 40
0
  0
LTYPE
  2
__18
 70
   64
  3
                                
 72
   65
 73
    0
 40
0
  0
LTYPE
  2
__19
 70
   64
  3
                                
 72
   65
 73
    0
 40
0
  0
LTYPE
  2
__20
 70
   64
  3
                                
 72
   65
 73
    0
 40
0
  0
LTYPE
  2
__21
 70
   64
  3
                                
 72
   65
 73
    0
 40
0
  0
LTYPE
  2
__22
 70
   64
  3
                                
 72
   65
 73
    0
 40
0
  0
LTYPE
  2
__23
 70
   64
  3
                                
 72
   65
 73
    0
 40
0
  0
LTYPE
  2
__24
 70
   64
  3
                                
 72
   65
 73
    0
 40
0
  0
LTYPE
  2
__25
 70
   64
  3
                                
 72
   65
 73
    0
 40
0
  0
LTYPE
  2
__26
 70
   64
  3
                                
 72
   65
 73
    0
 40
0
  0
LTYPE
  2
__27
 70
   64
  3
                                
 72
   65
 73
    0
 40
0
  0
LTYPE
  2
__28
 70
   64
  3
                                
 72
   65
 73
    0
 40
0
  0
LTYPE
  2
__29
 70
   64
  3
                                
 72
   65
 73
    0
 40
0
  0
LTYPE
  2
__30
 70
   64
  3
                                
 72
   65
 73
    0
 40
0
  0
LTYPE
  2
__31
 70
   64
  3
                                
 72
   65
 73
    0
 40
0
  0
LTYPE
  2
__32
 70
   64
  3
                                
 72
   65
 73
    0
 40
0
  0
ENDTAB
  0
TABLE
  2
STYLE
  5
3
100
AcDbSymbolTable
 70
     1
  0
STYLE
  5
10
100
AcDbSymbolTableRecord
100
AcDbTextStyleTableRecord
  2
STANDARD
 70
     0
 40
0.0
 41
1.0
 50
0.0
 71
     0
 42
0.2
  3
txt
  4
bigfont.shx
  0
STYLE
  5
26
100
AcDbSymbolTableRecord
100
AcDbTextStyleTableRecord
  2
TATEGAKI
 70
    68
 40
0.0
 41
1.0
 50
0.0
 71
     0
 42
1.0
  3
txt
  4
bigfont.shx
  0
ENDTAB
  0
TABLE
  2
LAYER
 70
    5
  0
LAYER
  2
_0-0_
 70
   64
 62
    7
  6
CONTINUOUS
  0
LAYER
  2
_0-1_
 70
   64
 62
    7
  6
CONTINUOUS
  0
LAYER
  2
_0-8_
 70
   64
 62
    7
  6
CONTINUOUS
  0
LAYER
  2
_0-9_
 70
   64
 62
    7
  6
CONTINUOUS
  0
LAYER
  2
ADD_LINE
 70
   64
 62
    7
  6
CONTINUOUS
  0
ENDTAB
  0
ENDSEC
  0
SECTION
  2
BLOCKS
  0
ENDSEC
  0
SECTION
  2
ENTITIES
  0
LINE
  8
_0-0_
  6
CONTINUOUS
 62
    7
 10
190.83461608508321
 20
54.013029492426995
 11
188.83461608508321
 21
52.013029492426995
  0
LINE
  8
_0-0_
  6
CONTINUOUS
 62
    7
 10
188.83461608508321
 20
52.013029492426995
 11
188.83461608508321
 21
6.0130294924269947
  0
LINE
  8
_0-0_
  6
CONTINUOUS
 62
    7
 10
188.83461608508321
 20
6.0130294924269947
 11
190.83461608508321
 21
4.0130294924269947
  0
LINE
  8
_0-0_
  6
CONTINUOUS
 62
    7
 10
190.83461608508321
 20
4.0130294924269947
 11
213.83461608508344
 21
4.0130294924269947
  0
LINE
  8
_0-0_
  6
CONTINUOUS
 62
    7
 10
213.83461608508344
 20
4.0130294924269947
 11
216.86096842433471
 21
7.0393818316783268
  0
LINE
  8
_0-1_
  6
CENTER1
 62
  152
 10
215.83461608508321
 20
18.013029492426995
 11
215.83461608508321
 21
36.013029492426995
  0
LINE
  8
_0-1_
  6
CONTINUOUS
 62
    7
 10
215.56562242248947
 20
47.01122047085056
 11
216.14401712039205
 21
48.013029492426995
  0
LINE
  8
_0-1_
  6
CONTINUOUS
 62
    7
 10
216.14401712039205
 20
48.013029492426995
 11
214.98931660273763
 21
50.013029492426995
  0
LINE
  8
_0-1_
  6
CONTINUOUS
 62
    7
 10
214.98931660273763
 20
50.013029492426995
 11
212.67991556742879
 21
50.013029492426995
  0
LINE
  8
_0-1_
  6
CONTINUOUS
 62
    7
 10
212.67991556742879
 20
50.013029492426995
 11
211.52521504977437
 21
48.013029492426995
  0
LINE
  8
_0-1_
  6
CONTINUOUS
 62
    7
 10
211.52521504977437
 20
48.013029492426995
 11
212.28579931495244
 21
46.695658878056747
  0
LINE
  8
_0-1_
  6
CENTER1
 62
  152
 10
211.23461608508285
 20
48.013029492426995
 11
216.43461608508312
 21
48.013029492426995
  0
LINE
  8
_0-1_
  6
CENTER1
 62
  152
 10
213.83461608508321
 20
50.613029492426904
 11
213.83461608508321
 21
45.413029492426631
  0
LINE
  8
_0-1_
  6
CONTINUOUS
 62
    7
 10
231.83461608508321
 20
46.858328974772576
 11
231.83461608508321
 21
49.167730010081414
  0
LINE
  8
_0-1_
  6
CONTINUOUS
 62
    7
 10
231.83461608508321
 20
49.167730010081414
 11
233.83461608508321
 21
50.322430527735833
  0
LINE
  8
_0-1_
  6
CONTINUOUS
 62
    7
 10
233.83461608508321
 20
50.322430527735833
 11
235.83461608508321
 21
49.167730010081414
  0
LINE
  8
_0-1_
  6
CONTINUOUS
 62
    7
 10
235.83461608508321
 20
49.167730010081414
 11
235.83461608508321
 21
46.858328974772576
  0
LINE
  8
_0-1_
  6
CONTINUOUS
 62
    7
 10
235.83461608508321
 20
46.858328974772576
 11
233.83461608508321
 21
45.703628457118157
  0
LINE
  8
_0-1_
  6
CONTINUOUS
 62
    7
 10
233.83461608508321
 20
45.703628457118157
 11
231.83461608508321
 21
46.858328974772576
  0
LINE
  8
_0-1_
  6
CENTER1
 62
  152
 10
231.23461608508285
 20
48.013029492426995
 11
236.43461608508312
 21
48.013029492426995
  0
LINE
  8
_0-1_
  6
CENTER1
 62
  152
 10
233.83461608508321
 20
50.613029492426904
 11
233.83461608508321
 21
45.413029492426631
  0
LINE
  8
_0-0_
  6
CONTINUOUS
 62
    7
 10
236.83461608508321
 20
54.013029492426995
 11
190.83461608508321
 21
54.013029492426995
  0
LINE
  8
_0-1_
  6
CONTINUOUS
 62
    7
 10
193.67991556742879
 20
31.013029492426995
 11
195.98931660273763
 21
31.013029492426995
  0
LINE
  8
_0-1_
  6
CONTINUOUS
 62
    7
 10
195.98931660273763
 20
31.013029492426995
 11
196.17559614716504
 21
30.690383851277034
  0
LINE
  8
_0-1_
  6
CENTER1
 62
  152
 10
194.83461608508321
 20
31.613029492426904
 11
194.83461608508321
 21
26.413029492427086
  0
LINE
  8
_0-1_
  6
CONTINUOUS
 62
    7
 10
195.83461608508276
 20
27.013029492426995
 11
193.67991556742879
 21
27.013029492426995
  0
LINE
  8
_0-1_
  6
CONTINUOUS
 62
    7
 10
193.67991556742879
 20
27.013029492426995
 11
192.52521504977437
 21
29.013029492426995
  0
LINE
  8
_0-1_
  6
CONTINUOUS
 62
    7
 10
192.52521504977437
 20
29.013029492426995
 11
193.67991556742879
 21
31.013029492426995
  0
LINE
  8
_0-1_
  6
CENTER1
 62
  152
 10
192.23461608508285
 20
29.013029492426995
 11
197.43461608508312
 21
29.013029492426995
  0
LINE
  8
_0-1_
  6
CENTER1
 62
  152
 10
206.83461608508321
 20
27.013029492426995
 11
224.83461608508321
 21
27.013029492426995
  0
LINE
  8
_0-0_
  6
CONTINUOUS
 62
    7
 10
235.80826374583194
 20
25.986677153175663
 11
238.83461608508321
 21
29.013029492426995
  0
LINE
  8
_0-0_
  6
CONTINUOUS
 62
    7
 10
238.83461608508321
 20
29.013029492426995
 11
238.83461608508321
 21
52.013029492426995
  0
LINE
  8
_0-0_
  6
CONTINUOUS
 62
    7
 10
238.83461608508321
 20
52.013029492426995
 11
236.83461608508321
 21
54.013029492426995
  0
LINE
  8
_0-1_
  6
CONTINUOUS
 62
    7
 10
195.98931660273763
 20
11.013029492426995
 11
193.67991556742879
 21
11.013029492426995
  0
LINE
  8
_0-1_
  6
CONTINUOUS
 62
    7
 10
193.67991556742879
 20
11.013029492426995
 11
192.52521504977437
 21
9.0130294924269947
  0
LINE
  8
_0-1_
  6
CONTINUOUS
 62
    7
 10
192.52521504977437
 20
9.0130294924269947
 11
193.67991556742879
 21
7.0130294924269947
  0
LINE
  8
_0-1_
  6
CONTINUOUS
 62
    7
 10
193.67991556742879
 20
7.0130294924269947
 11
195.98931660273763
 21
7.0130294924269947
  0
LINE
  8
_0-1_
  6
CONTINUOUS
 62
    7
 10
195.98931660273763
 20
7.0130294924269947
 11
197.14401712039205
 21
9.0130294924269947
  0
LINE
  8
_0-1_
  6
CONTINUOUS
 62
    7
 10
197.14401712039205
 20
9.0130294924269947
 11
195.98931660273763
 21
11.013029492426995
  0
LINE
  8
_0-1_
  6
CENTER1
 62
  152
 10
194.83461608508321
 20
11.613029492426904
 11
194.83461608508321
 21
6.4130294924270856
  0
LINE
  8
_0-1_
  6
CENTER1
 62
  152
 10
197.43461608508312
 20
9.0130294924269947
 11
192.23461608508285
 21
9.0130294924269947
  0
LINE
  8
_0-0_
  6
CONTINUOUS
 62
    7
 10
21.929530171414513
 20
54.013029492426995
 11
19.929530171414513
 21
52.013029492426995
  0
LINE
  8
_0-0_
  6
CONTINUOUS
 62
    7
 10
19.929530171414513
 20
52.013029492426995
 11
19.929530171414513
 21
6.0130294924269947
  0
LINE
  8
_0-0_
  6
CONTINUOUS
 62
    7
 10
19.929530171414513
 20
6.0130294924269947
 11
21.929530171414513
 21
4.0130294924269947
  0
LINE
  8
_0-0_
  6
CONTINUOUS
 62
    7
 10
21.929530171414513
 20
4.0130294924269947
 11
44.92953017141474
 21
4.0130294924269947
  0
LINE
  8
_0-0_
  6
CONTINUOUS
 62
    7
 10
44.92953017141474
 20
4.0130294924269947
 11
47.955882510666015
 21
7.0393818316783268
  0
LINE
  8
_0-1_
  6
CENTER1
 62
  152
 10
46.929530171414513
 20
18.013029492426995
 11
46.929530171414513
 21
36.013029492426995
  0
LINE
  8
_0-1_
  6
CONTINUOUS
 62
    7
 10
46.660536508820769
 20
47.01122047085056
 11
47.23893120672335
 21
48.013029492426995
  0
LINE
  8
_0-1_
  6
CONTINUOUS
 62
    7
 10
47.23893120672335
 20
48.013029492426995
 11
46.084230689068931
 21
50.013029492426995
  0
LINE
  8
_0-1_
  6
CONTINUOUS
 62
    7
 10
46.084230689068931
 20
50.013029492426995
 11
43.774829653760094
 21
50.013029492426995
  0
LINE
  8
_0-1_
  6
CONTINUOUS
 62
    7
 10
43.774829653760094
 20
50.013029492426995
 11
42.620129136105675
 21
48.013029492426995
  0
LINE
  8
_0-1_
  6
CONTINUOUS
 62
    7
 10
42.620129136105675
 20
48.013029492426995
 11
43.380713401283742
 21
46.695658878056747
  0
LINE
  8
_0-1_
  6
CENTER1
 62
  152
 10
42.329530171414149
 20
48.013029492426995
 11
47.529530171414422
 21
48.013029492426995
  0
LINE
  8
_0-1_
  6
CENTER1
 62
  152
 10
44.929530171414513
 20
50.613029492426904
 11
44.929530171414513
 21
45.413029492426631
  0
LINE
  8
_0-1_
  6
CONTINUOUS
 62
    7
 10
62.929530171414513
 20
46.858328974772576
 11
62.929530171414513
 21
49.167730010081414
  0
LINE
  8
_0-1_
  6
CONTINUOUS
 62
    7
 10
62.929530171414513
 20
49.167730010081414
 11
64.929530171414513
 21
50.322430527735833
  0
LINE
  8
_0-1_
  6
CONTINUOUS
 62
    7
 10
64.929530171414513
 20
50.322430527735833
 11
66.929530171414513
 21
49.167730010081414
  0
LINE
  8
_0-1_
  6
CONTINUOUS
 62
    7
 10
66.929530171414513
 20
49.167730010081414
 11
66.929530171414513
 21
46.858328974772576
  0
LINE
  8
_0-1_
  6
CONTINUOUS
 62
    7
 10
66.929530171414513
 20
46.858328974772576
 11
64.929530171414513
 21
45.703628457118157
  0
LINE
  8
_0-1_
  6
CONTINUOUS
 62
    7
 10
64.929530171414513
 20
45.703628457118157
 11
62.929530171414513
 21
46.858328974772576
  0
LINE
  8
_0-1_
  6
CENTER1
 62
  152
 10
62.329530171414149
 20
48.013029492426995
 11
67.529530171414422
 21
48.013029492426995
  0
LINE
  8
_0-1_
  6
CENTER1
 62
  152
 10
64.929530171414513
 20
50.613029492426904
 11
64.929530171414513
 21
45.413029492426631
  0
LINE
  8
_0-0_
  6
CONTINUOUS
 62
    7
 10
67.929530171414513
 20
54.013029492426995
 11
21.929530171414513
 21
54.013029492426995
  0
LINE
  8
_0-1_
  6
CONTINUOUS
 62
    7
 10
24.774829653760094
 20
31.013029492426995
 11
27.084230689068931
 21
31.013029492426995
  0
LINE
  8
_0-1_
  6
CONTINUOUS
 62
    7
 10
27.084230689068931
 20
31.013029492426995
 11
27.270510233496339
 21
30.690383851277034
  0
LINE
  8
_0-1_
  6
CENTER1
 62
  152
 10
25.929530171414513
 20
31.613029492426904
 11
25.929530171414513
 21
26.413029492427086
  0
LINE
  8
_0-1_
  6
CONTINUOUS
 62
    7
 10
26.929530171414058
 20
27.013029492426995
 11
24.774829653760094
 21
27.013029492426995
  0
LINE
  8
_0-1_
  6
CONTINUOUS
 62
    7
 10
24.774829653760094
 20
27.013029492426995
 11
23.620129136105675
 21
29.013029492426995
  0
LINE
  8
_0-1_
  6
CONTINUOUS
 62
    7
 10
23.620129136105675
 20
29.013029492426995
 11
24.774829653760094
 21
31.013029492426995
  0
LINE
  8
_0-1_
  6
CENTER1
 62
  152
 10
23.329530171414149
 20
29.013029492426995
 11
28.529530171414422
 21
29.013029492426995
  0
LINE
  8
_0-1_
  6
CENTER1
 62
  152
 10
37.929530171414513
 20
27.013029492426995
 11
55.929530171414513
 21
27.013029492426995
  0
LINE
  8
_0-0_
  6
CONTINUOUS
 62
    7
 10
66.903177832163237
 20
25.986677153175663
 11
69.929530171414513
 21
29.013029492426995
  0
LINE
  8
_0-0_
  6
CONTINUOUS
 62
    7
 10
69.929530171414513
 20
29.013029492426995
 11
69.929530171414513
 21
52.013029492426995
  0
LINE
  8
_0-0_
  6
CONTINUOUS
 62
    7
 10
69.929530171414513
 20
52.013029492426995
 11
67.929530171414513
 21
54.013029492426995
  0
LINE
  8
_0-1_
  6
CENTER1
 62
  152
 10
25.929530171414513
 20
11.613029492426904
 11
25.929530171414513
 21
6.4130294924270856
  0
LINE
  8
_0-1_
  6
CONTINUOUS
 62
    7
 10
24.774829653760094
 20
7.0130294924269947
 11
23.620129136105675
 21
9.0130294924269947
  0
LINE
  8
_0-1_
  6
CONTINUOUS
 62
    7
 10
23.620129136105675
 20
9.0130294924269947
 11
24.774829653760094
 21
11.013029492426995
  0
LINE
  8
_0-1_
  6
CONTINUOUS
 62
    7
 10
24.774829653760094
 20
11.013029492426995
 11
27.084230689068931
 21
11.013029492426995
  0
LINE
  8
_0-1_
  6
CONTINUOUS
 62
    7
 10
27.084230689068931
 20
11.013029492426995
 11
28.23893120672335
 21
9.0130294924269947
  0
LINE
  8
_0-1_
  6
CONTINUOUS
 62
    7
 10
28.23893120672335
 20
9.0130294924269947
 11
27.084230689068931
 21
7.0130294924269947
  0
LINE
  8
_0-1_
  6
CONTINUOUS
 62
    7
 10
27.084230689068931
 20
7.0130294924269947
 11
24.774829653760094
 21
7.0130294924269947
  0
LINE
  8
_0-1_
  6
CENTER1
 62
  152
 10
23.329530171414149
 20
9.0130294924269947
 11
28.529530171414422
 21
9.0130294924269947
  0
CIRCLE
  8
_0-0_
  6
CONTINUOUS
 62
    7
 10
46.929530171414513
 20
27.013029492426995
 40
5.0499999999999998
  0
CIRCLE
  8
_0-0_
  6
CONTINUOUS
 62
    7
 10
46.929530171414513
 20
27.013029492426995
 40
8
  0
CIRCLE
  8
_0-1_
  6
CONTINUOUS
 62
  152
 10
46.929530171414513
 20
27.013029492426995
 40
6.0000000000000009
  0
CIRCLE
  8
_0-0_
  6
CONTINUOUS
 62
    7
 10
46.929530171414513
 20
27.013029492426995
 40
20.000000000000455
  0
CIRCLE
  8
_0-0_
  6
CONTINUOUS
 62
    7
 10
46.929530171414513
 20
27.013029492426995
 40
19.400000000000453
  0
CIRCLE
  8
_0-0_
  6
CONTINUOUS
 62
    7
 10
46.929530171414513
 20
27.013029492426995
 40
18.000000000000455
  0
CIRCLE
  8
_0-1_
  6
CONTINUOUS
 62
    7
 10
64.929530171414513
 20
48.013029492426995
 40
4.25
  0
CIRCLE
  8
_0-1_
  6
CONTINUOUS
 62
    7
 10
25.929530171414513
 20
9.0130294924269947
 40
4.25
  0
ARC
  8
_0-1_
  6
CONTINUOUS
 62
    7
 10
44.929530171414513
 20
48.013029492426995
 40
4.25
 50
344.84900776576916
 51
206.03165629624209
  0
ARC
  8
_0-1_
  6
CONTINUOUS
 62
    7
 10
25.929530171414513
 20
29.013029492426995
 40
4.25
 50
63.968343703758222
 51
285.15099223423061
  0
CIRCLE
  8
_0-0_
  6
CONTINUOUS
 62
    7
 10
215.83461608508321
 20
27.013029492426995
 40
5.0499999999999998
  0
CIRCLE
  8
_0-0_
  6
CONTINUOUS
 62
    7
 10
215.83461608508321
 20
27.013029492426995
 40
8
  0
CIRCLE
  8
_0-1_
  6
CONTINUOUS
 62
  152
 10
215.83461608508321
 20
27.013029492426995
 40
6.0000000000000009
  0
CIRCLE
  8
_0-0_
  6
CONTINUOUS
 62
    7
 10
215.83461608508321
 20
27.013029492426995
 40
20.000000000000455
  0
CIRCLE
  8
_0-0_
  6
CONTINUOUS
 62
    7
 10
215.83461608508321
 20
27.013029492426995
 40
19.400000000000453
  0
CIRCLE
  8
_0-0_
  6
CONTINUOUS
 62
    7
 10
215.83461608508321
 20
27.013029492426995
 40
18.000000000000455
  0
CIRCLE
  8
_0-1_
  6
CONTINUOUS
 62
    7
 10
233.83461608508321
 20
48.013029492426995
 40
4.25
  0
CIRCLE
  8
_0-1_
  6
CONTINUOUS
 62
    7
 10
194.83461608508321
 20
9.0130294924269947
 40
4.25
  0
ARC
  8
_0-1_
  6
CONTINUOUS
 62
    7
 10
213.83461608508321
 20
48.013029492426995
 40
4.25
 50
344.84900776576916
 51
206.03165629624209
  0
ARC
  8
_0-1_
  6
CONTINUOUS
 62
    7
 10
194.83461608508321
 20
29.013029492426995
 40
4.25
 50
63.968343703758222
 51
285.15099223423061
  0
LINE
  8
_0-1_
  6
CONTINUOUS
 62
    7
 10
211.68461598971578
 20
197.03693867770397
 11
211.68461598971578
 21
197.43693848696932
  0
LINE
  8
_0-1_
  6
CONTINUOUS
 62
    7
 10
211.68461598971578
 20
197.43693848696932
 11
215.98461618045064
 21
197.43693848696932
  0
LINE
  8
_0-1_
  6
CONTINUOUS
 62
    7
 10
215.98461618045064
 20
197.43693848696932
 11
216.33461608508321
 21
197.0869381054996
  0
LINE
  8
_0-1_
  6
CONTINUOUS
 62
    7
 10
216.33461608508321
 20
197.0869381054996
 11
211.33461608508321
 21
197.0869381054996
  0
LINE
  8
_0-1_
  6
CONTINUOUS
 62
    7
 10
211.33461608508321
 20
197.0869381054996
 11
211.68461598971578
 21
197.43693848696932
  0
LINE
  8
_0-1_
  6
CONTINUOUS
 62
    7
 10
211.33461608508321
 20
197.0869381054996
 11
211.33461608508321
 21
197.03693867770397
  0
LINE
  8
_0-1_
  6
CENTER1
 62
  152
 10
213.83461608508321
 20
199.33803254897271
 11
213.83461608508321
 21
180.03387010049255
  0
LINE
  8
_0-1_
  6
CONTINUOUS
 62
    7
 10
212.6203303537676
 20
182.93693848696932
 11
212.6203303537676
 21
187.43693848696932
  0
LINE
  8
_0-1_
  6
CONTINUOUS
 62
    7
 10
212.01318754771444
 20
187.43693848696932
 11
212.01318754771444
 21
182.93693848696932
  0
LINE
  8
_0-1_
  6
CONTINUOUS
 62
    7
 10
211.40604462245199
 20
182.93693848696932
 11
211.40604462245199
 21
187.43693848696932
  0
LINE
  8
_0-1_
  6
CONTINUOUS
 62
    7
 10
210.79890169718954
 20
187.43693848696932
 11
210.79890169718954
 21
182.93693848696932
  0
LINE
  8
_0-1_
  6
CONTINUOUS
 62
    7
 10
210.19175901034566
 20
182.93693848696932
 11
210.19175901034566
 21
187.43693848696932
  0
LINE
  8
_0-1_
  6
CONTINUOUS
 62
    7
 10
209.58461608508321
 20
187.43693848696932
 11
218.08461608508321
 21
187.43693848696932
  0
LINE
  8
_0-1_
  6
CONTINUOUS
 62
    7
 10
218.08461608508321
 20
188.73693867770419
 11
218.08461608508321
 21
182.93693848696932
  0
LINE
  8
_0-1_
  6
CONTINUOUS
 62
    7
 10
218.08461608508321
 20
182.93693848696932
 11
217.58461608508321
 21
182.43693848696932
  0
LINE
  8
_0-1_
  6
CONTINUOUS
 62
    7
 10
217.58461608508321
 20
182.43693848696932
 11
210.08461608508321
 21
182.43693848696932
  0
LINE
  8
_0-1_
  6
CONTINUOUS
 62
    7
 10
210.08461608508321
 20
182.43693848696932
 11
209.58461608508321
 21
182.93693848696932
  0
LINE
  8
_0-1_
  6
CONTINUOUS
 62
    7
 10
209.58461608508321
 20
182.93693848696932
 11
218.08461608508321
 21
182.93693848696932
  0
LINE
  8
_0-0_
  6
CONTINUOUS
 62
    7
 10
207.83461608508321
 20
171.93693867770401
 11
223.83461608508321
 21
171.93693867770401
  0
LINE
  8
_0-0_
  6
CONTINUOUS
 62
    7
 10
223.83461608508321
 20
171.93693867770401
 11
224.83461608508321
 21
172.93693867770401
  0
LINE
  8
_0-0_
  6
CONTINUOUS
 62
    7
 10
224.83461608508321
 20
172.93693867770401
 11
224.83461608508321
 21
188.73693867770419
  0
LINE
  8
_0-1_
  6
CONTINUOUS
 62
    7
 10
229.58461608508321
 20
188.73693867770419
 11
229.58461608508321
 21
182.93693848696932
  0
LINE
  8
_0-1_
  6
CONTINUOUS
 62
    7
 10
229.58461608508321
 20
182.93693848696932
 11
230.08461608508321
 21
182.43693848696932
  0
LINE
  8
_0-1_
  6
CONTINUOUS
 62
    7
 10
230.08461608508321
 20
182.43693848696932
 11
237.58461608508321
 21
182.43693848696932
  0
LINE
  8
_0-1_
  6
CONTINUOUS
 62
    7
 10
237.58461608508321
 20
182.43693848696932
 11
238.08461608508321
 21
182.93693848696932
  0
LINE
  8
_0-1_
  6
CONTINUOUS
 62
    7
 10
238.08461608508321
 20
182.93693848696932
 11
229.58461608508321
 21
182.93693848696932
  0
LINE
  8
_0-1_
  6
CONTINUOUS
 62
    7
 10
230.19175901034566
 20
182.93693848696932
 11
230.19175901034566
 21
187.43693848696932
  0
LINE
  8
_0-1_
  6
CONTINUOUS
 62
    7
 10
230.79890169718954
 20
187.43693848696932
 11
230.79890169718954
 21
182.93693848696932
  0
LINE
  8
_0-1_
  6
CONTINUOUS
 62
    7
 10
231.40604462245199
 20
182.93693848696932
 11
231.40604462245199
 21
187.43693848696932
  0
LINE
  8
_0-1_
  6
CONTINUOUS
 62
    7
 10
232.01318754771444
 20
187.43693848696932
 11
232.01318754771444
 21
182.93693848696932
  0
LINE
  8
_0-1_
  6
CONTINUOUS
 62
    7
 10
232.6203303537676
 20
182.93693848696932
 11
232.6203303537676
 21
187.43693848696932
  0
LINE
  8
_0-1_
  6
CONTINUOUS
 62
    7
 10
234.2098937533209
 20
187.43693848696932
 11
233.45933841684553
 21
188.73693867770419
  0
LINE
  8
_0-0_
  6
CONTINUOUS
 62
    7
 10
236.83461608508321
 20
188.73693867770419
 11
236.83461608508321
 21
191.93693867770401
  0
LINE
  8
_0-1_
  6
CONTINUOUS
 62
    7
 10
236.33461608508321
 20
191.93693867770401
 11
236.33461608508321
 21
192.53693867770397
  0
LINE
  8
_0-1_
  6
CONTINUOUS
 62
    7
 10
235.98461618045064
 20
192.53693867770397
 11
235.98461618045064
 21
191.93693867770401
  0
LINE
  8
_0-0_
  6
CONTINUOUS
 62
    7
 10
238.83461608508321
 20
191.93693867770401
 11
238.83461608508321
 21
188.73693867770419
  0
LINE
  8
_0-0_
  6
CONTINUOUS
 62
    7
 10
238.83461608508321
 20
188.73693867770419
 11
188.83461608508321
 21
188.73693867770419
  0
LINE
  8
_0-0_
  6
CONTINUOUS
 62
    7
 10
188.83461608508321
 20
188.73693867770419
 11
188.83461608508321
 21
191.93693867770401
  0
LINE
  8
_0-0_
  6
CONTINUOUS
 62
    7
 10
188.83461608508321
 20
191.93693867770401
 11
238.83461608508321
 21
191.93693867770401
  0
LINE
  8
_0-1_
  6
CONTINUOUS
 62
    7
 10
238.83461608508321
 20
192.53693867770397
 11
238.83461608508321
 21
197.03693867770397
  0
LINE
  8
_0-1_
  6
CONTINUOUS
 62
    7
 10
238.83461608508321
 20
197.03693867770397
 11
208.83461608508321
 21
197.03693867770397
  0
LINE
  8
_0-1_
  6
CONTINUOUS
 62
    7
 10
208.83461608508321
 20
197.03693867770397
 11
208.83461608508321
 21
192.53693867770397
  0
LINE
  8
_0-1_
  6
CONTINUOUS
 62
    7
 10
208.83461608508321
 20
192.53693867770397
 11
238.83461608508321
 21
192.53693867770397
  0
LINE
  8
_0-1_
  6
CONTINUOUS
 62
    7
 10
238.83461608508321
 20
193.73693867770396
 11
208.83461608508321
 21
193.73693867770396
  0
LINE
  8
_0-1_
  6
CONTINUOUS
 62
    7
 10
211.33461608508321
 20
192.53693867770397
 11
211.33461608508321
 21
191.93693867770401
  0
LINE
  8
_0-1_
  6
CONTINUOUS
 62
    7
 10
211.68461598971578
 20
191.93693867770401
 11
211.68461598971578
 21
192.53693867770397
  0
LINE
  8
_0-1_
  6
CONTINUOUS
 62
    7
 10
215.98461618045064
 20
192.53693867770397
 11
215.98461618045064
 21
191.93693867770401
  0
LINE
  8
_0-1_
  6
CONTINUOUS
 62
    7
 10
216.33461608508321
 20
191.93693867770401
 11
216.33461608508321
 21
192.53693867770397
  0
LINE
  8
_0-1_
  6
CONTINUOUS
 62
    7
 10
216.33461608508321
 20
197.03693867770397
 11
216.33461608508321
 21
197.0869381054996
  0
LINE
  8
_0-1_
  6
CONTINUOUS
 62
    7
 10
215.98461618045064
 20
197.03693867770397
 11
215.98461618045064
 21
197.43693848696932
  0
LINE
  8
_0-1_
  6
CONTINUOUS
 62
    7
 10
213.45933841684553
 20
188.73693867770419
 11
214.2098937533209
 21
187.43693848696932
  0
LINE
  8
_0-1_
  6
CONTINUOUS
 62
    7
 10
209.58461608508321
 20
188.73693867770419
 11
209.58461608508321
 21
182.93693848696932
  0
LINE
  8
_0-0_
  6
CONTINUOUS
 62
    7
 10
206.83461608508321
 20
188.73693867770419
 11
206.83461608508321
 21
172.93693867770401
  0
LINE
  8
_0-0_
  6
CONTINUOUS
 62
    7
 10
206.83461608508321
 20
172.93693867770401
 11
207.83461608508321
 21
171.93693867770401
  0
LINE
  8
_0-0_
  6
CONTINUOUS
 62
    7
 10
224.83461608508321
 20
172.93693867770401
 11
206.83461608508321
 21
172.93693867770401
  0
LINE
  8
_0-1_
  6
CENTER1
 62
  152
 10
233.83461608508321
 20
180.03387010049255
 11
233.83461608508321
 21
199.33803254897271
  0
LINE
  8
_0-1_
  6
CONTINUOUS
 62
    7
 10
231.68461598971578
 20
197.43693848696932
 11
235.98461618045064
 21
197.43693848696932
  0
LINE
  8
_0-1_
  6
CONTINUOUS
 62
    7
 10
235.98461618045064
 20
197.43693848696932
 11
236.33461608508321
 21
197.0869381054996
  0
LINE
  8
_0-1_
  6
CONTINUOUS
 62
    7
 10
236.33461608508321
 20
197.0869381054996
 11
231.33461608508321
 21
197.0869381054996
  0
LINE
  8
_0-1_
  6
CONTINUOUS
 62
    7
 10
231.33461608508321
 20
197.0869381054996
 11
231.68461598971578
 21
197.43693848696932
  0
LINE
  8
_0-1_
  6
CONTINUOUS
 62
    7
 10
231.68461598971578
 20
197.43693848696932
 11
231.68461598971578
 21
197.03693867770397
  0
LINE
  8
_0-1_
  6
CONTINUOUS
 62
    7
 10
231.33461608508321
 20
197.03693867770397
 11
231.33461608508321
 21
197.0869381054996
  0
LINE
  8
_0-1_
  6
CONTINUOUS
 62
    7
 10
231.33461608508321
 20
192.53693867770397
 11
231.33461608508321
 21
191.93693867770401
  0
LINE
  8
_0-1_
  6
CONTINUOUS
 62
    7
 10
231.68461598971578
 20
191.93693867770401
 11
231.68461598971578
 21
192.53693867770397
  0
LINE
  8
_0-1_
  6
CONTINUOUS
 62
    7
 10
229.58461608508321
 20
187.43693848696932
 11
238.08461608508321
 21
187.43693848696932
  0
LINE
  8
_0-1_
  6
CONTINUOUS
 62
    7
 10
238.08461608508321
 20
188.73693867770419
 11
238.08461608508321
 21
182.93693848696932
  0
LINE
  8
_0-1_
  6
CONTINUOUS
 62
    7
 10
236.33461608508321
 20
197.03693867770397
 11
236.33461608508321
 21
197.0869381054996
  0
LINE
  8
_0-1_
  6
CONTINUOUS
 62
    7
 10
235.98461618045064
 20
197.03693867770397
 11
235.98461618045064
 21
197.43693848696932
  0
LINE
  8
_0-1_
  6
CONTINUOUS
 62
    7
 10
197.9896670850834
 20
196.59833867770402
 11
197.11600308508321
 21
196.9163286777038
  0
LINE
  8
_0-1_
  6
CONTINUOUS
 62
    7
 10
196.98461618045064
 20
196.95906628953952
 11
196.98461618045064
 21
197.43693848696932
  0
LINE
  8
_0-1_
  6
CONTINUOUS
 62
    7
 10
196.98461618045064
 20
197.43693848696932
 11
192.68461598971578
 21
197.43693848696932
  0
LINE
  8
_0-1_
  6
CONTINUOUS
 62
    7
 10
192.68461598971578
 20
197.43693848696932
 11
192.33461608508321
 21
197.0869381054996
  0
LINE
  8
_0-1_
  6
CONTINUOUS
 62
    7
 10
192.33461608508321
 20
197.0869381054996
 11
197.33461608508321
 21
197.0869381054996
  0
LINE
  8
_0-1_
  6
CONTINUOUS
 62
    7
 10
197.33461608508321
 20
197.0869381054996
 11
196.98461618045064
 21
197.43693848696932
  0
LINE
  8
_0-1_
  6
CONTINUOUS
 62
    7
 10
197.33461608508321
 20
197.0869381054996
 11
197.33461608508321
 21
196.83675947504702
  0
LINE
  8
_0-1_
  6
CONTINUOUS
 62
    7
 10
196.43196308508311
 20
197.03693867770397
 11
193.2372700850832
 21
197.03693867770397
  0
LINE
  8
_0-1_
  6
CONTINUOUS
 62
    7
 10
192.68461598971578
 20
196.95906600201772
 11
192.68461598971578
 21
197.43693848696932
  0
LINE
  8
_0-1_
  6
CONTINUOUS
 62
    7
 10
192.5532300850831
 20
196.9163286777038
 11
191.67956608508337
 21
196.59833867770402
  0
LINE
  8
_0-1_
  6
CONTINUOUS
 62
    7
 10
192.33461608508321
 20
196.83675911107412
 11
192.33461608508321
 21
197.0869381054996
  0
LINE
  8
_0-1_
  6
CONTINUOUS
 62
    7
 10
191.26307917829121
 20
193.73693867770379
 11
190.08764205761611
 21
193.73693867770379
  0
LINE
  8
_0-1_
  6
CONTINUOUS
 62
    7
 10
191.26307917829121
 20
193.73693867770379
 11
191.58461499187553
 21
192.53693867770397
  0
LINE
  8
_0-1_
  6
CONTINUOUS
 62
    7
 10
191.58461499187553
 20
192.53693867770397
 11
198.08461817829118
 21
192.53693867770397
  0
LINE
  8
_0-1_
  6
CONTINUOUS
 62
    7
 10
198.08461817829118
 20
192.53693867770397
 11
198.40615399187561
 21
193.73693867770379
  0
LINE
  8
_0-1_
  6
CONTINUOUS
 62
    7
 10
198.40615399187561
 20
193.73693867770379
 11
199.58159011255077
 21
193.73693867770379
  0
LINE
  8
_0-1_
  6
CONTINUOUS
 62
    7
 10
197.33461608508321
 20
192.53693867770397
 11
197.33461608508321
 21
191.93693867770401
  0
LINE
  8
_0-1_
  6
CONTINUOUS
 62
    7
 10
196.98461618045064
 20
191.93693867770401
 11
196.98461618045064
 21
192.53693867770397
  0
LINE
  8
_0-1_
  6
CONTINUOUS
 62
    7
 10
192.68461598971578
 20
192.53693867770397
 11
192.68461598971578
 21
191.93693867770401
  0
LINE
  8
_0-1_
  6
CONTINUOUS
 62
    7
 10
192.33461608508321
 20
191.93693867770401
 11
192.33461608508321
 21
192.53693867770397
  0
LINE
  8
_0-0_
  6
CONTINUOUS
 62
    7
 10
190.83461608508321
 20
191.93693867770401
 11
190.83461608508321
 21
188.73693867770419
  0
LINE
  8
_0-1_
  6
CONTINUOUS
 62
    7
 10
190.58461608508321
 20
188.73693867770419
 11
190.58461608508321
 21
182.93693848696932
  0
LINE
  8
_0-1_
  6
CONTINUOUS
 62
    7
 10
190.58461608508321
 20
182.93693848696932
 11
191.08461608508321
 21
182.43693848696932
  0
LINE
  8
_0-1_
  6
CONTINUOUS
 62
    7
 10
191.08461608508321
 20
182.43693848696932
 11
198.58461608508321
 21
182.43693848696932
  0
LINE
  8
_0-1_
  6
CONTINUOUS
 62
    7
 10
198.58461608508321
 20
182.43693848696932
 11
199.08461608508321
 21
182.93693848696932
  0
LINE
  8
_0-1_
  6
CONTINUOUS
 62
    7
 10
199.08461608508321
 20
182.93693848696932
 11
190.58461608508321
 21
182.93693848696932
  0
LINE
  8
_0-1_
  6
CONTINUOUS
 62
    7
 10
191.19175901034566
 20
182.93693848696932
 11
191.19175901034566
 21
187.43693848696932
  0
LINE
  8
_0-1_
  6
CONTINUOUS
 62
    7
 10
191.79890169718954
 20
187.43693848696932
 11
191.79890169718954
 21
182.93693848696932
  0
LINE
  8
_0-1_
  6
CONTINUOUS
 62
    7
 10
192.40604462245199
 20
182.93693848696932
 11
192.40604462245199
 21
187.43693848696932
  0
LINE
  8
_0-1_
  6
CONTINUOUS
 62
    7
 10
193.01318754771444
 20
187.43693848696932
 11
193.01318754771444
 21
182.93693848696932
  0
LINE
  8
_0-1_
  6
CONTINUOUS
 62
    7
 10
193.6203303537676
 20
182.93693848696932
 11
193.6203303537676
 21
187.43693848696932
  0
LINE
  8
_0-1_
  6
CONTINUOUS
 62
    7
 10
195.2098937533209
 20
187.43693848696932
 11
194.45933841684553
 21
188.73693867770419
  0
LINE
  8
_0-1_
  6
CONTINUOUS
 62
    7
 10
199.08461608508321
 20
188.73693867770419
 11
199.08461608508321
 21
182.93693848696932
  0
LINE
  8
_0-1_
  6
CONTINUOUS
 62
    7
 10
199.08461608508321
 20
187.43693848696932
 11
190.58461608508321
 21
187.43693848696932
  0
LINE
  8
_0-1_
  6
CENTER1
 62
  152
 10
194.83461608508321
 20
180.03387010049255
 11
194.83461608508321
 21
199.33803254897271
  0
LINE
  8
_0-1_
  6
CONTINUOUS
 62
    7
 10
69.929530171414513
 20
197.03693867770397
 11
69.929530171414513
 21
192.53693867770397
  0
LINE
  8
_0-1_
  6
CONTINUOUS
 62
    7
 10
69.929530171414513
 20
192.53693867770397
 11
39.929530171414513
 21
192.53693867770397
  0
LINE
  8
_0-1_
  6
CONTINUOUS
 62
    7
 10
39.929530171414513
 20
192.53693867770397
 11
39.929530171414513
 21
197.03693867770397
  0
LINE
  8
_0-1_
  6
CONTINUOUS
 62
    7
 10
39.929530171414513
 20
197.03693867770397
 11
69.929530171414513
 21
197.03693867770397
  0
LINE
  8
_0-1_
  6
CONTINUOUS
 62
    7
 10
67.429530171414513
 20
197.03693867770397
 11
67.429530171414513
 21
197.0869381054996
  0
LINE
  8
_0-1_
  6
CONTINUOUS
 62
    7
 10
67.429530171414513
 20
197.0869381054996
 11
67.079530266781944
 21
197.43693848696932
  0
LINE
  8
_0-1_
  6
CONTINUOUS
 62
    7
 10
67.079530266781944
 20
197.43693848696932
 11
62.779530076047081
 21
197.43693848696932
  0
LINE
  8
_0-1_
  6
CONTINUOUS
 62
    7
 10
62.779530076047081
 20
197.43693848696932
 11
62.429530171414513
 21
197.0869381054996
  0
LINE
  8
_0-1_
  6
CONTINUOUS
 62
    7
 10
62.429530171414513
 20
197.0869381054996
 11
67.429530171414513
 21
197.0869381054996
  0
LINE
  8
_0-1_
  6
CONTINUOUS
 62
    7
 10
67.079530266781944
 20
197.03693867770397
 11
67.079530266781944
 21
197.43693848696932
  0
LINE
  8
_0-1_
  6
CENTER1
 62
  152
 10
64.929530171414513
 20
199.33803254897271
 11
64.929530171414513
 21
180.03387010049255
  0
LINE
  8
_0-1_
  6
CONTINUOUS
 62
    7
 10
63.7152444400989
 20
182.93693848696932
 11
63.7152444400989
 21
187.43693848696932
  0
LINE
  8
_0-1_
  6
CONTINUOUS
 62
    7
 10
63.108101634045738
 20
187.43693848696932
 11
63.108101634045738
 21
182.93693848696932
  0
LINE
  8
_0-1_
  6
CONTINUOUS
 62
    7
 10
62.500958708783287
 20
182.93693848696932
 11
62.500958708783287
 21
187.43693848696932
  0
LINE
  8
_0-1_
  6
CONTINUOUS
 62
    7
 10
61.893815783520836
 20
187.43693848696932
 11
61.893815783520836
 21
182.93693848696932
  0
LINE
  8
_0-1_
  6
CONTINUOUS
 62
    7
 10
61.286673096676964
 20
182.93693848696932
 11
61.286673096676964
 21
187.43693848696932
  0
LINE
  8
_0-1_
  6
CONTINUOUS
 62
    7
 10
60.679530171414513
 20
187.43693848696932
 11
69.179530171414513
 21
187.43693848696932
  0
LINE
  8
_0-1_
  6
CONTINUOUS
 62
    7
 10
69.179530171414513
 20
188.73693867770419
 11
69.179530171414513
 21
182.93693848696932
  0
LINE
  8
_0-1_
  6
CONTINUOUS
 62
    7
 10
69.179530171414513
 20
182.93693848696932
 11
68.679530171414513
 21
182.43693848696932
  0
LINE
  8
_0-1_
  6
CONTINUOUS
 62
    7
 10
68.679530171414513
 20
182.43693848696932
 11
61.179530171414513
 21
182.43693848696932
  0
LINE
  8
_0-1_
  6
CONTINUOUS
 62
    7
 10
61.179530171414513
 20
182.43693848696932
 11
60.679530171414513
 21
182.93693848696932
  0
LINE
  8
_0-1_
  6
CONTINUOUS
 62
    7
 10
60.679530171414513
 20
182.93693848696932
 11
69.179530171414513
 21
182.93693848696932
  0
LINE
  8
_0-0_
  6
CONTINUOUS
 62
    7
 10
69.929530171414513
 20
188.73693867770419
 11
69.929530171414513
 21
191.93693867770401
  0
LINE
  8
_0-0_
  6
CONTINUOUS
 62
    7
 10
69.929530171414513
 20
191.93693867770401
 11
19.929530171414513
 21
191.93693867770401
  0
LINE
  8
_0-0_
  6
CONTINUOUS
 62
    7
 10
19.929530171414513
 20
191.93693867770401
 11
19.929530171414513
 21
188.73693867770419
  0
LINE
  8
_0-0_
  6
CONTINUOUS
 62
    7
 10
19.929530171414513
 20
188.73693867770419
 11
69.929530171414513
 21
188.73693867770419
  0
LINE
  8
_0-0_
  6
CONTINUOUS
 62
    7
 10
67.929530171414513
 20
188.73693867770419
 11
67.929530171414513
 21
191.93693867770401
  0
LINE
  8
_0-1_
  6
CONTINUOUS
 62
    7
 10
67.429530171414513
 20
191.93693867770401
 11
67.429530171414513
 21
192.53693867770397
  0
LINE
  8
_0-1_
  6
CONTINUOUS
 62
    7
 10
67.079530266781944
 20
192.53693867770397
 11
67.079530266781944
 21
191.93693867770401
  0
LINE
  8
_0-1_
  6
CONTINUOUS
 62
    7
 10
62.779530076047081
 20
191.93693867770401
 11
62.779530076047081
 21
192.53693867770397
  0
LINE
  8
_0-1_
  6
CONTINUOUS
 62
    7
 10
62.429530171414513
 20
192.53693867770397
 11
62.429530171414513
 21
191.93693867770401
  0
LINE
  8
_0-1_
  6
CONTINUOUS
 62
    7
 10
60.679530171414513
 20
188.73693867770419
 11
60.679530171414513
 21
182.93693848696932
  0
LINE
  8
_0-1_
  6
CONTINUOUS
 62
    7
 10
65.304807839652199
 20
187.43693848696932
 11
64.554252503176826
 21
188.73693867770419
  0
LINE
  8
_0-0_
  6
CONTINUOUS
 62
    7
 10
55.929530171414513
 20
188.73693867770419
 11
55.929530171414513
 21
172.93693867770401
  0
LINE
  8
_0-0_
  6
CONTINUOUS
 62
    7
 10
55.929530171414513
 20
172.93693867770401
 11
54.929530171414513
 21
171.93693867770401
  0
LINE
  8
_0-0_
  6
CONTINUOUS
 62
    7
 10
54.929530171414513
 20
171.93693867770401
 11
38.929530171414513
 21
171.93693867770401
  0
LINE
  8
_0-0_
  6
CONTINUOUS
 62
    7
 10
38.929530171414513
 20
171.93693867770401
 11
37.929530171414513
 21
172.93693867770401
  0
LINE
  8
_0-0_
  6
CONTINUOUS
 62
    7
 10
37.929530171414513
 20
172.93693867770401
 11
37.929530171414513
 21
188.73693867770419
  0
LINE
  8
_0-1_
  6
CONTINUOUS
 62
    7
 10
40.679530171414513
 20
188.73693867770419
 11
40.679530171414513
 21
182.93693848696932
  0
LINE
  8
_0-1_
  6
CONTINUOUS
 62
    7
 10
40.679530171414513
 20
182.93693848696932
 11
41.179530171414513
 21
182.43693848696932
  0
LINE
  8
_0-1_
  6
CONTINUOUS
 62
    7
 10
41.179530171414513
 20
182.43693848696932
 11
48.679530171414513
 21
182.43693848696932
  0
LINE
  8
_0-1_
  6
CONTINUOUS
 62
    7
 10
48.679530171414513
 20
182.43693848696932
 11
49.179530171414513
 21
182.93693848696932
  0
LINE
  8
_0-1_
  6
CONTINUOUS
 62
    7
 10
49.179530171414513
 20
182.93693848696932
 11
40.679530171414513
 21
182.93693848696932
  0
LINE
  8
_0-1_
  6
CONTINUOUS
 62
    7
 10
41.286673096676964
 20
182.93693848696932
 11
41.286673096676964
 21
187.43693848696932
  0
LINE
  8
_0-1_
  6
CONTINUOUS
 62
    7
 10
41.893815783520836
 20
187.43693848696932
 11
41.893815783520836
 21
182.93693848696932
  0
LINE
  8
_0-1_
  6
CONTINUOUS
 62
    7
 10
42.500958708783287
 20
182.93693848696932
 11
42.500958708783287
 21
187.43693848696932
  0
LINE
  8
_0-1_
  6
CONTINUOUS
 62
    7
 10
43.108101634045738
 20
187.43693848696932
 11
43.108101634045738
 21
182.93693848696932
  0
LINE
  8
_0-1_
  6
CONTINUOUS
 62
    7
 10
43.7152444400989
 20
182.93693848696932
 11
43.7152444400989
 21
187.43693848696932
  0
LINE
  8
_0-1_
  6
CONTINUOUS
 62
    7
 10
45.304807839652199
 20
187.43693848696932
 11
44.554252503176826
 21
188.73693867770419
  0
LINE
  8
_0-1_
  6
CONTINUOUS
 62
    7
 10
49.179530171414513
 20
188.73693867770419
 11
49.179530171414513
 21
182.93693848696932
  0
LINE
  8
_0-0_
  6
CONTINUOUS
 62
    7
 10
37.929530171414513
 20
172.93693867770401
 11
55.929530171414513
 21
172.93693867770401
  0
LINE
  8
_0-1_
  6
CENTER1
 62
  152
 10
44.929530171414513
 20
180.03387010049255
 11
44.929530171414513
 21
199.33803254897271
  0
LINE
  8
_0-1_
  6
CONTINUOUS
 62
    7
 10
47.079530266781944
 20
197.43693848696932
 11
42.779530076047081
 21
197.43693848696932
  0
LINE
  8
_0-1_
  6
CONTINUOUS
 62
    7
 10
42.779530076047081
 20
197.43693848696932
 11
42.429530171414513
 21
197.0869381054996
  0
LINE
  8
_0-1_
  6
CONTINUOUS
 62
    7
 10
42.429530171414513
 20
197.0869381054996
 11
47.429530171414513
 21
197.0869381054996
  0
LINE
  8
_0-1_
  6
CONTINUOUS
 62
    7
 10
47.429530171414513
 20
197.0869381054996
 11
47.079530266781944
 21
197.43693848696932
  0
LINE
  8
_0-1_
  6
CONTINUOUS
 62
    7
 10
47.079530266781944
 20
197.43693848696932
 11
47.079530266781944
 21
197.03693867770397
  0
LINE
  8
_0-1_
  6
CONTINUOUS
 62
    7
 10
47.429530171414513
 20
197.03693867770397
 11
47.429530171414513
 21
197.0869381054996
  0
LINE
  8
_0-1_
  6
CONTINUOUS
 62
    7
 10
47.429530171414513
 20
192.53693867770397
 11
47.429530171414513
 21
191.93693867770401
  0
LINE
  8
_0-1_
  6
CONTINUOUS
 62
    7
 10
47.079530266781944
 20
191.93693867770401
 11
47.079530266781944
 21
192.53693867770397
  0
LINE
  8
_0-1_
  6
CONTINUOUS
 62
    7
 10
42.779530076047081
 20
192.53693867770397
 11
42.779530076047081
 21
191.93693867770401
  0
LINE
  8
_0-1_
  6
CONTINUOUS
 62
    7
 10
42.429530171414513
 20
191.93693867770401
 11
42.429530171414513
 21
192.53693867770397
  0
LINE
  8
_0-1_
  6
CONTINUOUS
 62
    7
 10
39.929530171414513
 20
193.73693867770396
 11
69.929530171414513
 21
193.73693867770396
  0
LINE
  8
_0-1_
  6
CONTINUOUS
 62
    7
 10
62.779530076047081
 20
197.03693867770397
 11
62.779530076047081
 21
197.43693848696932
  0
LINE
  8
_0-1_
  6
CONTINUOUS
 62
    7
 10
62.429530171414513
 20
197.0869381054996
 11
62.429530171414513
 21
197.03693867770397
  0
LINE
  8
_0-1_
  6
CONTINUOUS
 62
    7
 10
42.779530076047081
 20
197.03693867770397
 11
42.779530076047081
 21
197.43693848696932
  0
LINE
  8
_0-1_
  6
CONTINUOUS
 62
    7
 10
42.429530171414513
 20
197.0869381054996
 11
42.429530171414513
 21
197.03693867770397
  0
LINE
  8
_0-1_
  6
CONTINUOUS
 62
    7
 10
40.679530171414513
 20
187.43693848696932
 11
49.179530171414513
 21
187.43693848696932
  0
LINE
  8
_0-1_
  6
CONTINUOUS
 62
    7
 10
30.179530171414513
 20
187.43693848696932
 11
21.679530171414513
 21
187.43693848696932
  0
LINE
  8
_0-1_
  6
CONTINUOUS
 62
    7
 10
22.286673096676964
 20
187.43693848696932
 11
22.286673096676964
 21
182.93693848696932
  0
LINE
  8
_0-1_
  6
CONTINUOUS
 62
    7
 10
22.893815783520836
 20
182.93693848696932
 11
22.893815783520836
 21
187.43693848696932
  0
LINE
  8
_0-1_
  6
CONTINUOUS
 62
    7
 10
23.500958708783287
 20
187.43693848696932
 11
23.500958708783287
 21
182.93693848696932
  0
LINE
  8
_0-1_
  6
CONTINUOUS
 62
    7
 10
24.108101634045738
 20
182.93693848696932
 11
24.108101634045738
 21
187.43693848696932
  0
LINE
  8
_0-1_
  6
CONTINUOUS
 62
    7
 10
24.7152444400989
 20
187.43693848696932
 11
24.7152444400989
 21
182.93693848696932
  0
LINE
  8
_0-1_
  6
CONTINUOUS
 62
    7
 10
22.179530171414513
 20
182.43693848696932
 11
29.679530171414513
 21
182.43693848696932
  0
LINE
  8
_0-1_
  6
CONTINUOUS
 62
    7
 10
29.679530171414513
 20
182.43693848696932
 11
30.179530171414513
 21
182.93693848696932
  0
LINE
  8
_0-1_
  6
CONTINUOUS
 62
    7
 10
30.179530171414513
 20
182.93693848696932
 11
21.679530171414513
 21
182.93693848696932
  0
LINE
  8
_0-1_
  6
CONTINUOUS
 62
    7
 10
21.679530171414513
 20
182.93693848696932
 11
22.179530171414513
 21
182.43693848696932
  0
LINE
  8
_0-1_
  6
CONTINUOUS
 62
    7
 10
21.679530171414513
 20
182.93693848696932
 11
21.679530171414513
 21
188.73693867770419
  0
LINE
  8
_0-0_
  6
CONTINUOUS
 62
    7
 10
21.929530171414513
 20
188.73693867770419
 11
21.929530171414513
 21
191.93693867770401
  0
LINE
  8
_0-1_
  6
CONTINUOUS
 62
    7
 10
22.67952907820677
 20
192.53693867770397
 11
22.357993264622564
 21
193.73693867770379
  0
LINE
  8
_0-1_
  6
CONTINUOUS
 62
    7
 10
22.357993264622564
 20
193.73693867770379
 11
21.182556143947409
 21
193.73693867770379
  0
LINE
  8
_0-1_
  6
CONTINUOUS
 62
    7
 10
22.67952907820677
 20
192.53693867770397
 11
29.17953226462248
 21
192.53693867770397
  0
LINE
  8
_0-1_
  6
CONTINUOUS
 62
    7
 10
29.17953226462248
 20
192.53693867770397
 11
29.501068078206913
 21
193.73693867770379
  0
LINE
  8
_0-1_
  6
CONTINUOUS
 62
    7
 10
29.501068078206913
 20
193.73693867770379
 11
30.676504198882071
 21
193.73693867770379
  0
LINE
  8
_0-1_
  6
CONTINUOUS
 62
    7
 10
28.429530171414513
 20
192.53693867770397
 11
28.429530171414513
 21
191.93693867770401
  0
LINE
  8
_0-1_
  6
CONTINUOUS
 62
    7
 10
28.079530266781944
 20
191.93693867770401
 11
28.079530266781944
 21
192.53693867770397
  0
LINE
  8
_0-1_
  6
CONTINUOUS
 62
    7
 10
23.779530076047081
 20
192.53693867770397
 11
23.779530076047081
 21
191.93693867770401
  0
LINE
  8
_0-1_
  6
CONTINUOUS
 62
    7
 10
23.429530171414513
 20
191.93693867770401
 11
23.429530171414513
 21
192.53693867770397
  0
LINE
  8
_0-1_
  6
CONTINUOUS
 62
    7
 10
23.429530171414513
 20
196.83675911107412
 11
23.429530171414513
 21
197.0869381054996
  0
LINE
  8
_0-1_
  6
CONTINUOUS
 62
    7
 10
23.429530171414513
 20
197.0869381054996
 11
23.779530076047081
 21
197.43693848696932
  0
LINE
  8
_0-1_
  6
CONTINUOUS
 62
    7
 10
23.779530076047081
 20
197.43693848696932
 11
28.079530266781944
 21
197.43693848696932
  0
LINE
  8
_0-1_
  6
CONTINUOUS
 62
    7
 10
28.079530266781944
 20
197.43693848696932
 11
28.429530171414513
 21
197.0869381054996
  0
LINE
  8
_0-1_
  6
CONTINUOUS
 62
    7
 10
28.429530171414513
 20
197.0869381054996
 11
23.429530171414513
 21
197.0869381054996
  0
LINE
  8
_0-1_
  6
CONTINUOUS
 62
    7
 10
23.648144171414401
 20
196.9163286777038
 11
22.774480171414666
 21
196.59833867770402
  0
LINE
  8
_0-1_
  6
CONTINUOUS
 62
    7
 10
23.779530076047081
 20
196.95906600201772
 11
23.779530076047081
 21
197.43693848696932
  0
LINE
  8
_0-1_
  6
CONTINUOUS
 62
    7
 10
24.332184171414497
 20
197.03693867770397
 11
27.526877171414412
 21
197.03693867770397
  0
LINE
  8
_0-1_
  6
CONTINUOUS
 62
    7
 10
28.079530266781944
 20
196.95906628953952
 11
28.079530266781944
 21
197.43693848696932
  0
LINE
  8
_0-1_
  6
CONTINUOUS
 62
    7
 10
28.210917171414508
 20
196.9163286777038
 11
29.084581171414698
 21
196.59833867770402
  0
LINE
  8
_0-1_
  6
CONTINUOUS
 62
    7
 10
28.429530171414513
 20
196.83675947504702
 11
28.429530171414513
 21
197.0869381054996
  0
LINE
  8
_0-1_
  6
CENTER1
 62
  152
 10
25.929530171414513
 20
199.33803254897271
 11
25.929530171414513
 21
180.03387010049255
  0
LINE
  8
_0-1_
  6
CONTINUOUS
 62
    7
 10
30.179530171414513
 20
182.93693848696932
 11
30.179530171414513
 21
188.73693867770419
  0
LINE
  8
_0-1_
  6
CONTINUOUS
 62
    7
 10
25.554252503176826
 20
188.73693867770419
 11
26.304807839652199
 21
187.43693848696932
  0
ARC
  8
_0-1_
  6
CONTINUOUS
 62
    7
 10
27.526877171414412
 20
195.03693867770397
 40
2
 50
69.999999999999972
 51
90
  0
ARC
  8
_0-1_
  6
CONTINUOUS
 62
    7
 10
24.332184171414497
 20
195.03693867770397
 40
2
 50
90
 51
110
  0
ARC
  8
_0-1_
  6
CONTINUOUS
 62
    7
 10
28.229530171414694
 20
194.24910867770376
 40
2.5
 50
348.17822799457855
 51
69.999999999999929
  0
ARC
  8
_0-1_
  6
CONTINUOUS
 62
    7
 10
23.629530171414785
 20
194.24910867770376
 40
2.5
 50
110.00000000000003
 51
191.82177200542145
  0
ARC
  8
_0-1_
  6
CONTINUOUS
 62
    7
 10
196.43196308508311
 20
195.03693867770397
 40
2
 50
69.999999999999972
 51
90
  0
ARC
  8
_0-1_
  6
CONTINUOUS
 62
    7
 10
193.2372700850832
 20
195.03693867770397
 40
2
 50
90
 51
110
  0
ARC
  8
_0-1_
  6
CONTINUOUS
 62
    7
 10
197.13461608508339
 20
194.24910867770376
 40
2.5
 50
348.17822799457855
 51
69.999999999999929
  0
ARC
  8
_0-1_
  6
CONTINUOUS
 62
    7
 10
192.53461608508348
 20
194.24910867770376
 40
2.5
 50
110.00000000000003
 51
191.82177200542145
  0
LINE
  8
_0-9_
  6
PHANTOM1
 62
  152
 10
52.92953017141474
 20
242.63693891612263
 11
51.929530171414513
 21
243.63693891612286
  0
LINE
  8
_0-9_
  6
PHANTOM1
 62
  152
 10
51.929530171414513
 20
243.63693891612286
 11
41.929530171414513
 21
243.63693891612286
  0
LINE
  8
_0-9_
  6
PHANTOM1
 62
  152
 10
41.929530171414513
 20
243.63693891612286
 11
40.929530171414285
 21
242.63693891612263
  0
LINE
  8
_0-9_
  6
PHANTOM1
 62
  152
 10
40.929530171414285
 20
242.63693891612263
 11
40.929530171414285
 21
223.73693891612282
  0
LINE
  8
_0-9_
  6
PHANTOM1
 62
  152
 10
52.92953017141474
 20
223.73693891612282
 11
52.92953017141474
 21
242.63693891612263
  0
LINE
  8
_0-9_
  6
PHANTOM1
 62
  152
 10
211.83461608508344
 20
245.53693867770414
 11
219.83461608508298
 21
245.53693867770414
  0
LINE
  8
_0-9_
  6
PHANTOM1
 62
  152
 10
219.83461608508298
 20
245.53693867770414
 11
220.83461608508321
 21
244.53693867770392
  0
LINE
  8
_0-9_
  6
PHANTOM1
 62
  152
 10
210.83461608508321
 20
244.53693867770392
 11
211.83461608508344
 21
245.53693867770414
  0
LINE
  8
_0-9_
  6
PHANTOM1
 62
  152
 10
210.83461608508321
 20
225.63693867770411
 11
210.83461608508321
 21
244.53693867770392
  0
LINE
  8
_0-9_
  6
PHANTOM1
 62
  152
 10
220.83461608508321
 20
244.53693867770392
 11
220.83461608508321
 21
225.63693867770411
  0
LINE
  8
_0-9_
  6
PHANTOM1
 62
  152
 10
58.92953017141383
 20
105.83693867770387
 11
58.92953017141383
 21
105.43693867770355
  0
LINE
  8
_0-9_
  6
PHANTOM1
 62
  152
 10
34.929530171415195
 20
105.43693867770355
 11
34.929530171415195
 21
105.83693867770387
  0
LINE
  8
_0-9_
  6
PHANTOM1
 62
  152
 10
66.929530171414513
 20
102.43693867770355
 11
66.929530171414513
 21
97.436938677703552
  0
LINE
  8
_0-9_
  6
PHANTOM1
 62
  152
 10
26.929530171414513
 20
97.436938677703552
 11
26.929530171414513
 21
102.43693867770355
  0
LINE
  8
_0-9_
  6
PHANTOM1
 62
  152
 10
27.529530171415104
 20
97.436938677703552
 11
27.529530171415104
 21
94.936938677703552
  0
LINE
  8
_0-9_
  6
PHANTOM1
 62
  152
 10
66.329530171413921
 20
94.936938677703552
 11
66.329530171413921
 21
97.436938677703552
  0
LINE
  8
_0-9_
  6
PHANTOM1
 62
  152
 10
64.929530171415195
 20
94.936938677703552
 11
64.929530171415195
 21
91.936938677704006
  0
LINE
  8
_0-9_
  6
PHANTOM1
 62
  152
 10
64.929530171415195
 20
91.936938677704006
 11
28.92953017141383
 21
91.936938677704006
  0
LINE
  8
_0-9_
  6
PHANTOM1
 62
  152
 10
28.92953017141383
 20
91.936938677704006
 11
28.92953017141383
 21
94.936938677703552
  0
ARC
  8
_0-9_
  6
PHANTOM1
 62
  152
 10
29.929530171415195
 20
102.43693867770355
 40
2.9999999999999867
 50
89.99999999999946
 51
180.0000000000002
  0
ARC
  8
_0-9_
  6
PHANTOM1
 62
  152
 10
63.92953017141383
 20
102.43693867770355
 40
2.9999999999999725
 50
359.99999999999977
 51
90.00000000000054
  0
LINE
  8
_0-9_
  6
PHANTOM1
 62
  152
 10
34.929530171415195
 20
105.83693867770387
 11
38.92953017141383
 21
105.83693867770387
  0
LINE
  8
_0-9_
  6
PHANTOM1
 62
  152
 10
54.929530171415195
 20
105.83693867770387
 11
58.92953017141383
 21
105.83693867770387
  0
LINE
  8
_0-9_
  6
PHANTOM1
 62
  152
 10
63.92953017141383
 20
105.43693867770355
 11
58.92953017141383
 21
105.43693867770355
  0
LINE
  8
_0-9_
  6
PHANTOM1
 62
  152
 10
34.929530171415195
 20
105.43693867770355
 11
29.929530171665306
 21
105.43693867770355
  0
LINE
  8
_0-9_
  6
PHANTOM1
 62
  152
 10
66.929530171414513
 20
97.436938677703552
 11
66.329530171413921
 21
97.436938677703552
  0
LINE
  8
_0-9_
  6
PHANTOM1
 62
  152
 10
27.529530171415104
 20
97.436938677703552
 11
26.929530171414513
 21
97.436938677703552
  0
LINE
  8
_0-9_
  6
PHANTOM1
 62
  152
 10
27.529530171415104
 20
94.936938677703552
 11
28.92953017141383
 21
94.936938677703552
  0
LINE
  8
_0-9_
  6
PHANTOM1
 62
  152
 10
64.929530171415195
 20
94.936938677703552
 11
66.329530171413921
 21
94.936938677703552
  0
LINE
  8
_0-9_
  6
PHANTOM1
 62
  152
 10
203.83461608508276
 20
105.83693867770387
 11
203.83461608508276
 21
105.43693867770355
  0
LINE
  8
_0-9_
  6
PHANTOM1
 62
  152
 10
227.83461608508367
 20
105.83693867770387
 11
227.83461608508367
 21
105.43693867770355
  0
LINE
  8
_0-9_
  6
PHANTOM1
 62
  152
 10
235.83461608508321
 20
102.43693867770355
 11
235.83461608508321
 21
97.436938677703552
  0
LINE
  8
_0-9_
  6
PHANTOM1
 62
  152
 10
195.83461608508321
 20
97.436938677703552
 11
195.83461608508321
 21
102.43693867770355
  0
LINE
  8
_0-9_
  6
PHANTOM1
 62
  152
 10
196.43461608508267
 20
97.436938677703552
 11
196.43461608508267
 21
94.936938677703552
  0
LINE
  8
_0-9_
  6
PHANTOM1
 62
  152
 10
235.23461608508376
 20
94.936938677703552
 11
235.23461608508376
 21
97.436938677703552
  0
ARC
  8
_0-9_
  6
PHANTOM1
 62
  152
 10
198.83461608508276
 20
102.43693867770355
 40
2.9999999999999867
 50
89.99999999999946
 51
180.0000000000002
  0
ARC
  8
_0-9_
  6
PHANTOM1
 62
  152
 10
232.83461608508367
 20
102.43693867770355
 40
2.9999999999999725
 50
359.99999999999977
 51
90.00000000000054
  0
LINE
  8
_0-9_
  6
PHANTOM1
 62
  152
 10
224.28461608508348
 20
105.83693867770387
 11
227.83461608508367
 21
105.83693867770387
  0
LINE
  8
_0-9_
  6
PHANTOM1
 62
  152
 10
232.83461608508367
 20
105.43693867770355
 11
227.83461608508367
 21
105.43693867770355
  0
LINE
  8
_0-9_
  6
PHANTOM1
 62
  152
 10
203.83461608508276
 20
105.43693867770355
 11
198.83461608533287
 21
105.43693867770355
  0
LINE
  8
_0-9_
  6
PHANTOM1
 62
  152
 10
235.83461608508321
 20
97.436938677703552
 11
235.23461608508376
 21
97.436938677703552
  0
LINE
  8
_0-9_
  6
PHANTOM1
 62
  152
 10
196.43461608508267
 20
97.436938677703552
 11
195.83461608508321
 21
97.436938677703552
  0
LINE
  8
_0-9_
  6
PHANTOM1
 62
  152
 10
196.43461608508267
 20
94.936938677703552
 11
197.83461608508367
 21
94.936938677703552
  0
LINE
  8
_0-9_
  6
PHANTOM1
 62
  152
 10
233.83461608508276
 20
94.936938677703552
 11
235.23461608508376
 21
94.936938677703552
  0
LINE
  8
_0-9_
  6
PHANTOM1
 62
  152
 10
203.83461608508276
 20
105.83693867770387
 11
207.38461608508294
 21
105.83693867770387
  0
LINE
  8
_0-1_
  6
CENTER1
 62
  152
 10
46.929530171414513
 20
243.63693891612286
 11
46.929530171414513
 21
91.936938677704006
  0
LINE
  8
_0-1_
  6
CENTER1
 62
  152
 10
215.83461608508321
 20
245.53693867770414
 11
215.83461608508321
 21
91.936938677704006
  0
LINE
  8
_0-0_
  6
CONTINUOUS
 62
    7
 10
19.929530171414513
 20
319.82727935410344
 11
19.929530171414513
 21
273.82727935410321
  0
LINE
  8
_0-0_
  6
CONTINUOUS
 62
    7
 10
19.929530171414513
 20
273.82727935410321
 11
21.929530171414513
 21
271.82727935410321
  0
LINE
  8
_0-0_
  6
CONTINUOUS
 62
    7
 10
21.929530171414513
 20
271.82727935410321
 11
67.929530171414513
 21
271.82727935410321
  0
LINE
  8
_0-0_
  6
CONTINUOUS
 62
    7
 10
67.929530171414513
 20
271.82727935410321
 11
69.929530171414513
 21
273.82727935410321
  0
LINE
  8
_0-0_
  6
CONTINUOUS
 62
    7
 10
69.929530171414513
 20
273.82727935410321
 11
69.929530171414513
 21
296.82727935410321
  0
LINE
  8
_0-0_
  6
CONTINUOUS
 62
    7
 10
69.929530171414513
 20
296.82727935410321
 11
44.929530171414513
 21
321.82727935410344
  0
LINE
  8
_0-0_
  6
CONTINUOUS
 62
    7
 10
44.929530171414513
 20
321.82727935410344
 11
21.929530171414513
 21
321.82727935410344
  0
LINE
  8
_0-0_
  6
CONTINUOUS
 62
    7
 10
21.929530171414513
 20
321.82727935410344
 11
19.929530171414513
 21
319.82727935410344
  0
LINE
  8
_0-1_
  6
CENTER1
 62
  152
 10
25.929530171414513
 20
319.42727935410335
 11
25.929530171414513
 21
314.2272793541033
  0
LINE
  8
_0-1_
  6
CENTER1
 62
  152
 10
28.529530171414422
 20
316.82727935410321
 11
23.329530171414376
 21
316.82727935410321
  0
LINE
  8
_0-1_
  6
CENTER1
 62
  152
 10
23.329530171414376
 20
296.82727935410321
 11
28.529530171414422
 21
296.82727935410321
  0
LINE
  8
_0-1_
  6
CENTER1
 62
  152
 10
25.929530171414513
 20
299.42727935410312
 11
25.929530171414513
 21
294.2272793541033
  0
LINE
  8
_0-1_
  6
CENTER1
 62
  152
 10
37.929530171414513
 20
298.82727935410321
 11
55.929530171414513
 21
298.82727935410321
  0
LINE
  8
_0-1_
  6
CENTER1
 62
  152
 10
46.929530171414513
 20
289.82727935410321
 11
46.929530171414513
 21
307.82727935410321
  0
LINE
  8
_0-1_
  6
CENTER1
 62
  152
 10
44.929530171414513
 20
280.42727935410358
 11
44.929530171414513
 21
275.2272793541033
  0
LINE
  8
_0-1_
  6
CENTER1
 62
  152
 10
47.529530171414422
 20
277.82727935410321
 11
42.329530171414376
 21
277.82727935410321
  0
LINE
  8
_0-1_
  6
CENTER1
 62
  152
 10
62.329530171414149
 20
277.82727935410321
 11
67.529530171414422
 21
277.82727935410321
  0
LINE
  8
_0-1_
  6
CENTER1
 62
  152
 10
64.929530171414513
 20
275.2272793541033
 11
64.929530171414513
 21
280.42727935410358
  0
LINE
  8
_0-0_
  6
CONTINUOUS
 62
    7
 10
87.475929242884717
 20
273.82727935410321
 11
90.675929242884536
 21
273.82727935410321
  0
LINE
  8
_0-0_
  6
CONTINUOUS
 62
    7
 10
90.675929242884536
 20
271.82727935410321
 11
90.675929242884536
 21
321.82727935410321
  0
LINE
  8
_0-0_
  6
CONTINUOUS
 62
    7
 10
90.675929242884536
 20
321.82727935410321
 11
87.475929242884717
 21
321.82727935410321
  0
LINE
  8
_0-0_
  6
CONTINUOUS
 62
    7
 10
87.475929242884717
 20
321.82727935410321
 11
87.475929242884717
 21
271.82727935410321
  0
LINE
  8
_0-0_
  6
CONTINUOUS
 62
    7
 10
87.475929242884717
 20
271.82727935410321
 11
90.675929242884536
 21
271.82727935410321
  0
LINE
  8
_0-0_
  6
CONTINUOUS
 62
    7
 10
90.675929242884536
 20
289.82727935410321
 11
106.47592924288472
 21
289.82727935410321
  0
LINE
  8
_0-0_
  6
CONTINUOUS
 62
    7
 10
106.47592924288472
 20
289.82727935410321
 11
106.47592924288472
 21
307.82727935410321
  0
LINE
  8
_0-0_
  6
CONTINUOUS
 62
    7
 10
106.47592924288472
 20
307.82727935410321
 11
90.675929242884536
 21
307.82727935410321
  0
LINE
  8
_0-0_
  6
CONTINUOUS
 62
    7
 10
90.675929242884536
 20
319.82727935410321
 11
87.475929242884717
 21
319.82727935410321
  0
LINE
  8
_0-1_
  6
CENTER1
 62
  152
 10
87.475929242884717
 20
298.82727935410321
 11
107.47592924288472
 21
298.82727935410321
  0
LINE
  8
_0-0_
  6
CONTINUOUS
 62
    7
 10
107.47592924288472
 20
306.82727935410321
 11
106.47592924288472
 21
307.82727935410321
  0
LINE
  8
_0-0_
  6
CONTINUOUS
 62
    7
 10
107.47592924288472
 20
306.82727935410321
 11
107.47592924288472
 21
290.82727935410321
  0
LINE
  8
_0-0_
  6
CONTINUOUS
 62
    7
 10
107.47592924288472
 20
290.82727935410321
 11
106.47592924288472
 21
289.82727935410321
  0
LINE
  8
_0-1_
  6
CENTER1
 62
  152
 10
192.23461608508308
 20
296.76626971712358
 11
197.43461608508312
 21
296.76626971712358
  0
LINE
  8
_0-1_
  6
CENTER1
 62
  152
 10
194.83461608508321
 20
299.36626971712349
 11
194.83461608508321
 21
294.16626971712367
  0
LINE
  8
_0-1_
  6
CENTER1
 62
  152
 10
206.83461608508321
 20
298.76626971712358
 11
224.83461608508321
 21
298.76626971712358
  0
LINE
  8
_0-0_
  6
CONTINUOUS
 62
    7
 10
238.83461608508321
 20
296.76626971712358
 11
213.83461608508321
 21
321.76626971712381
  0
LINE
  8
_0-0_
  6
CONTINUOUS
 62
    7
 10
213.83461608508321
 20
321.76626971712381
 11
190.83461608508321
 21
321.76626971712381
  0
LINE
  8
_0-0_
  6
CONTINUOUS
 62
    7
 10
190.83461608508321
 20
321.76626971712381
 11
188.83461608508321
 21
319.76626971712381
  0
LINE
  8
_0-0_
  6
CONTINUOUS
 62
    7
 10
188.83461608508321
 20
319.76626971712381
 11
188.83461608508321
 21
273.76626971712358
  0
LINE
  8
_0-0_
  6
CONTINUOUS
 62
    7
 10
188.83461608508321
 20
273.76626971712358
 11
190.83461608508321
 21
271.76626971712358
  0
LINE
  8
_0-0_
  6
CONTINUOUS
 62
    7
 10
190.83461608508321
 20
271.76626971712358
 11
236.83461608508321
 21
271.76626971712358
  0
LINE
  8
_0-0_
  6
CONTINUOUS
 62
    7
 10
236.83461608508321
 20
271.76626971712358
 11
238.83461608508321
 21
273.76626971712358
  0
LINE
  8
_0-0_
  6
CONTINUOUS
 62
    7
 10
238.83461608508321
 20
273.76626971712358
 11
238.83461608508321
 21
296.76626971712358
  0
LINE
  8
_0-1_
  6
CENTER1
 62
  152
 10
253.62912713807179
 20
298.76626971712358
 11
273.62912713807179
 21
298.76626971712358
  0
LINE
  8
_0-0_
  6
CONTINUOUS
 62
    7
 10
273.62912713807179
 20
290.76626971712358
 11
272.62912713807179
 21
289.76626971712358
  0
LINE
  8
_0-0_
  6
CONTINUOUS
 62
    7
 10
272.62912713807179
 20
289.76626971712358
 11
256.82912713807161
 21
289.76626971712358
  0
LINE
  8
_0-0_
  6
CONTINUOUS
 62
    7
 10
272.62912713807179
 20
289.76626971712358
 11
272.62912713807179
 21
307.76626971712358
  0
LINE
  8
_0-0_
  6
CONTINUOUS
 62
    7
 10
272.62912713807179
 20
307.76626971712358
 11
273.62912713807179
 21
306.76626971712358
  0
LINE
  8
_0-0_
  6
CONTINUOUS
 62
    7
 10
273.62912713807179
 20
306.76626971712358
 11
273.62912713807179
 21
290.76626971712358
  0
LINE
  8
_0-0_
  6
CONTINUOUS
 62
    7
 10
272.62912713807179
 20
307.76626971712358
 11
256.82912713807161
 21
307.76626971712358
  0
LINE
  8
_0-0_
  6
CONTINUOUS
 62
    7
 10
256.82912713807161
 20
319.76626971712358
 11
253.62912713807179
 21
319.76626971712358
  0
LINE
  8
_0-0_
  6
CONTINUOUS
 62
    7
 10
253.62912713807179
 20
321.76626971712358
 11
256.82912713807161
 21
321.76626971712358
  0
LINE
  8
_0-0_
  6
CONTINUOUS
 62
    7
 10
256.82912713807161
 20
321.76626971712358
 11
256.82912713807161
 21
271.76626971712358
  0
LINE
  8
_0-0_
  6
CONTINUOUS
 62
    7
 10
256.82912713807161
 20
271.76626971712358
 11
253.62912713807179
 21
271.76626971712358
  0
LINE
  8
_0-0_
  6
CONTINUOUS
 62
    7
 10
253.62912713807179
 20
271.76626971712358
 11
253.62912713807179
 21
321.76626971712358
  0
LINE
  8
_0-0_
  6
CONTINUOUS
 62
    7
 10
253.62912713807179
 20
273.76626971712358
 11
256.82912713807161
 21
273.76626971712358
  0
LINE
  8
_0-1_
  6
CENTER1
 62
  152
 10
236.43461608508312
 20
277.76626971712358
 11
231.23461608508285
 21
277.76626971712358
  0
LINE
  8
_0-1_
  6
CENTER1
 62
  152
 10
233.83461608508321
 20
275.16626971712367
 11
233.83461608508321
 21
280.36626971712394
  0
LINE
  8
_0-1_
  6
CENTER1
 62
  152
 10
213.83461608508321
 20
280.36626971712394
 11
213.83461608508321
 21
275.16626971712367
  0
LINE
  8
_0-1_
  6
CENTER1
 62
  152
 10
216.43461608508312
 20
277.76626971712358
 11
211.23461608508308
 21
277.76626971712358
  0
LINE
  8
_0-1_
  6
CENTER1
 62
  152
 10
215.83461608508321
 20
289.76626971712358
 11
215.83461608508321
 21
307.76626971712358
  0
LINE
  8
_0-1_
  6
CENTER1
 62
  152
 10
194.83461608508321
 20
314.16626971712367
 11
194.83461608508321
 21
319.36626971712371
  0
LINE
  8
_0-1_
  6
CENTER1
 62
  152
 10
197.43461608508312
 20
316.76626971712358
 11
192.23461608508308
 21
316.76626971712358
  0
CIRCLE
  8
_0-0_
  6
CONTINUOUS
 62
    7
 10
215.83461608508321
 20
298.76626971712358
 40
5
  0
CIRCLE
  8
_0-0_
  6
CONTINUOUS
 62
    7
 10
46.929530171414513
 20
298.82727935410321
 40
5.0499999999999998
  0
CIRCLE
  8
_0-0_
  6
CONTINUOUS
 62
    7
 10
25.929530171414513
 20
316.82727935410321
 40
2.75
  0
CIRCLE
  8
_0-0_
  6
CONTINUOUS
 62
    7
 10
25.929530171414513
 20
296.82727935410321
 40
2.75
  0
CIRCLE
  8
_0-0_
  6
CONTINUOUS
 62
    7
 10
44.929530171414513
 20
277.82727935410321
 40
2.75
  0
CIRCLE
  8
_0-0_
  6
CONTINUOUS
 62
    7
 10
64.929530171414513
 20
277.82727935410321
 40
2.75
  0
CIRCLE
  8
_0-0_
  6
CONTINUOUS
 62
    7
 10
46.929530171414513
 20
298.82727935410321
 40
8
  0
CIRCLE
  8
_0-0_
  6
CONTINUOUS
 62
    7
 10
194.83461608508321
 20
316.76626971712358
 40
2.75
  0
CIRCLE
  8
_0-0_
  6
CONTINUOUS
 62
    7
 10
194.83461608508321
 20
296.76626971712358
 40
2.75
  0
CIRCLE
  8
_0-0_
  6
CONTINUOUS
 62
    7
 10
213.83461608508321
 20
277.76626971712358
 40
2.75
  0
CIRCLE
  8
_0-0_
  6
CONTINUOUS
 62
    7
 10
233.83461608508321
 20
277.76626971712358
 40
2.75
  0
CIRCLE
  8
_0-0_
  6
CONTINUOUS
 62
    7
 10
215.83461608508321
 20
298.76626971712358
 40
8
  0
CIRCLE
  8
_0-0_
  6
CONTINUOUS
 62
    7
 10
215.83461608508321
 20
298.76626971712358
 40
4.3000001907348633
  0
CIRCLE
  8
_0-1_
  6
CONTINUOUS
 62
  152
 10
46.929530171414513
 20
298.82727935410321
 40
6.0000000000000009
  0
TEXT
  8
_0-0_
 62
    7
 10
166.13907802972051
 20
330.9536486966133
 40
5
 41
1
 50
0
  1
LP25-M10
  0
TEXT
  8
_0-0_
 62
    7
 10
4.5530347876195947
 20
330.27089076742141
 40
5
 41
1
 50
0
  1
LP25-M12
  0
LINE
  8
_0-8_
  6
CONTINUOUS
 62
  152
 10
52.92953017141474
 20
215.93693867770375
 11
40.929530171414285
 21
215.93693867770375
  0
LINE
  8
_0-8_
  6
CONTINUOUS
 62
  152
 10
26.929530171414513
 20
127.33693867770387
 11
66.929530171414513
 21
127.33693867770387
  0
LINE
  8
_0-8_
  6
CONTINUOUS
 62
    7
 10
64.929530171415195
 20
116.93693867770401
 11
28.929530171414967
 21
116.93693867770401
  0
LINE
  8
_0-8_
  6
CONTINUOUS
 62
    7
 10
41.929530171414513
 20
216.93693867770398
 11
51.929530171414513
 21
216.93693867770398
  0
LINE
  8
_0-8_
  6
CONTINUOUS
 62
    7
 10
51.929530171414513
 20
216.93693867770398
 11
52.92953017141474
 21
215.93693867770375
  0
LINE
  8
_0-8_
  6
CONTINUOUS
 62
    7
 10
40.929530171414285
 20
215.93693867770375
 11
41.929530171414513
 21
216.93693867770398
  0
LINE
  8
_0-8_
  6
CONTINUOUS
 62
    7
 10
66.929530171414513
 20
122.33693867770421
 11
26.929530171414513
 21
122.33693867770421
  0
LINE
  8
_0-8_
  6
CONTINUOUS
 62
    7
 10
64.929530171415195
 20
119.83693867770421
 11
64.929530171415195
 21
116.93693867770401
  0
LINE
  8
_0-8_
  6
CONTINUOUS
 62
    7
 10
28.929530171414967
 20
116.93693867770401
 11
28.929530171414967
 21
119.83693867770421
  0
LINE
  8
_0-8_
  6
CONTINUOUS
 62
    7
 10
29.929530171665306
 20
130.33693867770398
 11
63.929530171414967
 21
130.33693867770398
  0
LINE
  8
_0-8_
  6
CONTINUOUS
 62
    7
 10
58.929530171414967
 20
130.33693867770398
 11
58.929530171414967
 21
130.73693867770396
  0
LINE
  8
_0-8_
  6
CONTINUOUS
 62
    7
 10
58.929530171414967
 20
130.73693867770396
 11
34.929530171415195
 21
130.73693867770396
  0
LINE
  8
_0-8_
  6
CONTINUOUS
 62
    7
 10
34.929530171415195
 20
130.73693867770396
 11
34.929530171415195
 21
130.33693867770398
  0
LINE
  8
_0-8_
  6
CONTINUOUS
 62
    7
 10
35.959875056812393
 20
131.50330128792393
 11
36.650917331055439
 21
131.34289157110163
  0
LINE
  8
_0-8_
  6
CONTINUOUS
 62
    7
 10
36.650917331055439
 20
131.34289157110163
 11
37.343375955397164
 21
131.22238958018522
  0
LINE
  8
_0-8_
  6
CONTINUOUS
 62
    7
 10
37.343375955397164
 20
131.22238958018522
 11
38.035082427355633
 21
131.14810281951338
  0
LINE
  8
_0-8_
  6
CONTINUOUS
 62
    7
 10
38.035082427355633
 20
131.14810281951338
 11
38.726755500863305
 21
131.12406797420635
  0
LINE
  8
_0-8_
  6
CONTINUOUS
 62
    7
 10
38.726755500863305
 20
131.12406797420635
 11
39.409927843165519
 21
131.15109174766121
  0
LINE
  8
_0-8_
  6
CONTINUOUS
 62
    7
 10
39.409927843165519
 20
131.15109174766121
 11
40.091340201614571
 21
131.22671189711798
  0
LINE
  8
_0-8_
  6
CONTINUOUS
 62
    7
 10
40.091340201614571
 20
131.22671189711798
 11
40.769241818201067
 21
131.34609023229007
  0
LINE
  8
_0-8_
  6
CONTINUOUS
 62
    7
 10
40.769241818201067
 20
131.34609023229007
 11
41.444702614113453
 21
131.50330128792393
  0
LINE
  8
_0-8_
  6
CONTINUOUS
 62
    7
 10
41.444702614113453
 20
131.50330128792393
 11
43.855386584794928
 21
131.24919847115041
  0
LINE
  8
_0-8_
  6
CONTINUOUS
 62
    7
 10
43.855386584794928
 20
131.24919847115041
 11
46.268486540873141
 21
131.129963479195
  0
LINE
  8
_0-8_
  6
CONTINUOUS
 62
    7
 10
46.268486540873141
 20
131.129963479195
 11
48.657768816128623
 21
131.16427310866891
  0
LINE
  8
_0-8_
  6
CONTINUOUS
 62
    7
 10
48.657768816128623
 20
131.16427310866891
 11
51.032285824816086
 21
131.34289286484648
  0
LINE
  8
_0-8_
  6
CONTINUOUS
 62
    7
 10
51.032285824816086
 20
131.34289286484648
 11
52.414357728716709
 21
131.50330128792393
  0
LINE
  8
_0-8_
  6
CONTINUOUS
 62
    7
 10
52.414357728716709
 20
131.50330128792393
 11
53.105400002960891
 21
131.34289157110163
  0
LINE
  8
_0-8_
  6
CONTINUOUS
 62
    7
 10
53.105400002960891
 20
131.34289157110163
 11
53.79785862730148
 21
131.22238958018522
  0
LINE
  8
_0-8_
  6
CONTINUOUS
 62
    7
 10
53.79785862730148
 20
131.22238958018522
 11
54.489565099259949
 21
131.14810281951338
  0
LINE
  8
_0-8_
  6
CONTINUOUS
 62
    7
 10
54.489565099259949
 20
131.14810281951338
 11
55.181238172767621
 21
131.12406797420635
  0
LINE
  8
_0-8_
  6
CONTINUOUS
 62
    7
 10
55.181238172767621
 20
131.12406797420635
 11
55.864410515069835
 21
131.15109174766121
  0
LINE
  8
_0-8_
  6
CONTINUOUS
 62
    7
 10
55.864410515069835
 20
131.15109174766121
 11
56.545822873518887
 21
131.22671189711798
  0
LINE
  8
_0-8_
  6
CONTINUOUS
 62
    7
 10
56.545822873518887
 20
131.22671189711798
 11
57.223724490105383
 21
131.34609023229007
  0
LINE
  8
_0-8_
  6
CONTINUOUS
 62
    7
 10
57.223724490105383
 20
131.34609023229007
 11
57.899185286017769
 21
131.50330128792393
  0
LINE
  8
_0-8_
  6
CONTINUOUS
 62
    7
 10
57.899185286017769
 20
131.50330128792393
 11
54.929530171415195
 21
130.73693867770396
  0
LINE
  8
_0-8_
  6
CONTINUOUS
 62
    7
 10
52.414357728716709
 20
131.50330128792393
 11
52.414357728716709
 21
136.93693867770401
  0
LINE
  8
_0-8_
  6
CONTINUOUS
 62
    7
 10
57.899185286017769
 20
136.93693867770401
 11
35.959875056812393
 21
136.93693867770401
  0
LINE
  8
_0-8_
  6
CONTINUOUS
 62
    7
 10
35.959875056812393
 20
136.93693867770401
 11
35.959875056812393
 21
131.50330128792393
  0
LINE
  8
_0-8_
  6
CONTINUOUS
 62
    7
 10
35.959875056812393
 20
131.50330128792393
 11
38.929530171414967
 21
130.73693867770396
  0
LINE
  8
_0-8_
  6
CONTINUOUS
 62
    7
 10
41.444702614113453
 20
131.50330128792393
 11
41.444702614113453
 21
136.93693867770401
  0
LINE
  8
_0-8_
  6
CONTINUOUS
 62
    7
 10
57.899185286017769
 20
136.93693867770401
 11
57.899185286017769
 21
131.50330128792393
  0
ARC
  8
_0-8_
  6
CONTINUOUS
 62
    7
 10
29.929530171415195
 20
127.33693867770387
 40
2.9999999999999867
 50
89.99999999999946
 51
180.0000000000002
  0
ARC
  8
_0-8_
  6
CONTINUOUS
 62
    7
 10
63.929530171414967
 20
127.33693867770387
 40
2.9999999999999725
 50
359.99999999999977
 51
90.00000000000054
  0
LINE
  8
_0-8_
  6
CONTINUOUS
 62
    7
 10
26.929530171414513
 20
119.83693867770421
 11
26.929530171414513
 21
127.33693867770387
  0
LINE
  8
_0-8_
  6
CONTINUOUS
 62
    7
 10
26.929530171414513
 20
119.83693867770421
 11
66.929530171414513
 21
119.83693867770421
  0
LINE
  8
_0-8_
  6
CONTINUOUS
 62
    7
 10
66.929530171414513
 20
127.33693867770387
 11
66.929530171414513
 21
119.83693867770421
  0
LINE
  8
_0-8_
  6
CONTINUOUS
 62
  152
 10
210.83461608508321
 20
215.93693867770375
 11
220.83461608508321
 21
215.93693867770375
  0
LINE
  8
_0-8_
  6
CONTINUOUS
 62
  152
 10
195.83461608508321
 20
127.43693867770378
 11
235.83461608508321
 21
127.43693867770378
  0
LINE
  8
_0-8_
  6
CONTINUOUS
 62
    7
 10
220.83461608508321
 20
215.93693867770375
 11
219.83461608508298
 21
216.93693867770398
  0
LINE
  8
_0-8_
  6
CONTINUOUS
 62
    7
 10
219.83461608508298
 20
216.93693867770398
 11
211.83461608508344
 21
216.93693867770398
  0
LINE
  8
_0-8_
  6
CONTINUOUS
 62
    7
 10
211.83461608508344
 20
216.93693867770398
 11
210.83461608508321
 21
215.93693867770375
  0
LINE
  8
_0-8_
  6
CONTINUOUS
 62
    7
 10
220.74209337319508
 20
135.53693867770414
 11
220.74209337319508
 21
131.21347787114496
  0
LINE
  8
_0-8_
  6
CONTINUOUS
 62
    7
 10
220.74209337319508
 20
131.21347787114496
 11
221.36109269394558
 21
131.05990241424672
  0
LINE
  8
_0-8_
  6
CONTINUOUS
 62
    7
 10
221.36109269394558
 20
131.05990241424672
 11
221.98154086437205
 21
130.94456251913346
  0
LINE
  8
_0-8_
  6
CONTINUOUS
 62
    7
 10
221.98154086437205
 20
130.94456251913346
 11
222.60121308827854
 21
130.87357044199723
  0
LINE
  8
_0-8_
  6
CONTINUOUS
 62
    7
 10
222.60121308827854
 20
130.87357044199723
 11
223.22084618803649
 21
130.85077239475527
  0
LINE
  8
_0-8_
  6
CONTINUOUS
 62
    7
 10
223.22084618803649
 20
130.85077239475527
 11
223.83178317372574
 21
130.87683774267464
  0
LINE
  8
_0-8_
  6
CONTINUOUS
 62
    7
 10
223.83178317372574
 20
130.87683774267464
 11
224.44092151804887
 21
130.94928527897753
  0
LINE
  8
_0-8_
  6
CONTINUOUS
 62
    7
 10
224.44092151804887
 20
130.94928527897753
 11
225.04648651826903
 21
131.06339536049484
  0
LINE
  8
_0-8_
  6
CONTINUOUS
 62
    7
 10
225.04648651826903
 20
131.06339536049484
 11
225.64957066130694
 21
131.21347787114496
  0
LINE
  8
_0-8_
  6
CONTINUOUS
 62
    7
 10
225.64957066130694
 20
131.21347787114496
 11
224.28461608508292
 21
130.83693867770387
  0
LINE
  8
_0-8_
  6
CONTINUOUS
 62
    7
 10
225.64957066130694
 20
131.21347787114496
 11
225.64957066130694
 21
135.53693867770414
  0
LINE
  8
_0-8_
  6
CONTINUOUS
 62
    7
 10
225.64957066130694
 20
135.53693867770414
 11
206.01966150885949
 21
135.53693867770414
  0
LINE
  8
_0-8_
  6
CONTINUOUS
 62
    7
 10
206.01966150885949
 20
135.53693867770414
 11
206.01966150885949
 21
131.21347787114496
  0
LINE
  8
_0-8_
  6
CONTINUOUS
 62
    7
 10
206.01966150885949
 20
131.21347787114496
 11
206.63866082960942
 21
131.05990241424672
  0
LINE
  8
_0-8_
  6
CONTINUOUS
 62
    7
 10
206.63866082960942
 20
131.05990241424672
 11
207.25910900003646
 21
130.94456251913346
  0
LINE
  8
_0-8_
  6
CONTINUOUS
 62
    7
 10
207.25910900003646
 20
130.94456251913346
 11
207.87878122394238
 21
130.87357044199723
  0
LINE
  8
_0-8_
  6
CONTINUOUS
 62
    7
 10
207.87878122394238
 20
130.87357044199723
 11
208.4984143237009
 21
130.85077239475527
  0
LINE
  8
_0-8_
  6
CONTINUOUS
 62
    7
 10
208.4984143237009
 20
130.85077239475527
 11
209.10935130939015
 21
130.87683774267464
  0
LINE
  8
_0-8_
  6
CONTINUOUS
 62
    7
 10
209.10935130939015
 20
130.87683774267464
 11
209.71848965371385
 21
130.94928527897753
  0
LINE
  8
_0-8_
  6
CONTINUOUS
 62
    7
 10
209.71848965371385
 20
130.94928527897753
 11
210.32405465393288
 21
131.06339536049484
  0
LINE
  8
_0-8_
  6
CONTINUOUS
 62
    7
 10
210.32405465393288
 20
131.06339536049484
 11
210.92713879697135
 21
131.21347787114496
  0
LINE
  8
_0-8_
  6
CONTINUOUS
 62
    7
 10
210.92713879697135
 20
131.21347787114496
 11
212.00480361441669
 21
131.07775345995651
  0
LINE
  8
_0-8_
  6
CONTINUOUS
 62
    7
 10
212.00480361441669
 20
131.07775345995651
 11
213.08487519738185
 21
130.97037438418192
  0
LINE
  8
_0-8_
  6
CONTINUOUS
 62
    7
 10
213.08487519738185
 20
130.97037438418192
 11
214.16463545410897
 21
130.89555823776254
  0
LINE
  8
_0-8_
  6
CONTINUOUS
 62
    7
 10
214.16463545410897
 20
130.89555823776254
 11
215.24507565419219
 21
130.85636489987019
  0
LINE
  8
_0-8_
  6
CONTINUOUS
 62
    7
 10
215.24507565419219
 20
130.85636489987019
 11
216.31391387304723
 21
130.85445663388373
  0
LINE
  8
_0-8_
  6
CONTINUOUS
 62
    7
 10
216.31391387304723
 20
130.85445663388373
 11
217.38094158541207
 21
130.88921713096499
  0
LINE
  8
_0-8_
  6
CONTINUOUS
 62
    7
 10
217.38094158541207
 20
130.88921713096499
 11
218.44308103654362
 21
130.95865913654814
  0
LINE
  8
_0-8_
  6
CONTINUOUS
 62
    7
 10
218.44308103654362
 20
130.95865913654814
 11
219.50177301486269
 21
131.0596486320411
  0
LINE
  8
_0-8_
  6
CONTINUOUS
 62
    7
 10
219.50177301486269
 20
131.0596486320411
 11
220.74209337319508
 21
131.21347787114496
  0
LINE
  8
_0-8_
  6
CONTINUOUS
 62
    7
 10
210.92713879697135
 20
135.53693867770414
 11
210.92713879697135
 21
131.21347787114496
  0
LINE
  8
_0-8_
  6
CONTINUOUS
 62
    7
 10
207.38461608508351
 20
130.83693867770387
 11
206.01966150885949
 21
131.21347787114496
  0
LINE
  8
_0-8_
  6
CONTINUOUS
 62
    7
 10
203.83461608508333
 20
130.83693867770387
 11
203.83461608508333
 21
130.43693867770389
  0
LINE
  8
_0-8_
  6
CONTINUOUS
 62
    7
 10
203.83461608508333
 20
130.83693867770387
 11
227.8346160850831
 21
130.83693867770387
  0
LINE
  8
_0-8_
  6
CONTINUOUS
 62
    7
 10
227.8346160850831
 20
130.83693867770387
 11
227.8346160850831
 21
130.43693867770389
  0
LINE
  8
_0-8_
  6
CONTINUOUS
 62
    7
 10
232.8346160850831
 20
130.43693867770389
 11
198.83461608533344
 21
130.43693867770389
  0
LINE
  8
_0-8_
  6
CONTINUOUS
 62
    7
 10
235.83461608508321
 20
122.43693867770412
 11
195.83461608508321
 21
122.43693867770412
  0
ARC
  8
_0-8_
  6
CONTINUOUS
 62
    7
 10
198.83461608508333
 20
127.43693867770378
 40
2.9999999999999867
 50
89.99999999999946
 51
180.0000000000002
  0
ARC
  8
_0-8_
  6
CONTINUOUS
 62
    7
 10
232.8346160850831
 20
127.43693867770378
 40
2.9999999999999725
 50
359.99999999999977
 51
90.00000000000054
  0
LINE
  8
_0-8_
  6
CONTINUOUS
 62
    7
 10
195.83461608508321
 20
119.93693867770412
 11
195.83461608508321
 21
127.43693867770378
  0
LINE
  8
_0-8_
  6
CONTINUOUS
 62
    7
 10
195.83461608508321
 20
119.93693867770412
 11
235.83461608508321
 21
119.93693867770412
  0
LINE
  8
_0-8_
  6
CONTINUOUS
 62
    7
 10
235.83461608508321
 20
127.43693867770378
 11
235.83461608508321
 21
119.93693867770412
  0
LINE
  8
_0-8_
  6
CONTINUOUS
 62
    7
 10
233.83461608508333
 20
119.93693867770412
 11
233.83461608508333
 21
116.93693867770401
  0
LINE
  8
_0-8_
  6
CONTINUOUS
 62
    7
 10
197.8346160850831
 20
119.93693867770412
 11
197.8346160850831
 21
116.93693867770401
  0
LINE
  8
_0-8_
  6
CONTINUOUS
 62
    7
 10
233.83461608508333
 20
116.93693867770401
 11
197.8346160850831
 21
116.93693867770401
  0
LINE
  8
_0-8_
  6
CONTINUOUS
 62
  152
 10
41.679530171414285
 20
136.93693867770401
 11
41.679530171414285
 21
164.73693891612294
  0
LINE
  8
_0-8_
  6
CONTINUOUS
 62
  152
 10
52.17953017141474
 20
136.93693867770401
 11
52.17953017141474
 21
164.73693891612294
  0
LINE
  8
_0-8_
  6
CONTINUOUS
 62
    7
 10
38.702288655301686
 20
171.93693891612293
 11
55.156771687527339
 21
171.93693891612293
  0
ARC
  8
_0-8_
  6
CONTINUOUS
 62
    7
 10
46.929530171414513
 20
158.14119473544326
 40
13.795743942260742
 50
66.573394775390625
 51
113.4265899658203
  0
LINE
  8
_0-8_
  6
CONTINUOUS
 62
    7
 10
57.899054907657955
 20
170.79975713195796
 11
57.231631125518106
 21
171.31801263266232
  0
LINE
  8
_0-8_
  6
CONTINUOUS
 62
    7
 10
57.231631125518106
 20
171.31801263266232
 11
56.501163789284533
 21
171.68587508651319
  0
LINE
  8
_0-8_
  6
CONTINUOUS
 62
    7
 10
56.501163789284533
 20
171.68587508651319
 11
55.72984777933425
 21
171.89216717899762
  0
LINE
  8
_0-8_
  6
CONTINUOUS
 62
    7
 10
55.72984777933425
 20
171.89216717899762
 11
54.941119142324851
 21
171.93062082927452
  0
LINE
  8
_0-8_
  6
CONTINUOUS
 62
    7
 10
54.941119142324851
 20
171.93062082927452
 11
54.15894299877607
 21
171.80006764263851
  0
LINE
  8
_0-8_
  6
CONTINUOUS
 62
    7
 10
54.15894299877607
 20
171.80006764263851
 11
53.407085375009274
 21
171.50447441160247
  0
LINE
  8
_0-8_
  6
CONTINUOUS
 62
    7
 10
53.407085375009274
 20
171.50447441160247
 11
52.708391084464438
 21
171.05282258691409
  0
LINE
  8
_0-8_
  6
CONTINUOUS
 62
    7
 10
52.708391084464438
 20
171.05282258691409
 11
52.414489427099284
 21
170.79975803003231
  0
LINE
  8
_0-8_
  6
CONTINUOUS
 62
    7
 10
41.444571875432302
 20
170.79975713195796
 11
40.777148093292453
 21
171.31801263266232
  0
LINE
  8
_0-8_
  6
CONTINUOUS
 62
    7
 10
40.777148093292453
 20
171.31801263266232
 11
40.04668075705888
 21
171.68587508651319
  0
LINE
  8
_0-8_
  6
CONTINUOUS
 62
    7
 10
40.04668075705888
 20
171.68587508651319
 11
39.275364747108597
 21
171.89216717899762
  0
LINE
  8
_0-8_
  6
CONTINUOUS
 62
    7
 10
39.275364747108597
 20
171.89216717899762
 11
38.486636110099198
 21
171.93062082927452
  0
LINE
  8
_0-8_
  6
CONTINUOUS
 62
    7
 10
38.486636110099198
 20
171.93062082927452
 11
37.704459966550417
 21
171.80006764263851
  0
LINE
  8
_0-8_
  6
CONTINUOUS
 62
    7
 10
37.704459966550417
 20
171.80006764263851
 11
36.952602342783621
 21
171.50447441160247
  0
LINE
  8
_0-8_
  6
CONTINUOUS
 62
    7
 10
36.952602342783621
 20
171.50447441160247
 11
36.253908052238785
 21
171.05282258691409
  0
LINE
  8
_0-8_
  6
CONTINUOUS
 62
    7
 10
36.253908052238785
 20
171.05282258691409
 11
35.960006394873631
 21
170.79975803003231
  0
LINE
  8
_0-8_
  6
CONTINUOUS
 62
    7
 10
41.44470265295115
 20
165.87412019816628
 11
41.44470265295115
 21
170.79975763407947
  0
LINE
  8
_0-8_
  6
CONTINUOUS
 62
    7
 10
57.899185208341237
 20
170.79975763407947
 11
57.899185208341237
 21
165.87412019816628
  0
LINE
  8
_0-8_
  6
CONTINUOUS
 62
    7
 10
55.156771687527339
 20
164.73693891612294
 11
38.702288655301686
 21
164.73693891612294
  0
LINE
  8
_0-8_
  6
CONTINUOUS
 62
    7
 10
35.959875134487788
 20
165.87412019816628
 11
35.959875134487788
 21
170.79975763407947
  0
LINE
  8
_0-8_
  6
CONTINUOUS
 62
    7
 10
52.414357689877875
 20
170.79975763407947
 11
52.414357689877875
 21
165.87412019816628
  0
ARC
  8
_0-8_
  6
CONTINUOUS
 62
    7
 10
46.929530171414513
 20
178.53268309680226
 40
13.795743942260742
 50
246.57341003417969
 51
293.42660522460937
  0
LINE
  8
_0-8_
  6
CONTINUOUS
 62
    7
 10
52.414489427099284
 20
165.87411980221356
 11
53.081913321476804
 21
165.35586452008482
  0
LINE
  8
_0-8_
  6
CONTINUOUS
 62
    7
 10
53.081913321476804
 20
165.35586452008482
 11
53.81238073737768
 21
164.98800230545584
  0
LINE
  8
_0-8_
  6
CONTINUOUS
 62
    7
 10
53.81238073737768
 20
164.98800230545584
 11
54.583696792004275
 21
164.78171046557082
  0
LINE
  8
_0-8_
  6
CONTINUOUS
 62
    7
 10
54.583696792004275
 20
164.78171046557082
 11
55.372425437341462
 21
164.74325707359594
  0
LINE
  8
_0-8_
  6
CONTINUOUS
 62
    7
 10
55.372425437341462
 20
164.74325707359594
 11
56.154601552616555
 21
164.873810516388
  0
LINE
  8
_0-8_
  6
CONTINUOUS
 62
    7
 10
56.154601552616555
 20
164.873810516388
 11
56.906459112367202
 21
165.16940399365097
  0
LINE
  8
_0-8_
  6
CONTINUOUS
 62
    7
 10
56.906459112367202
 20
165.16940399365097
 11
57.605153305098611
 21
165.62105604715583
  0
LINE
  8
_0-8_
  6
CONTINUOUS
 62
    7
 10
57.605153305098611
 20
165.62105604715583
 11
57.899054907657955
 21
165.8741207002879
  0
LINE
  8
_0-8_
  6
CONTINUOUS
 62
    7
 10
35.960006394873631
 20
165.87411980221356
 11
36.627430289251151
 21
165.35586452008482
  0
LINE
  8
_0-8_
  6
CONTINUOUS
 62
    7
 10
36.627430289251151
 20
165.35586452008482
 11
37.357897705152027
 21
164.98800230545584
  0
LINE
  8
_0-8_
  6
CONTINUOUS
 62
    7
 10
37.357897705152027
 20
164.98800230545584
 11
38.129213759778622
 21
164.78171046557082
  0
LINE
  8
_0-8_
  6
CONTINUOUS
 62
    7
 10
38.129213759778622
 20
164.78171046557082
 11
38.917942405115809
 21
164.74325707359594
  0
LINE
  8
_0-8_
  6
CONTINUOUS
 62
    7
 10
38.917942405115809
 20
164.74325707359594
 11
39.700118520390902
 21
164.873810516388
  0
LINE
  8
_0-8_
  6
CONTINUOUS
 62
    7
 10
39.700118520390902
 20
164.873810516388
 11
40.451976080141549
 21
165.16940399365097
  0
LINE
  8
_0-8_
  6
CONTINUOUS
 62
    7
 10
40.451976080141549
 20
165.16940399365097
 11
41.150670272872958
 21
165.62105604715583
  0
LINE
  8
_0-8_
  6
CONTINUOUS
 62
    7
 10
41.150670272872958
 20
165.62105604715583
 11
41.444571875432302
 21
165.8741207002879
  0
LINE
  8
_0-8_
  6
CONTINUOUS
 62
    7
 10
52.92953017141474
 20
164.73693891612294
 11
52.92953017141474
 21
136.93693867770401
  0
LINE
  8
_0-8_
  6
CONTINUOUS
 62
    7
 10
40.929530171414285
 20
164.73693891612294
 11
40.929530171414285
 21
136.93693867770401
  0
LINE
  8
_0-8_
  6
CONTINUOUS
 62
  152
 10
211.53461589438325
 20
164.13693867770394
 11
211.53461589438325
 21
135.53693867770414
  0
LINE
  8
_0-8_
  6
CONTINUOUS
 62
  152
 10
220.13461627578317
 20
135.53693867770414
 11
220.13461627578317
 21
164.13693867770394
  0
LINE
  8
_0-8_
  6
CONTINUOUS
 62
    7
 10
206.01966150885949
 20
164.8961280562587
 11
206.01966150885949
 21
171.17774929914924
  0
LINE
  8
_0-8_
  6
CONTINUOUS
 62
    7
 10
208.47340015285943
 20
171.93693867770401
 11
223.195832017307
 21
171.93693867770401
  0
LINE
  8
_0-8_
  6
CONTINUOUS
 62
    7
 10
220.74209337319508
 20
171.17774929914924
 11
220.74209337319508
 21
164.8961280562587
  0
LINE
  8
_0-8_
  6
CONTINUOUS
 62
    7
 10
220.83461608508321
 20
164.13693867770394
 11
220.83461608508321
 21
135.53693867770414
  0
LINE
  8
_0-8_
  6
CONTINUOUS
 62
    7
 10
223.195832017307
 20
164.13693867770394
 11
208.47340015285943
 21
164.13693867770394
  0
LINE
  8
_0-8_
  6
CONTINUOUS
 62
    7
 10
210.83461608508321
 20
164.13693867770394
 11
210.83461608508321
 21
135.53693867770414
  0
LINE
  8
_0-8_
  6
CONTINUOUS
 62
    7
 10
225.64957066130694
 20
171.17774929914924
 11
225.64957066130694
 21
164.8961280562587
  0
LINE
  8
_0-8_
  6
CONTINUOUS
 62
    7
 10
210.92713879697135
 20
164.8961280562587
 11
210.92713879697135
 21
171.17774929914924
  0
LINE
  8
_0-8_
  6
CONTINUOUS
 62
    7
 10
210.92713879697163
 20
164.8961280562587
 11
211.0023972179651
 21
164.76429045520842
  0
LINE
  8
_0-8_
  6
CONTINUOUS
 62
    7
 10
211.0023972179651
 20
164.76429045520842
 11
211.22588579190619
 21
164.63645867295293
  0
LINE
  8
_0-8_
  6
CONTINUOUS
 62
    7
 10
211.22588579190619
 20
164.63645867295293
 11
211.59081393156646
 21
164.51651681351018
  0
LINE
  8
_0-8_
  6
CONTINUOUS
 62
    7
 10
211.59081393156646
 20
164.51651681351018
 11
212.08609348008474
 21
164.40810924958578
  0
LINE
  8
_0-8_
  6
CONTINUOUS
 62
    7
 10
212.08609348008474
 20
164.40810924958578
 11
212.69667561900303
 21
164.3145298901527
  0
LINE
  8
_0-8_
  6
CONTINUOUS
 62
    7
 10
212.69667561900303
 20
164.3145298901527
 11
213.40400811899963
 21
164.23862209669392
  0
LINE
  8
_0-8_
  6
CONTINUOUS
 62
    7
 10
213.40400811899963
 20
164.23862209669392
 11
214.18659903998969
 21
164.18269228910242
  0
LINE
  8
_0-8_
  6
CONTINUOUS
 62
    7
 10
214.18659903998969
 20
164.18269228910242
 11
215.02066975284902
 21
164.14843986628
  0
LINE
  8
_0-8_
  6
CONTINUOUS
 62
    7
 10
215.02066975284902
 20
164.14843986628
 11
215.8346160850835
 21
164.13693867770394
  0
LINE
  8
_0-8_
  6
CONTINUOUS
 62
    7
 10
206.0196615088592
 20
164.8961280562587
 11
206.05693931238318
 21
164.76429620416855
  0
LINE
  8
_0-8_
  6
CONTINUOUS
 62
    7
 10
206.05693931238318
 20
164.76429620416855
 11
206.16764005575851
 21
164.63646999619408
  0
LINE
  8
_0-8_
  6
CONTINUOUS
 62
    7
 10
206.16764005575851
 20
164.63646999619408
 11
206.34840015291513
 21
164.51653336698132
  0
LINE
  8
_0-8_
  6
CONTINUOUS
 62
    7
 10
206.34840015291513
 20
164.51653336698132
 11
206.5937272997698
 21
164.40813053031809
  0
LINE
  8
_0-8_
  6
CONTINUOUS
 62
    7
 10
206.5937272997698
 20
164.40813053031809
 11
206.89616735510697
 21
164.31455525154183
  0
LINE
  8
_0-8_
  6
CONTINUOUS
 62
    7
 10
206.89616735510697
 20
164.31455525154183
 11
207.2465308308872
 21
164.23865076814695
  0
LINE
  8
_0-8_
  6
CONTINUOUS
 62
    7
 10
207.2465308308872
 20
164.23865076814695
 11
207.6341721101914
 21
164.18272339945179
  0
LINE
  8
_0-8_
  6
CONTINUOUS
 62
    7
 10
207.6341721101914
 20
164.18272339945179
 11
208.0473129089039
 21
164.14847247025341
  0
LINE
  8
_0-8_
  6
CONTINUOUS
 62
    7
 10
208.0473129089039
 20
164.14847247025341
 11
208.47340015291513
 21
164.13693867770394
  0
LINE
  8
_0-8_
  6
CONTINUOUS
 62
    7
 10
208.47340015291513
 20
164.13693867770394
 11
208.89948739692636
 21
164.14847247025341
  0
LINE
  8
_0-8_
  6
CONTINUOUS
 62
    7
 10
208.89948739692636
 20
164.14847247025341
 11
209.31262819563887
 21
164.18272339945179
  0
LINE
  8
_0-8_
  6
CONTINUOUS
 62
    7
 10
209.31262819563887
 20
164.18272339945179
 11
209.70026947494307
 21
164.23865076814695
  0
LINE
  8
_0-8_
  6
CONTINUOUS
 62
    7
 10
209.70026947494307
 20
164.23865076814695
 11
210.0506329507233
 21
164.31455525154183
  0
LINE
  8
_0-8_
  6
CONTINUOUS
 62
    7
 10
210.0506329507233
 20
164.31455525154183
 11
210.35307300606047
 21
164.40813053031809
  0
LINE
  8
_0-8_
  6
CONTINUOUS
 62
    7
 10
210.35307300606047
 20
164.40813053031809
 11
210.59840015291513
 21
164.51653336698132
  0
LINE
  8
_0-8_
  6
CONTINUOUS
 62
    7
 10
210.59840015291513
 20
164.51653336698132
 11
210.7791602500717
 21
164.63646999619408
  0
LINE
  8
_0-8_
  6
CONTINUOUS
 62
    7
 10
210.7791602500717
 20
164.63646999619408
 11
210.88986099344709
 21
164.76429620416855
  0
LINE
  8
_0-8_
  6
CONTINUOUS
 62
    7
 10
210.88986099344709
 20
164.76429620416855
 11
210.92713879697106
 21
164.8961280562587
  0
LINE
  8
_0-8_
  6
CONTINUOUS
 62
    7
 10
215.83461608508293
 20
164.13693867770394
 11
216.69408344877485
 21
164.14970365878139
  0
LINE
  8
_0-8_
  6
CONTINUOUS
 62
    7
 10
216.69408344877485
 20
164.14970365878139
 11
217.52603070364148
 21
164.18514836746726
  0
LINE
  8
_0-8_
  6
CONTINUOUS
 62
    7
 10
217.52603070364148
 20
164.18514836746726
 11
218.30517955332925
 21
164.24219583422393
  0
LINE
  8
_0-8_
  6
CONTINUOUS
 62
    7
 10
218.30517955332925
 20
164.24219583422393
 11
219.00785595430887
 21
164.31911270064143
  0
LINE
  8
_0-8_
  6
CONTINUOUS
 62
    7
 10
219.00785595430887
 20
164.31911270064143
 11
219.61270943970794
 21
164.41356188665554
  0
LINE
  8
_0-8_
  6
CONTINUOUS
 62
    7
 10
219.61270943970794
 20
164.41356188665554
 11
220.10136184244323
 21
164.52267360154281
  0
LINE
  8
_0-8_
  6
CONTINUOUS
 62
    7
 10
220.10136184244323
 20
164.52267360154281
 11
220.45896570652764
 21
164.64313254105952
  0
LINE
  8
_0-8_
  6
CONTINUOUS
 62
    7
 10
220.45896570652764
 20
164.64313254105952
 11
220.6746554195073
 21
164.77127862128361
  0
LINE
  8
_0-8_
  6
CONTINUOUS
 62
    7
 10
220.6746554195073
 20
164.77127862128361
 11
220.74209337319479
 21
164.8961280562587
  0
LINE
  8
_0-8_
  6
CONTINUOUS
 62
    7
 10
220.74209337319536
 20
164.8961280562587
 11
220.77937117671934
 21
164.76429620416855
  0
LINE
  8
_0-8_
  6
CONTINUOUS
 62
    7
 10
220.77937117671934
 20
164.76429620416855
 11
220.89007192009467
 21
164.63646999619408
  0
LINE
  8
_0-8_
  6
CONTINUOUS
 62
    7
 10
220.89007192009467
 20
164.63646999619408
 11
221.07083201725129
 21
164.51653336698132
  0
LINE
  8
_0-8_
  6
CONTINUOUS
 62
    7
 10
221.07083201725129
 20
164.51653336698132
 11
221.31615916410595
 21
164.40813053031809
  0
LINE
  8
_0-8_
  6
CONTINUOUS
 62
    7
 10
221.31615916410595
 20
164.40813053031809
 11
221.61859921944313
 21
164.31455525154183
  0
LINE
  8
_0-8_
  6
CONTINUOUS
 62
    7
 10
221.61859921944313
 20
164.31455525154183
 11
221.96896269522335
 21
164.23865076814695
  0
LINE
  8
_0-8_
  6
CONTINUOUS
 62
    7
 10
221.96896269522335
 20
164.23865076814695
 11
222.35660397452756
 21
164.18272339945179
  0
LINE
  8
_0-8_
  6
CONTINUOUS
 62
    7
 10
222.35660397452756
 20
164.18272339945179
 11
222.76974477324006
 21
164.14847247025341
  0
LINE
  8
_0-8_
  6
CONTINUOUS
 62
    7
 10
222.76974477324006
 20
164.14847247025341
 11
223.19583201725129
 21
164.13693867770394
  0
LINE
  8
_0-8_
  6
CONTINUOUS
 62
    7
 10
223.19583201725129
 20
164.13693867770394
 11
223.62191926126252
 21
164.14847247025341
  0
LINE
  8
_0-8_
  6
CONTINUOUS
 62
    7
 10
223.62191926126252
 20
164.14847247025341
 11
224.03506005997502
 21
164.18272339945179
  0
LINE
  8
_0-8_
  6
CONTINUOUS
 62
    7
 10
224.03506005997502
 20
164.18272339945179
 11
224.42270133927923
 21
164.23865076814695
  0
LINE
  8
_0-8_
  6
CONTINUOUS
 62
    7
 10
224.42270133927923
 20
164.23865076814695
 11
224.77306481505946
 21
164.31455525154183
  0
LINE
  8
_0-8_
  6
CONTINUOUS
 62
    7
 10
224.77306481505946
 20
164.31455525154183
 11
225.07550487039663
 21
164.40813053031809
  0
LINE
  8
_0-8_
  6
CONTINUOUS
 62
    7
 10
225.07550487039663
 20
164.40813053031809
 11
225.32083201725129
 21
164.51653336698132
  0
LINE
  8
_0-8_
  6
CONTINUOUS
 62
    7
 10
225.32083201725129
 20
164.51653336698132
 11
225.50159211440786
 21
164.63646999619408
  0
LINE
  8
_0-8_
  6
CONTINUOUS
 62
    7
 10
225.50159211440786
 20
164.63646999619408
 11
225.61229285778325
 21
164.76429620416855
  0
LINE
  8
_0-8_
  6
CONTINUOUS
 62
    7
 10
225.61229285778325
 20
164.76429620416855
 11
225.64957066130722
 21
164.8961280562587
  0
LINE
  8
_0-8_
  6
CONTINUOUS
 62
    7
 10
210.92713879697106
 20
171.17774929914924
 11
210.88986099344709
 21
171.3095811512394
  0
LINE
  8
_0-8_
  6
CONTINUOUS
 62
    7
 10
210.88986099344709
 20
171.3095811512394
 11
210.77916025007175
 21
171.43740735921386
  0
LINE
  8
_0-8_
  6
CONTINUOUS
 62
    7
 10
210.77916025007175
 20
171.43740735921386
 11
210.59840015291513
 21
171.55734398842662
  0
LINE
  8
_0-8_
  6
CONTINUOUS
 62
    7
 10
210.59840015291513
 20
171.55734398842662
 11
210.35307300606047
 21
171.66574682508985
  0
LINE
  8
_0-8_
  6
CONTINUOUS
 62
    7
 10
210.35307300606047
 20
171.66574682508985
 11
210.0506329507233
 21
171.75932210386611
  0
LINE
  8
_0-8_
  6
CONTINUOUS
 62
    7
 10
210.0506329507233
 20
171.75932210386611
 11
209.70026947494307
 21
171.83522658726099
  0
LINE
  8
_0-8_
  6
CONTINUOUS
 62
    7
 10
209.70026947494307
 20
171.83522658726099
 11
209.31262819563887
 21
171.89115395595616
  0
LINE
  8
_0-8_
  6
CONTINUOUS
 62
    7
 10
209.31262819563887
 20
171.89115395595616
 11
208.89948739692636
 21
171.92540488515453
  0
LINE
  8
_0-8_
  6
CONTINUOUS
 62
    7
 10
208.89948739692636
 20
171.92540488515453
 11
208.47340015291513
 21
171.93693867770401
  0
LINE
  8
_0-8_
  6
CONTINUOUS
 62
    7
 10
208.47340015291513
 20
171.93693867770401
 11
208.0473129089039
 21
171.92540488515453
  0
LINE
  8
_0-8_
  6
CONTINUOUS
 62
    7
 10
208.0473129089039
 20
171.92540488515453
 11
207.6341721101914
 21
171.89115395595616
  0
LINE
  8
_0-8_
  6
CONTINUOUS
 62
    7
 10
207.6341721101914
 20
171.89115395595616
 11
207.2465308308872
 21
171.83522658726099
  0
LINE
  8
_0-8_
  6
CONTINUOUS
 62
    7
 10
207.2465308308872
 20
171.83522658726099
 11
206.89616735510697
 21
171.75932210386611
  0
LINE
  8
_0-8_
  6
CONTINUOUS
 62
    7
 10
206.89616735510697
 20
171.75932210386611
 11
206.5937272997698
 21
171.66574682508985
  0
LINE
  8
_0-8_
  6
CONTINUOUS
 62
    7
 10
206.5937272997698
 20
171.66574682508985
 11
206.34840015291513
 21
171.55734398842662
  0
LINE
  8
_0-8_
  6
CONTINUOUS
 62
    7
 10
206.34840015291513
 20
171.55734398842662
 11
206.16764005575857
 21
171.43740735921386
  0
LINE
  8
_0-8_
  6
CONTINUOUS
 62
    7
 10
206.16764005575857
 20
171.43740735921386
 11
206.05693931238318
 21
171.3095811512394
  0
LINE
  8
_0-8_
  6
CONTINUOUS
 62
    7
 10
206.05693931238318
 20
171.3095811512394
 11
206.0196615088592
 21
171.17774929914924
  0
LINE
  8
_0-8_
  6
CONTINUOUS
 62
    7
 10
215.8346160850835
 20
171.93693867770401
 11
214.97514872139158
 21
171.92417369662655
  0
LINE
  8
_0-8_
  6
CONTINUOUS
 62
    7
 10
214.97514872139158
 20
171.92417369662655
 11
214.14320146652494
 21
171.88872898794068
  0
LINE
  8
_0-8_
  6
CONTINUOUS
 62
    7
 10
214.14320146652494
 20
171.88872898794068
 11
213.36405261683717
 21
171.83168152118401
  0
LINE
  8
_0-8_
  6
CONTINUOUS
 62
    7
 10
213.36405261683717
 20
171.83168152118401
 11
212.66137621585756
 21
171.75476465476652
  0
LINE
  8
_0-8_
  6
CONTINUOUS
 62
    7
 10
212.66137621585756
 20
171.75476465476652
 11
212.05652273045848
 21
171.6603154687524
  0
LINE
  8
_0-8_
  6
CONTINUOUS
 62
    7
 10
212.05652273045848
 20
171.6603154687524
 11
211.5678703277232
 21
171.55120375386514
  0
LINE
  8
_0-8_
  6
CONTINUOUS
 62
    7
 10
211.5678703277232
 20
171.55120375386514
 11
211.21026646363879
 21
171.43074481434843
  0
LINE
  8
_0-8_
  6
CONTINUOUS
 62
    7
 10
211.21026646363879
 20
171.43074481434843
 11
210.99457675065912
 21
171.30259873412433
  0
LINE
  8
_0-8_
  6
CONTINUOUS
 62
    7
 10
210.99457675065912
 20
171.30259873412433
 11
210.92713879697163
 21
171.17774929914924
  0
LINE
  8
_0-8_
  6
CONTINUOUS
 62
    7
 10
225.64957066130722
 20
171.17774929914924
 11
225.61229285778325
 21
171.3095811512394
  0
LINE
  8
_0-8_
  6
CONTINUOUS
 62
    7
 10
225.61229285778325
 20
171.3095811512394
 11
225.50159211440791
 21
171.43740735921386
  0
LINE
  8
_0-8_
  6
CONTINUOUS
 62
    7
 10
225.50159211440791
 20
171.43740735921386
 11
225.32083201725129
 21
171.55734398842662
  0
LINE
  8
_0-8_
  6
CONTINUOUS
 62
    7
 10
225.32083201725129
 20
171.55734398842662
 11
225.07550487039663
 21
171.66574682508985
  0
LINE
  8
_0-8_
  6
CONTINUOUS
 62
    7
 10
225.07550487039663
 20
171.66574682508985
 11
224.77306481505946
 21
171.75932210386611
  0
LINE
  8
_0-8_
  6
CONTINUOUS
 62
    7
 10
224.77306481505946
 20
171.75932210386611
 11
224.42270133927923
 21
171.83522658726099
  0
LINE
  8
_0-8_
  6
CONTINUOUS
 62
    7
 10
224.42270133927923
 20
171.83522658726099
 11
224.03506005997502
 21
171.89115395595616
  0
LINE
  8
_0-8_
  6
CONTINUOUS
 62
    7
 10
224.03506005997502
 20
171.89115395595616
 11
223.62191926126252
 21
171.92540488515453
  0
LINE
  8
_0-8_
  6
CONTINUOUS
 62
    7
 10
223.62191926126252
 20
171.92540488515453
 11
223.19583201725129
 21
171.93693867770401
  0
LINE
  8
_0-8_
  6
CONTINUOUS
 62
    7
 10
223.19583201725129
 20
171.93693867770401
 11
222.76974477324006
 21
171.92540488515453
  0
LINE
  8
_0-8_
  6
CONTINUOUS
 62
    7
 10
222.76974477324006
 20
171.92540488515453
 11
222.35660397452756
 21
171.89115395595616
  0
LINE
  8
_0-8_
  6
CONTINUOUS
 62
    7
 10
222.35660397452756
 20
171.89115395595616
 11
221.96896269522335
 21
171.83522658726099
  0
LINE
  8
_0-8_
  6
CONTINUOUS
 62
    7
 10
221.96896269522335
 20
171.83522658726099
 11
221.61859921944313
 21
171.75932210386611
  0
LINE
  8
_0-8_
  6
CONTINUOUS
 62
    7
 10
221.61859921944313
 20
171.75932210386611
 11
221.31615916410595
 21
171.66574682508985
  0
LINE
  8
_0-8_
  6
CONTINUOUS
 62
    7
 10
221.31615916410595
 20
171.66574682508985
 11
221.07083201725129
 21
171.55734398842662
  0
LINE
  8
_0-8_
  6
CONTINUOUS
 62
    7
 10
221.07083201725129
 20
171.55734398842662
 11
220.89007192009473
 21
171.43740735921386
  0
LINE
  8
_0-8_
  6
CONTINUOUS
 62
    7
 10
220.89007192009473
 20
171.43740735921386
 11
220.77937117671934
 21
171.3095811512394
  0
LINE
  8
_0-8_
  6
CONTINUOUS
 62
    7
 10
220.77937117671934
 20
171.3095811512394
 11
220.74209337319536
 21
171.17774929914924
  0
LINE
  8
_0-8_
  6
CONTINUOUS
 62
    7
 10
220.74209337319479
 20
171.17774929914924
 11
220.66683495220133
 21
171.30958690019952
  0
LINE
  8
_0-8_
  6
CONTINUOUS
 62
    7
 10
220.66683495220133
 20
171.30958690019952
 11
220.44334637826023
 21
171.43741868245502
  0
LINE
  8
_0-8_
  6
CONTINUOUS
 62
    7
 10
220.44334637826023
 20
171.43741868245502
 11
220.07841823859997
 21
171.55736054189776
  0
LINE
  8
_0-8_
  6
CONTINUOUS
 62
    7
 10
220.07841823859997
 20
171.55736054189776
 11
219.58313869008168
 21
171.66576810582217
  0
LINE
  8
_0-8_
  6
CONTINUOUS
 62
    7
 10
219.58313869008168
 20
171.66576810582217
 11
218.97255655116339
 21
171.75934746525525
  0
LINE
  8
_0-8_
  6
CONTINUOUS
 62
    7
 10
218.97255655116339
 20
171.75934746525525
 11
218.2652240511668
 21
171.83525525871403
  0
LINE
  8
_0-8_
  6
CONTINUOUS
 62
    7
 10
218.2652240511668
 20
171.83525525871403
 11
217.48263313017674
 21
171.89118506630552
  0
LINE
  8
_0-8_
  6
CONTINUOUS
 62
    7
 10
217.48263313017674
 20
171.89118506630552
 11
216.64856241731741
 21
171.92543748912794
  0
LINE
  8
_0-8_
  6
CONTINUOUS
 62
    7
 10
216.64856241731741
 20
171.92543748912794
 11
215.83461608508293
 21
171.93693867770401
  0
LINE
  8
_0-8_
  6
CONTINUOUS
 62
  152
 10
211.53461589438325
 20
197.03693867770397
 11
211.53461589438325
 21
216.63693848700379
  0
LINE
  8
_0-8_
  6
CONTINUOUS
 62
  152
 10
220.13461627578317
 20
216.63693848700379
 11
220.13461627578317
 21
197.03693867770397
  0
LINE
  8
_0-8_
  6
CONTINUOUS
 62
    7
 10
220.83461608508321
 20
197.03693867770397
 11
220.83461608508321
 21
215.93693867770375
  0
LINE
  8
_0-8_
  6
CONTINUOUS
 62
    7
 10
210.83461608508321
 20
215.93693867770375
 11
210.83461608508321
 21
197.03693867770397
  0
LINE
  8
_0-8_
  6
CONTINUOUS
 62
  152
 10
52.17953017141474
 20
197.03693867770397
 11
52.17953017141474
 21
216.68693867770375
  0
LINE
  8
_0-8_
  6
CONTINUOUS
 62
  152
 10
41.679530171414285
 20
197.03693867770397
 11
41.679530171414285
 21
216.68693867770372
  0
LINE
  8
_0-8_
  6
CONTINUOUS
 62
    7
 10
52.92953017141474
 20
215.93693867770375
 11
52.92953017141474
 21
197.03693867770397
  0
LINE
  8
_0-8_
  6
CONTINUOUS
 62
    7
 10
40.929530171414285
 20
215.93693867770375
 11
40.929530171414285
 21
197.03693867770397
  0
LINE
  8
_0-9_
  6
PHANTOM1
 62
  152
 10
57.899185286017769
 20
158.6033012879235
 11
54.929530171415195
 21
157.83693867770387
  0
LINE
  8
_0-9_
  6
PHANTOM1
 62
  152
 10
35.959875056811256
 20
164.03693867770392
 11
35.959875056811256
 21
158.6033012879235
  0
LINE
  8
_0-9_
  6
PHANTOM1
 62
  152
 10
38.92953017141383
 20
157.83693867770387
 11
35.959875056811256
 21
158.6033012879235
  0
LINE
  8
_0-9_
  6
PHANTOM1
 62
  152
 10
58.92953017141383
 20
157.83693867770387
 11
58.92953017141383
 21
157.43693867770355
  0
LINE
  8
_0-9_
  6
PHANTOM1
 62
  152
 10
57.899185286017769
 20
158.6033012879235
 11
57.899185286017769
 21
164.03693867770392
  0
LINE
  8
_0-9_
  6
PHANTOM1
 62
  152
 10
34.929530171415195
 20
157.43693867770355
 11
34.929530171415195
 21
157.83693867770387
  0
LINE
  8
_0-9_
  6
PHANTOM1
 62
  152
 10
66.929530171414513
 20
154.43693867770355
 11
66.929530171414513
 21
149.43693867770355
  0
LINE
  8
_0-9_
  6
PHANTOM1
 62
  152
 10
26.929530171414513
 20
149.43693867770355
 11
26.929530171414513
 21
154.43693867770355
  0
LINE
  8
_0-9_
  6
PHANTOM1
 62
  152
 10
27.529530171415104
 20
149.43693867770355
 11
27.529530171415104
 21
146.93693867770355
  0
LINE
  8
_0-9_
  6
PHANTOM1
 62
  152
 10
66.329530171413921
 20
146.93693867770355
 11
66.329530171413921
 21
149.43693867770355
  0
LINE
  8
_0-9_
  6
PHANTOM1
 62
  152
 10
64.929530171415195
 20
146.93693867770355
 11
64.929530171415195
 21
143.93693867770401
  0
LINE
  8
_0-9_
  6
PHANTOM1
 62
  152
 10
64.929530171415195
 20
143.93693867770401
 11
28.92953017141383
 21
143.93693867770401
  0
LINE
  8
_0-9_
  6
PHANTOM1
 62
  152
 10
28.92953017141383
 20
143.93693867770401
 11
28.92953017141383
 21
146.93693867770355
  0
ARC
  8
_0-9_
  6
PHANTOM1
 62
  152
 10
29.929530171415195
 20
154.43693867770355
 40
2.9999999999999867
 50
89.99999999999946
 51
180.0000000000002
  0
ARC
  8
_0-9_
  6
PHANTOM1
 62
  152
 10
63.92953017141383
 20
154.43693867770355
 40
2.9999999999999725
 50
359.99999999999977
 51
90.00000000000054
  0
LINE
  8
_0-9_
  6
PHANTOM1
 62
  152
 10
34.929530171415195
 20
157.83693867770387
 11
38.92953017141383
 21
157.83693867770387
  0
LINE
  8
_0-9_
  6
PHANTOM1
 62
  152
 10
54.929530171415195
 20
157.83693867770387
 11
58.92953017141383
 21
157.83693867770387
  0
LINE
  8
_0-9_
  6
PHANTOM1
 62
  152
 10
63.92953017141383
 20
157.43693867770355
 11
58.92953017141383
 21
157.43693867770355
  0
LINE
  8
_0-9_
  6
PHANTOM1
 62
  152
 10
34.929530171415195
 20
157.43693867770355
 11
29.929530171665306
 21
157.43693867770355
  0
LINE
  8
_0-9_
  6
PHANTOM1
 62
  152
 10
66.929530171414513
 20
149.43693867770355
 11
66.329530171413921
 21
149.43693867770355
  0
LINE
  8
_0-9_
  6
PHANTOM1
 62
  152
 10
27.529530171415104
 20
149.43693867770355
 11
26.929530171414513
 21
149.43693867770355
  0
LINE
  8
_0-9_
  6
PHANTOM1
 62
  152
 10
27.529530171415104
 20
146.93693867770355
 11
28.92953017141383
 21
146.93693867770355
  0
LINE
  8
_0-9_
  6
PHANTOM1
 62
  152
 10
64.929530171415195
 20
146.93693867770355
 11
66.329530171413921
 21
146.93693867770355
  0
LINE
  8
_0-9_
  6
PHANTOM1
 62
  152
 10
225.64957066130694
 20
159.21347787114439
 11
224.28461608508348
 21
158.83693867770387
  0
LINE
  8
_0-9_
  6
PHANTOM1
 62
  152
 10
225.64957066130694
 20
159.21347787114439
 11
225.64957066130694
 21
163.53693867770414
  0
LINE
  8
_0-9_
  6
PHANTOM1
 62
  152
 10
206.01966150885949
 20
163.53693867770414
 11
206.01966150885949
 21
159.21347787114439
  0
LINE
  8
_0-9_
  6
PHANTOM1
 62
  152
 10
207.38461608508294
 20
158.83693867770387
 11
206.01966150885949
 21
159.21347787114439
  0
LINE
  8
_0-9_
  6
PHANTOM1
 62
  152
 10
203.83461608508276
 20
158.83693867770387
 11
203.83461608508276
 21
158.43693867770355
  0
LINE
  8
_0-9_
  6
PHANTOM1
 62
  152
 10
227.83461608508367
 20
158.83693867770387
 11
227.83461608508367
 21
158.43693867770355
  0
LINE
  8
_0-9_
  6
PHANTOM1
 62
  152
 10
235.83461608508321
 20
155.43693867770355
 11
235.83461608508321
 21
150.43693867770355
  0
LINE
  8
_0-9_
  6
PHANTOM1
 62
  152
 10
195.83461608508321
 20
150.43693867770355
 11
195.83461608508321
 21
155.43693867770355
  0
LINE
  8
_0-9_
  6
PHANTOM1
 62
  152
 10
196.43461608508267
 20
150.43693867770355
 11
196.43461608508267
 21
147.93693867770355
  0
LINE
  8
_0-9_
  6
PHANTOM1
 62
  152
 10
235.23461608508376
 20
147.93693867770355
 11
235.23461608508376
 21
150.43693867770355
  0
ARC
  8
_0-9_
  6
PHANTOM1
 62
  152
 10
198.83461608508276
 20
155.43693867770355
 40
2.9999999999999867
 50
89.99999999999946
 51
180.0000000000002
  0
ARC
  8
_0-9_
  6
PHANTOM1
 62
  152
 10
232.83461608508367
 20
155.43693867770355
 40
2.9999999999999725
 50
359.99999999999977
 51
90.00000000000054
  0
LINE
  8
_0-9_
  6
PHANTOM1
 62
  152
 10
203.83461608508276
 20
158.83693867770387
 11
207.38461608508294
 21
158.83693867770387
  0
LINE
  8
_0-9_
  6
PHANTOM1
 62
  152
 10
224.28461608508348
 20
158.83693867770387
 11
227.83461608508367
 21
158.83693867770387
  0
LINE
  8
_0-9_
  6
PHANTOM1
 62
  152
 10
232.83461608508367
 20
158.43693867770355
 11
227.83461608508367
 21
158.43693867770355
  0
LINE
  8
_0-9_
  6
PHANTOM1
 62
  152
 10
203.83461608508276
 20
158.43693867770355
 11
198.83461608533287
 21
158.43693867770355
  0
LINE
  8
_0-9_
  6
PHANTOM1
 62
  152
 10
235.83461608508321
 20
150.43693867770355
 11
235.23461608508376
 21
150.43693867770355
  0
LINE
  8
_0-9_
  6
PHANTOM1
 62
  152
 10
196.43461608508267
 20
150.43693867770355
 11
195.83461608508321
 21
150.43693867770355
  0
LINE
  8
_0-9_
  6
PHANTOM1
 62
  152
 10
196.43461608508267
 20
147.93693867770355
 11
197.83461608508367
 21
147.93693867770355
  0
LINE
  8
_0-9_
  6
PHANTOM1
 62
  152
 10
233.83461608508276
 20
147.93693867770355
 11
235.23461608508376
 21
147.93693867770355
  0
LINE
  8
_0-9_
  6
PHANTOM1
 62
  152
 10
197.83461608508367
 20
147.93693867770355
 11
197.83461608508367
 21
144.93693867770401
  0
LINE
  8
_0-9_
  6
PHANTOM1
 62
  152
 10
233.83461608508276
 20
147.93693867770355
 11
233.83461608508276
 21
144.93693867770401
  0
LINE
  8
_0-9_
  6
PHANTOM1
 62
  152
 10
197.83461608508367
 20
144.93693867770401
 11
233.83461608508276
 21
144.93693867770401
  0
LINE
  8
_0-9_
  6
PHANTOM1
 62
  152
 10
197.83461608508367
 20
94.936938677703552
 11
197.83461608508367
 21
91.936938677704006
  0
LINE
  8
_0-9_
  6
PHANTOM1
 62
  152
 10
233.83461608508276
 20
94.936938677703552
 11
233.83461608508276
 21
91.936938677704006
  0
LINE
  8
_0-9_
  6
PHANTOM1
 62
  152
 10
197.83461608508367
 20
91.936938677704006
 11
233.83461608508276
 21
91.936938677704006
  0
TEXT
  8
_0-0_
 62
    7
 10
4.5530347876195947
 20
68.931226627821957
 40
5
 41
1
 50
0
  1
LS25B-M12
  0
TEXT
  8
_0-0_
 62
    7
 10
166.13907802972051
 20
69.61398455701385
 40
5
 41
1
 50
0
  1
LS25B-M10
  0
ENDSEC
  0
EOF
