  0
SECTION
  2
HEADER
  9
$ACADVER
  1
AC1009
  9
$INSBASE
 10
0
 20
0
 30
0
  9
$EXTMIN
 10
0
 20
0
  9
$EXTMAX
 10
1189
 20
841
  9
$LIMMIN
 10
0
 20
0
  9
$LIMMAX
 10
1189
 20
841
  9
$LTSCALE
 40
1
  0
ENDSEC
  0
SECTION
  2
TABLES
  0
TABLE
  2
LTYPE
 70
     9
  0
LTYPE
  2
CONTINUOUS
 70
    64
  3
実線
 72
    65
 73
     0
 40
0.0
  0
LTYPE
  2
DASHED1
 70
    64
  3
--  --  --  --  --  --  --  --  
 72
    65
 73
     2
 40
2.5
 49
1.25
 49
-1.25
  0
LTYPE
  2
DASHED2
 70
    64
  3
----    ----    ----    ----    
 72
    65
 73
     2
 40
5.0
 49
2.5
 49
-2.5
  0
LTYPE
  2
DASHED3
 70
    64
  3
------  ------  ------  ------  
 72
    65
 73
     2
 40
5.0
 49
3.75
 49
-1.25
  0
LTYPE
  2
CENTER1
 70
    64
  3
----- - ----- - ----- - ----- - 
 72
    65
 73
     4
 40
10.0
 49
6.25
 49
-1.25
 49
1.25
 49
-1.25
  0
LTYPE
  2
CENTER2
 70
    64
  3
----------  --  ----------  --  
 72
    65
 73
     4
 40
20.0
 49
12.5
 49
-2.5
 49
2.5
 49
-2.5
  0
LTYPE
  2
PHANTOM1
 70
    64
  3
--- - - --- - - --- - - --- - - 
 72
    65
 73
     6
 40
10.0
 49
3.25
 49
-1.25
 49
1.25
 49
-1.25
 49
1.25
 49
-1.25
  0
LTYPE
  2
PHANTOM2
 70
    64
  3
--------  -  -  --------  -  -  
 72
    65
 73
     6
 40
20.0
 49
10.0
 49
-2.5
 49
1.25
 49
-2.5
 49
1.25
 49
-2.5
  0
LTYPE
  2
DOT
 70
    64
  3
-   -   -   -   -   -   -   -   
 72
    65
 73
     2
 40
2.5
 49
0.625
 49
-1.875
  0
LTYPE
  2
DUMMY
 70
    64
  3
ダミー
 72
    65
 73
     0
 40
0.0
  0
LTYPE
  2
RAND1
 70
    64
  3
ランダム線1
 72
    65
 73
     4
 40
10.0
 49
1.0
 49
-2.0
 49
3.0
 49
-4.0
  0
LTYPE
  2
RAND2
 70
    64
  3
ランダム線2
 72
    65
 73
     4
 40
14.0
 49
2.0
 49
-3.0
 49
4.0
 49
-5.0
  0
LTYPE
  2
RAND3
 70
    64
  3
ランダム線3
 72
    65
 73
     4
 40
18.0
 49
3.0
 49
-4.0
 49
5.0
 49
-6.0
  0
LTYPE
  2
RAND4
 70
    64
  3
ランダム線4
 72
    65
 73
     4
 40
22.0
 49
4.0
 49
-5.0
 49
6.0
 49
-7.0
  0
LTYPE
  2
RAND5
 70
    64
  3
ランダム線5
 72
    65
 73
     4
 40
26.0
 49
5.0
 49
-6.0
 49
7.0
 49
-8.0
  0
LTYPE
  2
LONG1
 70
    64
  3
----------  --  ----------  --  
 72
    65
 73
     4
 40
40.0
 49
32.5
 49
-2.5
 49
2.5
 49
-2.5
  0
LTYPE
  2
LONG2
 70
    64
  3
--------  -  -  --------  -  -  
 72
    65
 73
     6
 40
40.0
 49
30.0
 49
-2.5
 49
1.25
 49
-2.5
 49
1.25
 49
-2.5
  0
LTYPE
  2
LONG3
 70
    64
  3
+++++++++++++++..+++++++++++++++
 72
    65
 73
     2
 40
40.0
 49
37.5
 49
-2.5
  0
LTYPE
  2
LONG4
 70
    64
  3
+++++++++++++++..+++++++++++++++
 72
    65
 73
     2
 40
80.0
 49
75.0
 49
-5.0
  0
LTYPE
  2
LONG5
 70
    64
  3
----------  --  ----------  --  
 72
    65
 73
     4
 40
60.0
 49
37.5
 49
-7.5
 49
7.5
 49
-7.5
  0
LTYPE
  2
dashed
 70
   64
  3
-------   -------------   ------
 72
   65
 73
    2
 40
7.5
 49
6
 49
-1.5
  0
LTYPE
  2
dashed_spaced
 70
   64
  3
----        --------        ----
 72
   65
 73
    2
 40
12
 49
6
 49
-6
  0
LTYPE
  2
long_dashed_dotted
 70
   64
  3
------------- --- --------------
 72
   65
 73
    4
 40
15.25
 49
12
 49
-1.5
 49
0.25
 49
-1.5
  0
LTYPE
  2
long_dashed_double-dotted
 70
   64
  3
----------- --- --- ------------
 72
   65
 73
    6
 40
17
 49
12
 49
-1.5
 49
0.25
 49
-1.5
 49
0.25
 49
-1.5
  0
LTYPE
  2
long_dashed_triplicate-dotted
 70
   64
  3
--------- --- --- --- ----------
 72
   65
 73
    8
 40
18.75
 49
12
 49
-1.5
 49
0.25
 49
-1.5
 49
0.25
 49
-1.5
 49
0.25
 49
-1.5
  0
LTYPE
  2
dotted
 70
   64
  3
   -       -       -       -    
 72
   65
 73
    2
 40
1.75
 49
0.25
 49
-1.5
  0
LTYPE
  2
chain
 70
   64
  3
-------------- -- --------------
 72
   65
 73
    4
 40
18.5
 49
12
 49
-1.5
 49
3.5
 49
-1.5
  0
LTYPE
  2
chain_double_dash
 70
   64
  3
------------ -- -- -------------
 72
   65
 73
    6
 40
23.5
 49
12
 49
-1.5
 49
3.5
 49
-1.5
 49
3.5
 49
-1.5
  0
LTYPE
  2
dashed_dotted
 70
   64
  3
-----------     -     ----------
 72
   65
 73
    4
 40
9.25
 49
6
 49
-1.5
 49
0.25
 49
-1.5
  0
LTYPE
  2
double-dashed_dotted
 70
   64
  3
------   -----------   -   -----
 72
   65
 73
    6
 40
16.75
 49
6
 49
-1.5
 49
6
 49
-1.5
 49
0.25
 49
-1.5
  0
LTYPE
  2
dashed_double-dotted
 70
   64
  3
---------    -    -    ---------
 72
   65
 73
    6
 40
11
 49
6
 49
-1.5
 49
0.25
 49
-1.5
 49
0.25
 49
-1.5
  0
LTYPE
  2
double-dashed_double-dotted
 70
   64
  3
-----   ---------   -   -   ----
 72
   65
 73
    8
 40
18.5
 49
6
 49
-1.5
 49
6
 49
-1.5
 49
0.25
 49
-1.5
 49
0.25
 49
-1.5
  0
LTYPE
  2
dashed_triplicate-dotted
 70
   64
  3
-------    -    -    -    ------
 72
   65
 73
    8
 40
12.75
 49
6
 49
-1.5
 49
0.25
 49
-1.5
 49
0.25
 49
-1.5
 49
0.25
 49
-1.5
  0
LTYPE
  2
double-dashed_triplicate-dotted
 70
   64
  3
-----  ---------  -  -  -  -----
 72
   65
 73
   10
 40
20.25
 49
6
 49
-1.5
 49
6
 49
-1.5
 49
0.25
 49
-1.5
 49
0.25
 49
-1.5
 49
0.25
 49
-1.5
  0
LTYPE
  2
undefined
 70
   64
  3
--------------------------------
 72
   65
 73
    0
 40
0
  0
ENDTAB
  0
TABLE
  2
STYLE
  5
3
100
AcDbSymbolTable
 70
     1
  0
STYLE
  5
10
100
AcDbSymbolTableRecord
100
AcDbTextStyleTableRecord
  2
STANDARD
 70
     0
 40
0.0
 41
1.0
 50
0.0
 71
     0
 42
0.2
  3
txt
  4
bigfont.shx
  0
STYLE
  5
26
100
AcDbSymbolTableRecord
100
AcDbTextStyleTableRecord
  2
TATEGAKI
 70
    68
 40
0.0
 41
1.0
 50
0.0
 71
     0
 42
1.0
  3
txt
  4
bigfont.shx
  0
ENDTAB
  0
TABLE
  2
LAYER
 70
    4
  0
LAYER
  2
_0-0_
 70
   64
 62
    7
  6
CONTINUOUS
  0
LAYER
  2
_0-1_
 70
   64
 62
    7
  6
CONTINUOUS
  0
LAYER
  2
_0-e_
 70
   64
 62
    7
  6
CONTINUOUS
  0
LAYER
  2
ADD_LINE
 70
   64
 62
    7
  6
CONTINUOUS
  0
ENDTAB
  0
ENDSEC
  0
SECTION
  2
BLOCKS
  0
ENDSEC
  0
SECTION
  2
ENTITIES
  0
LINE
  8
_0-1_
  6
CONTINUOUS
 62
    7
 10
52.029530171413512
 20
134.6027183477413
 11
52.029530171413512
 21
111.59477191118845
  0
LINE
  8
_0-1_
  6
CONTINUOUS
 62
    7
 10
41.829530171414149
 20
111.59477191118845
 11
41.829530171414149
 21
134.6027183477413
  0
CIRCLE
  8
_0-0_
  6
CONTINUOUS
 62
    7
 10
215.83461608508321
 20
237.76047438818432
 40
5
  0
LINE
  8
_0-0_
  6
CONTINUOUS
 62
    7
 10
19.929530171414513
 20
258.82148402516418
 11
19.929530171414513
 21
212.82148402516395
  0
LINE
  8
_0-0_
  6
CONTINUOUS
 62
    7
 10
19.929530171414513
 20
212.82148402516395
 11
21.929530171414513
 21
210.82148402516395
  0
LINE
  8
_0-0_
  6
CONTINUOUS
 62
    7
 10
21.929530171414513
 20
210.82148402516395
 11
67.929530171414513
 21
210.82148402516395
  0
LINE
  8
_0-0_
  6
CONTINUOUS
 62
    7
 10
67.929530171414513
 20
210.82148402516395
 11
69.929530171414513
 21
212.82148402516395
  0
LINE
  8
_0-0_
  6
CONTINUOUS
 62
    7
 10
69.929530171414513
 20
212.82148402516395
 11
69.929530171414513
 21
235.82148402516395
  0
LINE
  8
_0-0_
  6
CONTINUOUS
 62
    7
 10
69.929530171414513
 20
235.82148402516395
 11
44.929530171414513
 21
260.82148402516418
  0
LINE
  8
_0-0_
  6
CONTINUOUS
 62
    7
 10
44.929530171414513
 20
260.82148402516418
 11
21.929530171414513
 21
260.82148402516418
  0
LINE
  8
_0-0_
  6
CONTINUOUS
 62
    7
 10
21.929530171414513
 20
260.82148402516418
 11
19.929530171414513
 21
258.82148402516418
  0
LINE
  8
_0-0_
  6
CONTINUOUS
 62
    7
 10
41.829530171414149
 20
181.59477191118845
 11
40.929530171414967
 21
180.69477191118835
  0
LINE
  8
_0-0_
  6
CONTINUOUS
 62
    7
 10
37.929530171414513
 20
151.40271834774148
 11
37.929530171414513
 21
135.6027183477413
  0
LINE
  8
_0-0_
  6
CONTINUOUS
 62
    7
 10
37.929530171414513
 20
135.6027183477413
 11
38.929530171414513
 21
134.6027183477413
  0
LINE
  8
_0-0_
  6
CONTINUOUS
 62
    7
 10
38.929530171414513
 20
134.6027183477413
 11
54.929530171414513
 21
134.6027183477413
  0
LINE
  8
_0-0_
  6
CONTINUOUS
 62
    7
 10
54.929530171414513
 20
134.6027183477413
 11
55.929530171414513
 21
135.6027183477413
  0
LINE
  8
_0-0_
  6
CONTINUOUS
 62
    7
 10
55.929530171414513
 20
135.6027183477413
 11
55.929530171414513
 21
151.40271834774148
  0
LINE
  8
_0-0_
  6
CONTINUOUS
 62
    7
 10
52.929530171414058
 20
180.69477191118835
 11
52.029530171413512
 21
181.59477191118845
  0
LINE
  8
_0-0_
  6
CONTINUOUS
 62
    7
 10
52.029530171413512
 20
181.59477191118845
 11
41.829530171414149
 21
181.59477191118845
  0
LINE
  8
_0-0_
  6
CONTINUOUS
 62
    7
 10
40.929530171414967
 20
180.69477191118835
 11
52.929530171414058
 21
180.69477191118835
  0
LINE
  8
_0-0_
  6
CONTINUOUS
 62
    7
 10
67.929530171414513
 20
154.6027183477413
 11
67.929530171414513
 21
151.40271834774148
  0
LINE
  8
_0-0_
  6
CONTINUOUS
 62
    7
 10
69.929530171414513
 20
151.40271834774148
 11
69.929530171414513
 21
154.6027183477413
  0
LINE
  8
_0-0_
  6
CONTINUOUS
 62
    7
 10
69.929530171414513
 20
154.6027183477413
 11
19.929530171414513
 21
154.6027183477413
  0
LINE
  8
_0-0_
  6
CONTINUOUS
 62
    7
 10
19.929530171414513
 20
154.6027183477413
 11
19.929530171414513
 21
151.40271834774148
  0
LINE
  8
_0-0_
  6
CONTINUOUS
 62
    7
 10
19.929530171414513
 20
151.40271834774148
 11
69.929530171414513
 21
151.40271834774148
  0
LINE
  8
_0-0_
  6
CONTINUOUS
 62
    7
 10
55.929530171414513
 20
135.6027183477413
 11
37.929530171414513
 21
135.6027183477413
  0
LINE
  8
_0-0_
  6
CONTINUOUS
 62
    7
 10
40.929530171414967
 20
134.6027183477413
 11
40.929530171414967
 21
111.59477191118845
  0
LINE
  8
_0-0_
  6
CONTINUOUS
 62
    7
 10
41.444702659878089
 20
110.45759086756379
 11
41.444702659878089
 21
102.09477191118845
  0
LINE
  8
_0-0_
  6
CONTINUOUS
 62
    7
 10
35.959875141414955
 20
102.09477191118845
 11
35.959875141414955
 21
110.45759086756379
  0
LINE
  8
_0-0_
  6
CONTINUOUS
 62
    7
 10
38.700963543322246
 20
111.59477191118845
 11
55.155446575548808
 21
111.59477191118845
  0
LINE
  8
_0-0_
  6
CONTINUOUS
 62
    7
 10
52.929530171414058
 20
111.59477191118845
 11
52.929530171414058
 21
134.6027183477413
  0
LINE
  8
_0-0_
  6
CONTINUOUS
 62
    7
 10
52.414357696804814
 20
110.45759086756379
 11
52.414357696804814
 21
102.09477191118845
  0
LINE
  8
_0-0_
  6
CONTINUOUS
 62
    7
 10
57.899185215268403
 20
102.09477191118845
 11
57.899185215268403
 21
110.45759086756379
  0
LINE
  8
_0-0_
  6
CONTINUOUS
 62
    7
 10
68.929530171414967
 20
102.09477191118845
 11
24.929530171414058
 21
102.09477191118845
  0
LINE
  8
_0-0_
  6
CONTINUOUS
 62
    7
 10
21.929530171413603
 20
99.094771911188445
 11
21.929530171413603
 21
89.094771911188445
  0
LINE
  8
_0-0_
  6
CONTINUOUS
 62
    7
 10
21.929530171413603
 20
89.094771911188445
 11
24.929530171414058
 21
86.094771911188445
  0
LINE
  8
_0-0_
  6
CONTINUOUS
 62
    7
 10
24.929530171414058
 20
86.094771911188445
 11
68.929530171414967
 21
86.094771911188445
  0
LINE
  8
_0-0_
  6
CONTINUOUS
 62
    7
 10
68.929530171414967
 20
86.094771911188445
 11
71.929530171414058
 21
89.094771911188445
  0
LINE
  8
_0-0_
  6
CONTINUOUS
 62
    7
 10
71.929530171414058
 20
89.094771911188445
 11
71.929530171414058
 21
99.094771911188445
  0
LINE
  8
_0-0_
  6
CONTINUOUS
 62
    7
 10
71.929530171414058
 20
89.094771911188445
 11
21.929530171413603
 21
89.094771911188445
  0
LINE
  8
_0-0_
  6
CONTINUOUS
 62
    7
 10
21.929530171414513
 20
54.013029492426995
 11
19.929530171414513
 21
52.013029492426995
  0
LINE
  8
_0-0_
  6
CONTINUOUS
 62
    7
 10
19.929530171414513
 20
52.013029492426995
 11
19.929530171414513
 21
6.0130294924269947
  0
LINE
  8
_0-0_
  6
CONTINUOUS
 62
    7
 10
19.929530171414513
 20
6.0130294924269947
 11
21.929530171414513
 21
4.0130294924269947
  0
LINE
  8
_0-0_
  6
CONTINUOUS
 62
    7
 10
21.929530171414513
 20
4.0130294924269947
 11
37.131571200281883
 21
4.0130294924269947
  0
LINE
  8
_0-0_
  6
CONTINUOUS
 62
    7
 10
190.83461608508321
 20
260.76047438818455
 11
213.83461608508321
 21
260.76047438818455
  0
LINE
  8
_0-0_
  6
CONTINUOUS
 62
    7
 10
213.83461608508321
 20
260.76047438818455
 11
238.83461608508321
 21
235.76047438818432
  0
LINE
  8
_0-0_
  6
CONTINUOUS
 62
    7
 10
238.83461608508321
 20
235.76047438818432
 11
238.83461608508321
 21
212.76047438818432
  0
LINE
  8
_0-0_
  6
CONTINUOUS
 62
    7
 10
238.83461608508321
 20
212.76047438818432
 11
236.83461608508321
 21
210.76047438818432
  0
LINE
  8
_0-0_
  6
CONTINUOUS
 62
    7
 10
236.83461608508321
 20
210.76047438818432
 11
190.83461608508321
 21
210.76047438818432
  0
LINE
  8
_0-0_
  6
CONTINUOUS
 62
    7
 10
190.83461608508321
 20
210.76047438818432
 11
188.83461608508321
 21
212.76047438818432
  0
LINE
  8
_0-0_
  6
CONTINUOUS
 62
    7
 10
188.83461608508321
 20
212.76047438818432
 11
188.83461608508321
 21
258.76047438818455
  0
LINE
  8
_0-0_
  6
CONTINUOUS
 62
    7
 10
188.83461608508321
 20
258.76047438818455
 11
190.83461608508321
 21
260.76047438818455
  0
LINE
  8
_0-0_
  6
CONTINUOUS
 62
    7
 10
21.929530171414513
 20
154.6027183477413
 11
21.929530171414513
 21
151.40271834774148
  0
LINE
  8
_0-0_
  6
CONTINUOUS
 62
    7
 10
21.929530171414513
 20
54.013029492426995
 11
67.929530171414513
 21
54.013029492426995
  0
LINE
  8
_0-0_
  6
CONTINUOUS
 62
    7
 10
67.929530171414513
 20
54.013029492426995
 11
69.929530171414513
 21
52.013029492426995
  0
LINE
  8
_0-0_
  6
CONTINUOUS
 62
    7
 10
69.929530171414513
 20
52.013029492426995
 11
69.929530171414513
 21
36.810988463559625
  0
CIRCLE
  8
_0-0_
  6
CONTINUOUS
 62
    7
 10
46.929530171414513
 20
237.82148402516395
 40
5.0499999999999998
  0
CIRCLE
  8
_0-0_
  6
CONTINUOUS
 62
    7
 10
25.929530171414513
 20
255.82148402516395
 40
2.75
  0
CIRCLE
  8
_0-0_
  6
CONTINUOUS
 62
    7
 10
25.929530171414513
 20
235.82148402516395
 40
2.75
  0
CIRCLE
  8
_0-0_
  6
CONTINUOUS
 62
    7
 10
44.929530171414513
 20
216.82148402516395
 40
2.75
  0
CIRCLE
  8
_0-0_
  6
CONTINUOUS
 62
    7
 10
64.929530171414513
 20
216.82148402516395
 40
2.75
  0
CIRCLE
  8
_0-0_
  6
CONTINUOUS
 62
    7
 10
46.929530171414513
 20
237.82148402516395
 40
8
  0
CIRCLE
  8
_0-0_
  6
CONTINUOUS
 62
    7
 10
194.83461608508321
 20
255.76047438818432
 40
2.75
  0
CIRCLE
  8
_0-0_
  6
CONTINUOUS
 62
    7
 10
194.83461608508321
 20
235.76047438818432
 40
2.75
  0
CIRCLE
  8
_0-0_
  6
CONTINUOUS
 62
    7
 10
213.83461608508321
 20
216.76047438818432
 40
2.75
  0
CIRCLE
  8
_0-0_
  6
CONTINUOUS
 62
    7
 10
233.83461608508321
 20
216.76047438818432
 40
2.75
  0
CIRCLE
  8
_0-0_
  6
CONTINUOUS
 62
    7
 10
215.83461608508321
 20
237.76047438818432
 40
8
  0
CIRCLE
  8
_0-0_
  6
CONTINUOUS
 62
    7
 10
215.83461608508321
 20
237.76047438818432
 40
4.3000001907348633
  0
CIRCLE
  8
_0-0_
  6
CONTINUOUS
 62
    7
 10
46.929530171414513
 20
27.013029492426995
 40
25
  0
CIRCLE
  8
_0-0_
  6
CONTINUOUS
 62
    7
 10
46.929530171414513
 20
27.013029492426995
 40
5.0499999999999998
  0
CIRCLE
  8
_0-0_
  6
CONTINUOUS
 62
    7
 10
46.929530171414513
 20
27.013029492426995
 40
8
  0
CIRCLE
  8
_0-0_
  6
CONTINUOUS
 62
    7
 10
46.929530171414513
 20
27.013029492426995
 40
22.000000000000455
  0
ARC
  8
_0-0_
  6
CONTINUOUS
 62
    7
 10
24.929530171414058
 20
99.094771911188445
 40
3.0000000000000004
 50
90
 51
180
  0
ARC
  8
_0-0_
  6
CONTINUOUS
 62
    7
 10
68.929530171414967
 20
99.094771911188445
 40
3.0000000000000004
 50
0
 51
90
  0
ARC
  8
_0-0_
  6
CONTINUOUS
 62
    7
 10
46.929530178341679
 20
97.799027968927703
 40
13.795743942260742
 50
66.573394775390625
 51
113.4265899658203
  0
LINE
  8
_0-0_
  6
CONTINUOUS
 62
    7
 10
57.899054914585577
 20
110.45759036544194
 11
57.231631132445841
 21
110.9758458661463
  0
LINE
  8
_0-0_
  6
CONTINUOUS
 62
    7
 10
57.231631132445841
 20
110.9758458661463
 11
56.501163796212154
 21
111.34370831999718
  0
LINE
  8
_0-0_
  6
CONTINUOUS
 62
    7
 10
56.501163796212154
 20
111.34370831999718
 11
55.729847786261871
 21
111.55000041248161
  0
LINE
  8
_0-0_
  6
CONTINUOUS
 62
    7
 10
55.729847786261871
 20
111.55000041248161
 11
54.941119149252586
 21
111.5884540627585
  0
LINE
  8
_0-0_
  6
CONTINUOUS
 62
    7
 10
54.941119149252586
 20
111.5884540627585
 11
54.158943005703691
 21
111.45790087612249
  0
LINE
  8
_0-0_
  6
CONTINUOUS
 62
    7
 10
54.158943005703691
 20
111.45790087612249
 11
53.407085381936895
 21
111.16230764508646
  0
LINE
  8
_0-0_
  6
CONTINUOUS
 62
    7
 10
53.407085381936895
 20
111.16230764508646
 11
52.708391091391945
 21
110.71065582039807
  0
LINE
  8
_0-0_
  6
CONTINUOUS
 62
    7
 10
52.708391091391945
 20
110.71065582039807
 11
52.414489434026905
 21
110.45759126351629
  0
LINE
  8
_0-0_
  6
CONTINUOUS
 62
    7
 10
41.444571882359014
 20
110.45759036544194
 11
40.777148100219279
 21
110.9758458661463
  0
LINE
  8
_0-0_
  6
CONTINUOUS
 62
    7
 10
40.777148100219279
 20
110.9758458661463
 11
40.046680763985592
 21
111.34370831999718
  0
LINE
  8
_0-0_
  6
CONTINUOUS
 62
    7
 10
40.046680763985592
 20
111.34370831999718
 11
39.275364754035309
 21
111.55000041248161
  0
LINE
  8
_0-0_
  6
CONTINUOUS
 62
    7
 10
39.275364754035309
 20
111.55000041248161
 11
38.48663611702591
 21
111.5884540627585
  0
LINE
  8
_0-0_
  6
CONTINUOUS
 62
    7
 10
38.48663611702591
 20
111.5884540627585
 11
37.704459973477128
 21
111.45790087612249
  0
LINE
  8
_0-0_
  6
CONTINUOUS
 62
    7
 10
37.704459973477128
 20
111.45790087612249
 11
36.952602349710332
 21
111.16230764508646
  0
LINE
  8
_0-0_
  6
CONTINUOUS
 62
    7
 10
36.952602349710332
 20
111.16230764508646
 11
36.253908059165497
 21
110.71065582039807
  0
LINE
  8
_0-0_
  6
CONTINUOUS
 62
    7
 10
36.253908059165497
 20
110.71065582039807
 11
35.960006401800342
 21
110.45759126351629
  0
LINE
  8
_0-0_
  6
CONTINUOUS
 62
    7
 10
90.675929242884536
 20
210.82148402516395
 11
90.675929242884536
 21
260.82148402516395
  0
LINE
  8
_0-0_
  6
CONTINUOUS
 62
    7
 10
90.675929242884536
 20
260.82148402516395
 11
87.475929242884717
 21
260.82148402516395
  0
LINE
  8
_0-0_
  6
CONTINUOUS
 62
    7
 10
87.475929242884717
 20
260.82148402516395
 11
87.475929242884717
 21
210.82148402516395
  0
LINE
  8
_0-0_
  6
CONTINUOUS
 62
    7
 10
87.475929242884717
 20
210.82148402516395
 11
90.675929242884536
 21
210.82148402516395
  0
LINE
  8
_0-0_
  6
CONTINUOUS
 62
    7
 10
90.675929242884536
 20
212.82148402516395
 11
87.475929242884717
 21
212.82148402516395
  0
LINE
  8
_0-0_
  6
CONTINUOUS
 62
    7
 10
90.675929242884536
 20
228.82148402516395
 11
106.47592924288472
 21
228.82148402516395
  0
LINE
  8
_0-0_
  6
CONTINUOUS
 62
    7
 10
106.47592924288472
 20
228.82148402516395
 11
106.47592924288472
 21
246.82148402516395
  0
LINE
  8
_0-0_
  6
CONTINUOUS
 62
    7
 10
106.47592924288472
 20
246.82148402516395
 11
90.675929242884536
 21
246.82148402516395
  0
LINE
  8
_0-0_
  6
CONTINUOUS
 62
    7
 10
90.675929242884536
 20
258.82148402516395
 11
87.475929242884717
 21
258.82148402516395
  0
LINE
  8
_0-0_
  6
CONTINUOUS
 62
    7
 10
106.47592924288472
 20
246.82148402516395
 11
107.47592924288472
 21
245.82148402516395
  0
LINE
  8
_0-0_
  6
CONTINUOUS
 62
    7
 10
107.47592924288472
 20
245.82148402516395
 11
107.47592924288472
 21
229.82148402516395
  0
LINE
  8
_0-0_
  6
CONTINUOUS
 62
    7
 10
107.47592924288472
 20
229.82148402516395
 11
106.47592924288472
 21
228.82148402516395
  0
LINE
  8
_0-0_
  6
CONTINUOUS
 62
    7
 10
256.82912713807161
 20
210.76047438818432
 11
256.82912713807161
 21
260.76047438818432
  0
LINE
  8
_0-0_
  6
CONTINUOUS
 62
    7
 10
256.82912713807161
 20
260.76047438818432
 11
253.62912713807179
 21
260.76047438818432
  0
LINE
  8
_0-0_
  6
CONTINUOUS
 62
    7
 10
253.62912713807179
 20
260.76047438818432
 11
253.62912713807179
 21
210.76047438818432
  0
LINE
  8
_0-0_
  6
CONTINUOUS
 62
    7
 10
253.62912713807179
 20
210.76047438818432
 11
256.82912713807161
 21
210.76047438818432
  0
LINE
  8
_0-0_
  6
CONTINUOUS
 62
    7
 10
256.82912713807161
 20
212.76047438818432
 11
253.62912713807179
 21
212.76047438818432
  0
LINE
  8
_0-0_
  6
CONTINUOUS
 62
    7
 10
256.82912713807161
 20
228.76047438818432
 11
272.62912713807179
 21
228.76047438818432
  0
LINE
  8
_0-0_
  6
CONTINUOUS
 62
    7
 10
272.62912713807179
 20
228.76047438818432
 11
273.62912713807179
 21
229.76047438818432
  0
LINE
  8
_0-0_
  6
CONTINUOUS
 62
    7
 10
273.62912713807179
 20
229.76047438818432
 11
273.62912713807179
 21
245.76047438818432
  0
LINE
  8
_0-0_
  6
CONTINUOUS
 62
    7
 10
273.62912713807179
 20
245.76047438818432
 11
272.62912713807179
 21
246.76047438818432
  0
LINE
  8
_0-0_
  6
CONTINUOUS
 62
    7
 10
272.62912713807179
 20
246.76047438818432
 11
256.82912713807161
 21
246.76047438818432
  0
LINE
  8
_0-0_
  6
CONTINUOUS
 62
    7
 10
256.82912713807161
 20
258.76047438818432
 11
253.62912713807179
 21
258.76047438818432
  0
LINE
  8
_0-0_
  6
CONTINUOUS
 62
    7
 10
272.62912713807179
 20
246.76047438818432
 11
272.62912713807179
 21
228.76047438818432
  0
LINE
  8
_0-1_
  6
CONTINUOUS
 62
    7
 10
63.7152444400989
 20
145.60271815700662
 11
63.7152444400989
 21
150.10271815700662
  0
LINE
  8
_0-1_
  6
CONTINUOUS
 62
    7
 10
63.108101634045738
 20
145.60271815700662
 11
63.108101634045738
 21
150.10271815700662
  0
LINE
  8
_0-1_
  6
CONTINUOUS
 62
    7
 10
61.893815783520836
 20
145.60271815700662
 11
61.893815783520836
 21
150.10271815700662
  0
LINE
  8
_0-1_
  6
CONTINUOUS
 62
    7
 10
61.286673096676964
 20
145.60271815700662
 11
61.286673096676964
 21
150.10271815700662
  0
LINE
  8
_0-1_
  6
CONTINUOUS
 62
    7
 10
62.500958708783287
 20
145.60271815700662
 11
62.500958708783287
 21
150.10271815700662
  0
LINE
  8
_0-1_
  6
CONTINUOUS
 62
    7
 10
69.179530171414513
 20
145.60271815700662
 11
68.679530171414513
 21
145.10271815700662
  0
LINE
  8
_0-1_
  6
CONTINUOUS
 62
    7
 10
61.179530171414513
 20
145.10271815700662
 11
68.679530171414513
 21
145.10271815700662
  0
LINE
  8
_0-1_
  6
CONTINUOUS
 62
    7
 10
61.179530171414513
 20
145.10271815700662
 11
60.679530171414513
 21
145.60271815700662
  0
LINE
  8
_0-1_
  6
CONTINUOUS
 62
    7
 10
69.179530171414513
 20
145.60271815700662
 11
60.679530171414513
 21
145.60271815700662
  0
LINE
  8
_0-1_
  6
CONTINUOUS
 62
    7
 10
69.179530171414513
 20
150.10271815700662
 11
60.679530171414513
 21
150.10271815700662
  0
LINE
  8
_0-1_
  6
CONTINUOUS
 62
    7
 10
69.179530171414513
 20
145.60271815700662
 11
69.179530171414513
 21
151.40271834774148
  0
LINE
  8
_0-1_
  6
CONTINUOUS
 62
    7
 10
60.679530171414513
 20
145.60271815700662
 11
60.679530171414513
 21
151.40271834774148
  0
LINE
  8
_0-1_
  6
CONTINUOUS
 62
    7
 10
62.779530076047081
 20
160.10271815700662
 11
67.079530266781944
 21
160.10271815700662
  0
LINE
  8
_0-1_
  6
CONTINUOUS
 62
    7
 10
67.429530171414513
 20
159.75271777553689
 11
67.079530266781944
 21
160.10271815700662
  0
LINE
  8
_0-1_
  6
CONTINUOUS
 62
    7
 10
62.779530076047081
 20
160.10271815700662
 11
62.429530171414513
 21
159.75271777553689
  0
LINE
  8
_0-1_
  6
CONTINUOUS
 62
    7
 10
67.429530171414513
 20
159.75271777553689
 11
62.429530171414513
 21
159.75271777553689
  0
LINE
  8
_0-1_
  6
CONTINUOUS
 62
    7
 10
64.554252503176826
 20
151.40271834774148
 11
65.304807839652199
 21
150.10271815700662
  0
LINE
  8
_0-1_
  6
CONTINUOUS
 62
    7
 10
24.7152444400989
 20
145.60271815700662
 11
24.7152444400989
 21
150.10271815700662
  0
LINE
  8
_0-1_
  6
CONTINUOUS
 62
    7
 10
24.108101634045738
 20
145.60271815700662
 11
24.108101634045738
 21
150.10271815700662
  0
LINE
  8
_0-1_
  6
CONTINUOUS
 62
    7
 10
22.893815783520836
 20
145.60271815700662
 11
22.893815783520836
 21
150.10271815700662
  0
LINE
  8
_0-1_
  6
CONTINUOUS
 62
    7
 10
22.286673096676964
 20
145.60271815700662
 11
22.286673096676964
 21
150.10271815700662
  0
LINE
  8
_0-1_
  6
CONTINUOUS
 62
    7
 10
23.500958708783287
 20
145.60271815700662
 11
23.500958708783287
 21
150.10271815700662
  0
LINE
  8
_0-1_
  6
CONTINUOUS
 62
    7
 10
30.179530171414513
 20
145.60271815700662
 11
29.679530171414513
 21
145.10271815700662
  0
LINE
  8
_0-1_
  6
CONTINUOUS
 62
    7
 10
22.179530171414513
 20
145.10271815700662
 11
29.679530171414513
 21
145.10271815700662
  0
LINE
  8
_0-1_
  6
CONTINUOUS
 62
    7
 10
22.179530171414513
 20
145.10271815700662
 11
21.679530171414513
 21
145.60271815700662
  0
LINE
  8
_0-1_
  6
CONTINUOUS
 62
    7
 10
30.179530171414513
 20
145.60271815700662
 11
21.679530171414513
 21
145.60271815700662
  0
LINE
  8
_0-1_
  6
CONTINUOUS
 62
    7
 10
30.179530171414513
 20
150.10271815700662
 11
21.679530171414513
 21
150.10271815700662
  0
LINE
  8
_0-1_
  6
CONTINUOUS
 62
    7
 10
30.179530171414513
 20
145.60271815700662
 11
30.179530171414513
 21
151.40271834774148
  0
LINE
  8
_0-1_
  6
CONTINUOUS
 62
    7
 10
21.679530171414513
 20
145.60271815700662
 11
21.679530171414513
 21
151.40271834774148
  0
LINE
  8
_0-1_
  6
CONTINUOUS
 62
    7
 10
23.779530076047081
 20
160.10271815700662
 11
28.079530266781944
 21
160.10271815700662
  0
LINE
  8
_0-1_
  6
CONTINUOUS
 62
    7
 10
28.429530171414513
 20
159.75271777553689
 11
28.079530266781944
 21
160.10271815700662
  0
LINE
  8
_0-1_
  6
CONTINUOUS
 62
    7
 10
23.779530076047081
 20
160.10271815700662
 11
23.429530171414513
 21
159.75271777553689
  0
LINE
  8
_0-1_
  6
CONTINUOUS
 62
    7
 10
28.429530171414513
 20
159.75271777553689
 11
23.429530171414513
 21
159.75271777553689
  0
LINE
  8
_0-1_
  6
CONTINUOUS
 62
    7
 10
25.554252503176826
 20
151.40271834774148
 11
26.304807839652199
 21
150.10271815700662
  0
LINE
  8
_0-1_
  6
CONTINUOUS
 62
    7
 10
29.084581171414698
 20
159.26411834774132
 11
28.210917171414508
 21
159.5821083477411
  0
LINE
  8
_0-1_
  6
CONTINUOUS
 62
    7
 10
27.526877171414412
 20
159.70271834774127
 11
24.332184171414497
 21
159.70271834774127
  0
LINE
  8
_0-1_
  6
CONTINUOUS
 62
    7
 10
23.648144171414401
 20
159.5821083477411
 11
22.774480171414666
 21
159.26411834774132
  0
ARC
  8
_0-1_
  6
CONTINUOUS
 62
    7
 10
27.526877171414412
 20
157.70271834774127
 40
2
 50
69.999999999999972
 51
90
  0
ARC
  8
_0-1_
  6
CONTINUOUS
 62
    7
 10
24.332184171414497
 20
157.70271834774127
 40
2
 50
90
 51
110
  0
ARC
  8
_0-1_
  6
CONTINUOUS
 62
    7
 10
28.229530171414694
 20
156.91488834774105
 40
2.5
 50
348.17822799457855
 51
69.999999999999929
  0
LINE
  8
_0-1_
  6
CONTINUOUS
 62
    7
 10
29.501068078206913
 20
156.40271834774109
 11
30.676504198882071
 21
156.40271834774109
  0
ARC
  8
_0-1_
  6
CONTINUOUS
 62
    7
 10
23.629530171414785
 20
156.91488834774105
 40
2.5
 50
110.00000000000003
 51
191.82177200542145
  0
LINE
  8
_0-1_
  6
CONTINUOUS
 62
    7
 10
21.182556143947409
 20
156.40271834774109
 11
22.357993264622564
 21
156.40271834774109
  0
LINE
  8
_0-1_
  6
CONTINUOUS
 62
    7
 10
22.67952907820677
 20
155.20271834774127
 11
22.357993264622564
 21
156.40271834774109
  0
LINE
  8
_0-1_
  6
CONTINUOUS
 62
    7
 10
29.501068078206913
 20
156.40271834774109
 11
29.17953226462248
 21
155.20271834774127
  0
LINE
  8
_0-1_
  6
CONTINUOUS
 62
    7
 10
22.67952907820677
 20
155.20271834774127
 11
29.17953226462248
 21
155.20271834774127
  0
LINE
  8
_0-1_
  6
CONTINUOUS
 62
    7
 10
23.429530171414513
 20
159.75271777553689
 11
23.429530171414513
 21
159.50253878111141
  0
LINE
  8
_0-1_
  6
CONTINUOUS
 62
    7
 10
23.429530171414513
 20
155.20271834774127
 11
23.429530171414513
 21
154.6027183477413
  0
LINE
  8
_0-1_
  6
CONTINUOUS
 62
    7
 10
23.779530076047081
 20
154.6027183477413
 11
23.779530076047081
 21
155.20271834774127
  0
LINE
  8
_0-1_
  6
CONTINUOUS
 62
    7
 10
23.779530076047081
 20
159.62484567205502
 11
23.779530076047081
 21
160.10271815700662
  0
LINE
  8
_0-1_
  6
CONTINUOUS
 62
    7
 10
28.079530266781944
 20
154.6027183477413
 11
28.079530266781944
 21
155.20271834774127
  0
LINE
  8
_0-1_
  6
CONTINUOUS
 62
    7
 10
28.079530266781944
 20
159.62484595957682
 11
28.079530266781944
 21
160.10271815700662
  0
LINE
  8
_0-1_
  6
CONTINUOUS
 62
    7
 10
28.429530171414513
 20
159.75271777553689
 11
28.429530171414513
 21
159.50253914508431
  0
LINE
  8
_0-1_
  6
CONTINUOUS
 62
    7
 10
28.429530171414513
 20
155.20271834774127
 11
28.429530171414513
 21
154.6027183477413
  0
LINE
  8
_0-1_
  6
CONTINUOUS
 62
    7
 10
69.929530171414513
 20
159.70271834774127
 11
69.929530171414513
 21
155.20271834774127
  0
LINE
  8
_0-1_
  6
CONTINUOUS
 62
    7
 10
62.429530171414513
 20
159.75271777553689
 11
62.429530171414513
 21
159.70271834774127
  0
LINE
  8
_0-1_
  6
CONTINUOUS
 62
    7
 10
62.429530171414513
 20
155.20271834774127
 11
62.429530171414513
 21
154.6027183477413
  0
LINE
  8
_0-1_
  6
CONTINUOUS
 62
    7
 10
62.779530076047081
 20
154.6027183477413
 11
62.779530076047081
 21
155.20271834774127
  0
LINE
  8
_0-1_
  6
CONTINUOUS
 62
    7
 10
62.779530076047081
 20
159.70271834774127
 11
62.779530076047081
 21
160.10271815700662
  0
LINE
  8
_0-1_
  6
CONTINUOUS
 62
    7
 10
67.079530266781944
 20
154.6027183477413
 11
67.079530266781944
 21
155.20271834774127
  0
LINE
  8
_0-1_
  6
CONTINUOUS
 62
    7
 10
67.079530266781944
 20
159.70271834774127
 11
67.079530266781944
 21
160.10271815700662
  0
LINE
  8
_0-1_
  6
CONTINUOUS
 62
    7
 10
67.429530171414513
 20
159.75271777553689
 11
67.429530171414513
 21
159.70271834774127
  0
LINE
  8
_0-1_
  6
CONTINUOUS
 62
    7
 10
67.429530171414513
 20
155.20271834774127
 11
67.429530171414513
 21
154.6027183477413
  0
LINE
  8
_0-1_
  6
CONTINUOUS
 62
    7
 10
47.079530266781944
 20
160.10271815700662
 11
42.779530076047081
 21
160.10271815700662
  0
LINE
  8
_0-1_
  6
CONTINUOUS
 62
    7
 10
42.429530171414513
 20
159.75271777553689
 11
42.779530076047081
 21
160.10271815700662
  0
LINE
  8
_0-1_
  6
CONTINUOUS
 62
    7
 10
47.079530266781944
 20
160.10271815700662
 11
47.429530171414513
 21
159.75271777553689
  0
LINE
  8
_0-1_
  6
CONTINUOUS
 62
    7
 10
42.429530171414513
 20
159.75271777553689
 11
47.429530171414513
 21
159.75271777553689
  0
LINE
  8
_0-1_
  6
CONTINUOUS
 62
    7
 10
47.429530171414513
 20
159.75271777553689
 11
47.429530171414513
 21
159.70271834774127
  0
LINE
  8
_0-1_
  6
CONTINUOUS
 62
    7
 10
47.429530171414513
 20
155.20271834774127
 11
47.429530171414513
 21
154.6027183477413
  0
LINE
  8
_0-1_
  6
CONTINUOUS
 62
    7
 10
47.079530266781944
 20
154.6027183477413
 11
47.079530266781944
 21
155.20271834774127
  0
LINE
  8
_0-1_
  6
CONTINUOUS
 62
    7
 10
47.079530266781944
 20
159.70271834774127
 11
47.079530266781944
 21
160.10271815700662
  0
LINE
  8
_0-1_
  6
CONTINUOUS
 62
    7
 10
42.779530076047081
 20
154.6027183477413
 11
42.779530076047081
 21
155.20271834774127
  0
LINE
  8
_0-1_
  6
CONTINUOUS
 62
    7
 10
42.779530076047081
 20
159.70271834774127
 11
42.779530076047081
 21
160.10271815700662
  0
LINE
  8
_0-1_
  6
CONTINUOUS
 62
    7
 10
42.429530171414513
 20
159.75271777553689
 11
42.429530171414513
 21
159.70271834774127
  0
LINE
  8
_0-1_
  6
CONTINUOUS
 62
    7
 10
42.429530171414513
 20
155.20271834774127
 11
42.429530171414513
 21
154.6027183477413
  0
LINE
  8
_0-1_
  6
CONTINUOUS
 62
    7
 10
39.929530171414513
 20
159.70271834774127
 11
69.929530171414513
 21
159.70271834774127
  0
LINE
  8
_0-1_
  6
CONTINUOUS
 62
    7
 10
39.929530171414513
 20
156.40271834774126
 11
69.929530171414513
 21
156.40271834774126
  0
LINE
  8
_0-1_
  6
CONTINUOUS
 62
    7
 10
39.929530171414513
 20
155.20271834774127
 11
69.929530171414513
 21
155.20271834774127
  0
LINE
  8
_0-1_
  6
CONTINUOUS
 62
    7
 10
39.929530171414513
 20
159.70271834774127
 11
39.929530171414513
 21
155.20271834774127
  0
LINE
  8
_0-0_
  6
CONTINUOUS
 62
    7
 10
40.929530171414967
 20
180.69477191118835
 11
40.929530171414967
 21
159.70271834774127
  0
LINE
  8
_0-0_
  6
CONTINUOUS
 62
    7
 10
40.929530171414967
 20
155.20271834774127
 11
40.929530171414967
 21
154.6027183477413
  0
LINE
  8
_0-1_
  6
CONTINUOUS
 62
    7
 10
41.829530171414149
 20
154.6027183477413
 11
41.829530171414149
 21
155.20271834774127
  0
LINE
  8
_0-1_
  6
CONTINUOUS
 62
    7
 10
41.829530171414149
 20
159.70271834774127
 11
41.829530171414149
 21
181.59477191118845
  0
LINE
  8
_0-1_
  6
CONTINUOUS
 62
    7
 10
52.029530171413512
 20
154.6027183477413
 11
52.029530171413512
 21
155.20271834774127
  0
LINE
  8
_0-1_
  6
CONTINUOUS
 62
    7
 10
52.029530171413512
 20
159.70271834774127
 11
52.029530171413512
 21
181.59477191118845
  0
LINE
  8
_0-0_
  6
CONTINUOUS
 62
    7
 10
52.929530171414058
 20
154.6027183477413
 11
52.929530171414058
 21
155.20271834774127
  0
LINE
  8
_0-0_
  6
CONTINUOUS
 62
    7
 10
52.929530171414058
 20
159.70271834774127
 11
52.929530171414058
 21
180.69477191118835
  0
LINE
  8
_0-1_
  6
CONTINUOUS
 62
    7
 10
43.7152444400989
 20
145.60271815700662
 11
43.7152444400989
 21
150.10271815700662
  0
LINE
  8
_0-1_
  6
CONTINUOUS
 62
    7
 10
43.108101634045738
 20
145.60271815700662
 11
43.108101634045738
 21
150.10271815700662
  0
LINE
  8
_0-1_
  6
CONTINUOUS
 62
    7
 10
41.893815783520836
 20
145.60271815700662
 11
41.893815783520836
 21
150.10271815700662
  0
LINE
  8
_0-1_
  6
CONTINUOUS
 62
    7
 10
41.286673096676964
 20
145.60271815700662
 11
41.286673096676964
 21
150.10271815700662
  0
LINE
  8
_0-1_
  6
CONTINUOUS
 62
    7
 10
42.500958708783287
 20
145.60271815700662
 11
42.500958708783287
 21
150.10271815700662
  0
LINE
  8
_0-1_
  6
CONTINUOUS
 62
    7
 10
49.179530171414513
 20
145.60271815700662
 11
48.679530171414513
 21
145.10271815700662
  0
LINE
  8
_0-1_
  6
CONTINUOUS
 62
    7
 10
41.179530171414513
 20
145.10271815700662
 11
48.679530171414513
 21
145.10271815700662
  0
LINE
  8
_0-1_
  6
CONTINUOUS
 62
    7
 10
41.179530171414513
 20
145.10271815700662
 11
40.679530171414513
 21
145.60271815700662
  0
LINE
  8
_0-1_
  6
CONTINUOUS
 62
    7
 10
49.179530171414513
 20
145.60271815700662
 11
40.679530171414513
 21
145.60271815700662
  0
LINE
  8
_0-1_
  6
CONTINUOUS
 62
    7
 10
49.179530171414513
 20
150.10271815700662
 11
40.679530171414513
 21
150.10271815700662
  0
LINE
  8
_0-1_
  6
CONTINUOUS
 62
    7
 10
49.179530171414513
 20
145.60271815700662
 11
49.179530171414513
 21
151.40271834774148
  0
LINE
  8
_0-1_
  6
CONTINUOUS
 62
    7
 10
40.679530171414513
 20
145.60271815700662
 11
40.679530171414513
 21
151.40271834774148
  0
LINE
  8
_0-1_
  6
CONTINUOUS
 62
    7
 10
44.554252503176826
 20
151.40271834774148
 11
45.304807839652199
 21
150.10271815700662
  0
LINE
  8
_0-1_
  6
CONTINUOUS
 62
    7
 10
220.13461608508339
 20
106.09477191118845
 11
220.13461608508339
 21
134.6027183477413
  0
LINE
  8
_0-1_
  6
CONTINUOUS
 62
    7
 10
211.53460608508328
 20
134.6027183477413
 11
211.53460608508328
 21
106.09477191118845
  0
LINE
  8
_0-0_
  6
CONTINUOUS
 62
    7
 10
211.53460608508328
 20
186.09477191118845
 11
210.83461608508321
 21
185.3947719111884
  0
LINE
  8
_0-0_
  6
CONTINUOUS
 62
    7
 10
210.83461608508321
 20
185.3947719111884
 11
220.83461608508321
 21
185.3947719111884
  0
LINE
  8
_0-0_
  6
CONTINUOUS
 62
    7
 10
224.83461608508321
 20
151.40271834774148
 11
224.83461608508321
 21
135.6027183477413
  0
LINE
  8
_0-0_
  6
CONTINUOUS
 62
    7
 10
224.83461608508321
 20
135.6027183477413
 11
223.83461608508321
 21
134.6027183477413
  0
LINE
  8
_0-0_
  6
CONTINUOUS
 62
    7
 10
223.83461608508321
 20
134.6027183477413
 11
207.83461608508321
 21
134.6027183477413
  0
LINE
  8
_0-0_
  6
CONTINUOUS
 62
    7
 10
207.83461608508321
 20
134.6027183477413
 11
206.83461608508321
 21
135.6027183477413
  0
LINE
  8
_0-0_
  6
CONTINUOUS
 62
    7
 10
206.83461608508321
 20
135.6027183477413
 11
206.83461608508321
 21
151.40271834774148
  0
LINE
  8
_0-0_
  6
CONTINUOUS
 62
    7
 10
211.53460608508328
 20
186.09477191118845
 11
220.13461608508339
 21
186.09477191118845
  0
LINE
  8
_0-0_
  6
CONTINUOUS
 62
    7
 10
220.13461608508339
 20
186.09477191118845
 11
220.83461608508321
 21
185.3947719111884
  0
LINE
  8
_0-0_
  6
CONTINUOUS
 62
    7
 10
224.83461608508321
 20
135.6027183477413
 11
206.83461608508321
 21
135.6027183477413
  0
LINE
  8
_0-0_
  6
CONTINUOUS
 62
    7
 10
210.83461608508321
 20
134.6027183477413
 11
210.83461608508321
 21
106.09477191118845
  0
LINE
  8
_0-0_
  6
CONTINUOUS
 62
    7
 10
211.21580608508327
 20
106.09477191118845
 11
211.21580608508327
 21
99.809301911188186
  0
LINE
  8
_0-0_
  6
CONTINUOUS
 62
    7
 10
207.83461608508367
 20
99.094771911188445
 11
206.59700608508308
 21
99.809301911188186
  0
LINE
  8
_0-0_
  6
CONTINUOUS
 62
    7
 10
206.59700608508308
 20
99.809301911188186
 11
206.59700608508308
 21
106.09477191118845
  0
LINE
  8
_0-0_
  6
CONTINUOUS
 62
    7
 10
206.59700608508308
 20
106.09477191118845
 11
225.07221608508314
 21
106.09477191118845
  0
LINE
  8
_0-0_
  6
CONTINUOUS
 62
    7
 10
225.07221608508314
 20
106.09477191118845
 11
225.07221608508314
 21
99.809301911188186
  0
LINE
  8
_0-0_
  6
CONTINUOUS
 62
    7
 10
225.07221608508314
 20
99.809301911188186
 11
223.83461608508367
 21
99.094771911188445
  0
LINE
  8
_0-0_
  6
CONTINUOUS
 62
    7
 10
220.4534160850834
 20
99.809301911188186
 11
220.4534160850834
 21
106.09477191118845
  0
LINE
  8
_0-0_
  6
CONTINUOUS
 62
    7
 10
220.83461608508321
 20
106.09477191118845
 11
220.83461608508321
 21
134.6027183477413
  0
LINE
  8
_0-0_
  6
CONTINUOUS
 62
    7
 10
230.83461608508321
 20
99.094771911188445
 11
200.83461608508321
 21
99.094771911188445
  0
LINE
  8
_0-0_
  6
CONTINUOUS
 62
    7
 10
195.83461608508321
 20
94.094771911188445
 11
195.83461608508321
 21
90.094771911188445
  0
LINE
  8
_0-0_
  6
CONTINUOUS
 62
    7
 10
195.83461608508321
 20
90.094771911188445
 11
235.83461608508321
 21
90.094771911188445
  0
LINE
  8
_0-0_
  6
CONTINUOUS
 62
    7
 10
235.83461608508321
 20
90.094771911188445
 11
235.83461608508321
 21
94.094771911188445
  0
LINE
  8
_0-0_
  6
CONTINUOUS
 62
    7
 10
233.83461608508367
 20
90.094771911188445
 11
233.83461608508367
 21
86.094771911188445
  0
LINE
  8
_0-0_
  6
CONTINUOUS
 62
    7
 10
233.83461608508367
 20
86.094771911188445
 11
197.83461608508367
 21
86.094771911188445
  0
LINE
  8
_0-0_
  6
CONTINUOUS
 62
    7
 10
197.83461608508367
 20
86.094771911188445
 11
197.83461608508367
 21
90.094771911188445
  0
ARC
  8
_0-0_
  6
CONTINUOUS
 62
    7
 10
215.83461608508321
 20
114.38024191118848
 40
15.285468
 50
252.41203999999999
 51
287.58794999999998
  0
ARC
  8
_0-0_
  6
CONTINUOUS
 62
    7
 10
208.90640608508318
 20
103.18408191118806
 40
4.0893164000000004
 50
235.61575000000005
 51
304.38424000000003
  0
ARC
  8
_0-0_
  6
CONTINUOUS
 62
    7
 10
222.7628160850835
 20
103.18408191118806
 40
4.0893164000000004
 50
235.61575000000005
 51
304.38424000000003
  0
ARC
  8
_0-0_
  6
CONTINUOUS
 62
    7
 10
200.83461608508321
 20
94.094771911188445
 40
5
 50
90
 51
180
  0
ARC
  8
_0-0_
  6
CONTINUOUS
 62
    7
 10
230.83461608508321
 20
94.094771911188445
 40
5
 50
0
 51
90
  0
LINE
  8
_0-0_
  6
CONTINUOUS
 62
    7
 10
236.83461608508321
 20
154.6027183477413
 11
236.83461608508321
 21
151.40271834774148
  0
LINE
  8
_0-0_
  6
CONTINUOUS
 62
    7
 10
238.83461608508321
 20
151.40271834774148
 11
238.83461608508321
 21
154.6027183477413
  0
LINE
  8
_0-0_
  6
CONTINUOUS
 62
    7
 10
238.83461608508321
 20
154.6027183477413
 11
188.83461608508321
 21
154.6027183477413
  0
LINE
  8
_0-0_
  6
CONTINUOUS
 62
    7
 10
188.83461608508321
 20
154.6027183477413
 11
188.83461608508321
 21
151.40271834774148
  0
LINE
  8
_0-0_
  6
CONTINUOUS
 62
    7
 10
188.83461608508321
 20
151.40271834774148
 11
238.83461608508321
 21
151.40271834774148
  0
LINE
  8
_0-0_
  6
CONTINUOUS
 62
    7
 10
190.83461608508321
 20
154.6027183477413
 11
190.83461608508321
 21
151.40271834774148
  0
LINE
  8
_0-1_
  6
CONTINUOUS
 62
    7
 10
232.6203303537676
 20
145.60271815700662
 11
232.6203303537676
 21
150.10271815700662
  0
LINE
  8
_0-1_
  6
CONTINUOUS
 62
    7
 10
232.01318754771444
 20
145.60271815700662
 11
232.01318754771444
 21
150.10271815700662
  0
LINE
  8
_0-1_
  6
CONTINUOUS
 62
    7
 10
230.79890169718954
 20
145.60271815700662
 11
230.79890169718954
 21
150.10271815700662
  0
LINE
  8
_0-1_
  6
CONTINUOUS
 62
    7
 10
230.19175901034566
 20
145.60271815700662
 11
230.19175901034566
 21
150.10271815700662
  0
LINE
  8
_0-1_
  6
CONTINUOUS
 62
    7
 10
231.40604462245199
 20
145.60271815700662
 11
231.40604462245199
 21
150.10271815700662
  0
LINE
  8
_0-1_
  6
CONTINUOUS
 62
    7
 10
238.08461608508321
 20
145.60271815700662
 11
237.58461608508321
 21
145.10271815700662
  0
LINE
  8
_0-1_
  6
CONTINUOUS
 62
    7
 10
230.08461608508321
 20
145.10271815700662
 11
237.58461608508321
 21
145.10271815700662
  0
LINE
  8
_0-1_
  6
CONTINUOUS
 62
    7
 10
230.08461608508321
 20
145.10271815700662
 11
229.58461608508321
 21
145.60271815700662
  0
LINE
  8
_0-1_
  6
CONTINUOUS
 62
    7
 10
238.08461608508321
 20
145.60271815700662
 11
229.58461608508321
 21
145.60271815700662
  0
LINE
  8
_0-1_
  6
CONTINUOUS
 62
    7
 10
238.08461608508321
 20
150.10271815700662
 11
229.58461608508321
 21
150.10271815700662
  0
LINE
  8
_0-1_
  6
CONTINUOUS
 62
    7
 10
238.08461608508321
 20
145.60271815700662
 11
238.08461608508321
 21
151.40271834774148
  0
LINE
  8
_0-1_
  6
CONTINUOUS
 62
    7
 10
229.58461608508321
 20
145.60271815700662
 11
229.58461608508321
 21
151.40271834774148
  0
LINE
  8
_0-1_
  6
CONTINUOUS
 62
    7
 10
231.68461598971578
 20
160.10271815700662
 11
235.98461618045064
 21
160.10271815700662
  0
LINE
  8
_0-1_
  6
CONTINUOUS
 62
    7
 10
236.33461608508321
 20
159.75271777553689
 11
235.98461618045064
 21
160.10271815700662
  0
LINE
  8
_0-1_
  6
CONTINUOUS
 62
    7
 10
231.68461598971578
 20
160.10271815700662
 11
231.33461608508321
 21
159.75271777553689
  0
LINE
  8
_0-1_
  6
CONTINUOUS
 62
    7
 10
236.33461608508321
 20
159.75271777553689
 11
231.33461608508321
 21
159.75271777553689
  0
LINE
  8
_0-1_
  6
CONTINUOUS
 62
    7
 10
233.45933841684553
 20
151.40271834774148
 11
234.2098937533209
 21
150.10271815700662
  0
LINE
  8
_0-1_
  6
CONTINUOUS
 62
    7
 10
193.6203303537676
 20
145.60271815700662
 11
193.6203303537676
 21
150.10271815700662
  0
LINE
  8
_0-1_
  6
CONTINUOUS
 62
    7
 10
193.01318754771444
 20
145.60271815700662
 11
193.01318754771444
 21
150.10271815700662
  0
LINE
  8
_0-1_
  6
CONTINUOUS
 62
    7
 10
191.79890169718954
 20
145.60271815700662
 11
191.79890169718954
 21
150.10271815700662
  0
LINE
  8
_0-1_
  6
CONTINUOUS
 62
    7
 10
191.19175901034566
 20
145.60271815700662
 11
191.19175901034566
 21
150.10271815700662
  0
LINE
  8
_0-1_
  6
CONTINUOUS
 62
    7
 10
192.40604462245199
 20
145.60271815700662
 11
192.40604462245199
 21
150.10271815700662
  0
LINE
  8
_0-1_
  6
CONTINUOUS
 62
    7
 10
199.08461608508321
 20
145.60271815700662
 11
198.58461608508321
 21
145.10271815700662
  0
LINE
  8
_0-1_
  6
CONTINUOUS
 62
    7
 10
191.08461608508321
 20
145.10271815700662
 11
198.58461608508321
 21
145.10271815700662
  0
LINE
  8
_0-1_
  6
CONTINUOUS
 62
    7
 10
191.08461608508321
 20
145.10271815700662
 11
190.58461608508321
 21
145.60271815700662
  0
LINE
  8
_0-1_
  6
CONTINUOUS
 62
    7
 10
199.08461608508321
 20
145.60271815700662
 11
190.58461608508321
 21
145.60271815700662
  0
LINE
  8
_0-1_
  6
CONTINUOUS
 62
    7
 10
199.08461608508321
 20
150.10271815700662
 11
190.58461608508321
 21
150.10271815700662
  0
LINE
  8
_0-1_
  6
CONTINUOUS
 62
    7
 10
199.08461608508321
 20
145.60271815700662
 11
199.08461608508321
 21
151.40271834774148
  0
LINE
  8
_0-1_
  6
CONTINUOUS
 62
    7
 10
190.58461608508321
 20
145.60271815700662
 11
190.58461608508321
 21
151.40271834774148
  0
LINE
  8
_0-1_
  6
CONTINUOUS
 62
    7
 10
192.68461598971578
 20
160.10271815700662
 11
196.98461618045064
 21
160.10271815700662
  0
LINE
  8
_0-1_
  6
CONTINUOUS
 62
    7
 10
197.33461608508321
 20
159.75271777553689
 11
196.98461618045064
 21
160.10271815700662
  0
LINE
  8
_0-1_
  6
CONTINUOUS
 62
    7
 10
192.68461598971578
 20
160.10271815700662
 11
192.33461608508321
 21
159.75271777553689
  0
LINE
  8
_0-1_
  6
CONTINUOUS
 62
    7
 10
197.33461608508321
 20
159.75271777553689
 11
192.33461608508321
 21
159.75271777553689
  0
LINE
  8
_0-1_
  6
CONTINUOUS
 62
    7
 10
194.45933841684553
 20
151.40271834774148
 11
195.2098937533209
 21
150.10271815700662
  0
LINE
  8
_0-1_
  6
CONTINUOUS
 62
    7
 10
197.9896670850834
 20
159.26411834774132
 11
197.11600308508321
 21
159.5821083477411
  0
LINE
  8
_0-1_
  6
CONTINUOUS
 62
    7
 10
196.43196308508311
 20
159.70271834774127
 11
193.2372700850832
 21
159.70271834774127
  0
LINE
  8
_0-1_
  6
CONTINUOUS
 62
    7
 10
192.5532300850831
 20
159.5821083477411
 11
191.67956608508337
 21
159.26411834774132
  0
ARC
  8
_0-1_
  6
CONTINUOUS
 62
    7
 10
196.43196308508311
 20
157.70271834774127
 40
2
 50
69.999999999999972
 51
90
  0
ARC
  8
_0-1_
  6
CONTINUOUS
 62
    7
 10
193.2372700850832
 20
157.70271834774127
 40
2
 50
90
 51
110
  0
ARC
  8
_0-1_
  6
CONTINUOUS
 62
    7
 10
197.13461608508339
 20
156.91488834774105
 40
2.5
 50
348.17822799457855
 51
69.999999999999929
  0
LINE
  8
_0-1_
  6
CONTINUOUS
 62
    7
 10
198.40615399187561
 20
156.40271834774109
 11
199.58159011255077
 21
156.40271834774109
  0
ARC
  8
_0-1_
  6
CONTINUOUS
 62
    7
 10
192.53461608508348
 20
156.91488834774105
 40
2.5
 50
110.00000000000003
 51
191.82177200542145
  0
LINE
  8
_0-1_
  6
CONTINUOUS
 62
    7
 10
190.08764205761611
 20
156.40271834774109
 11
191.26307917829121
 21
156.40271834774109
  0
LINE
  8
_0-1_
  6
CONTINUOUS
 62
    7
 10
191.58461499187553
 20
155.20271834774127
 11
191.26307917829121
 21
156.40271834774109
  0
LINE
  8
_0-1_
  6
CONTINUOUS
 62
    7
 10
198.40615399187561
 20
156.40271834774109
 11
198.08461817829118
 21
155.20271834774127
  0
LINE
  8
_0-1_
  6
CONTINUOUS
 62
    7
 10
191.58461499187553
 20
155.20271834774127
 11
198.08461817829118
 21
155.20271834774127
  0
LINE
  8
_0-1_
  6
CONTINUOUS
 62
    7
 10
192.33461608508321
 20
159.75271777553689
 11
192.33461608508321
 21
159.50253878111141
  0
LINE
  8
_0-1_
  6
CONTINUOUS
 62
    7
 10
192.33461608508321
 20
155.20271834774127
 11
192.33461608508321
 21
154.6027183477413
  0
LINE
  8
_0-1_
  6
CONTINUOUS
 62
    7
 10
192.68461598971578
 20
154.6027183477413
 11
192.68461598971578
 21
155.20271834774127
  0
LINE
  8
_0-1_
  6
CONTINUOUS
 62
    7
 10
192.68461598971578
 20
159.62484567205502
 11
192.68461598971578
 21
160.10271815700662
  0
LINE
  8
_0-1_
  6
CONTINUOUS
 62
    7
 10
196.98461618045064
 20
154.6027183477413
 11
196.98461618045064
 21
155.20271834774127
  0
LINE
  8
_0-1_
  6
CONTINUOUS
 62
    7
 10
196.98461618045064
 20
159.62484595957682
 11
196.98461618045064
 21
160.10271815700662
  0
LINE
  8
_0-1_
  6
CONTINUOUS
 62
    7
 10
197.33461608508321
 20
159.75271777553689
 11
197.33461608508321
 21
159.50253914508431
  0
LINE
  8
_0-1_
  6
CONTINUOUS
 62
    7
 10
197.33461608508321
 20
155.20271834774127
 11
197.33461608508321
 21
154.6027183477413
  0
LINE
  8
_0-1_
  6
CONTINUOUS
 62
    7
 10
238.83461608508321
 20
159.70271834774127
 11
238.83461608508321
 21
155.20271834774127
  0
LINE
  8
_0-1_
  6
CONTINUOUS
 62
    7
 10
231.33461608508321
 20
159.75271777553689
 11
231.33461608508321
 21
159.70271834774127
  0
LINE
  8
_0-1_
  6
CONTINUOUS
 62
    7
 10
231.33461608508321
 20
155.20271834774127
 11
231.33461608508321
 21
154.6027183477413
  0
LINE
  8
_0-1_
  6
CONTINUOUS
 62
    7
 10
231.68461598971578
 20
154.6027183477413
 11
231.68461598971578
 21
155.20271834774127
  0
LINE
  8
_0-1_
  6
CONTINUOUS
 62
    7
 10
231.68461598971578
 20
159.70271834774127
 11
231.68461598971578
 21
160.10271815700662
  0
LINE
  8
_0-1_
  6
CONTINUOUS
 62
    7
 10
235.98461618045064
 20
154.6027183477413
 11
235.98461618045064
 21
155.20271834774127
  0
LINE
  8
_0-1_
  6
CONTINUOUS
 62
    7
 10
235.98461618045064
 20
159.70271834774127
 11
235.98461618045064
 21
160.10271815700662
  0
LINE
  8
_0-1_
  6
CONTINUOUS
 62
    7
 10
236.33461608508321
 20
159.75271777553689
 11
236.33461608508321
 21
159.70271834774127
  0
LINE
  8
_0-1_
  6
CONTINUOUS
 62
    7
 10
236.33461608508321
 20
155.20271834774127
 11
236.33461608508321
 21
154.6027183477413
  0
LINE
  8
_0-1_
  6
CONTINUOUS
 62
    7
 10
215.98461618045064
 20
160.10271815700662
 11
211.68461598971578
 21
160.10271815700662
  0
LINE
  8
_0-1_
  6
CONTINUOUS
 62
    7
 10
211.33461608508321
 20
159.75271777553689
 11
211.68461598971578
 21
160.10271815700662
  0
LINE
  8
_0-1_
  6
CONTINUOUS
 62
    7
 10
215.98461618045064
 20
160.10271815700662
 11
216.33461608508321
 21
159.75271777553689
  0
LINE
  8
_0-1_
  6
CONTINUOUS
 62
    7
 10
211.33461608508321
 20
159.75271777553689
 11
216.33461608508321
 21
159.75271777553689
  0
LINE
  8
_0-1_
  6
CONTINUOUS
 62
    7
 10
216.33461608508321
 20
159.75271777553689
 11
216.33461608508321
 21
159.70271834774127
  0
LINE
  8
_0-1_
  6
CONTINUOUS
 62
    7
 10
216.33461608508321
 20
155.20271834774127
 11
216.33461608508321
 21
154.6027183477413
  0
LINE
  8
_0-1_
  6
CONTINUOUS
 62
    7
 10
215.98461618045064
 20
154.6027183477413
 11
215.98461618045064
 21
155.20271834774127
  0
LINE
  8
_0-1_
  6
CONTINUOUS
 62
    7
 10
215.98461618045064
 20
159.70271834774127
 11
215.98461618045064
 21
160.10271815700662
  0
LINE
  8
_0-1_
  6
CONTINUOUS
 62
    7
 10
211.68461598971578
 20
154.6027183477413
 11
211.68461598971578
 21
155.20271834774127
  0
LINE
  8
_0-1_
  6
CONTINUOUS
 62
    7
 10
211.68461598971578
 20
159.70271834774127
 11
211.68461598971578
 21
160.10271815700662
  0
LINE
  8
_0-1_
  6
CONTINUOUS
 62
    7
 10
211.33461608508321
 20
159.75271777553689
 11
211.33461608508321
 21
159.70271834774127
  0
LINE
  8
_0-1_
  6
CONTINUOUS
 62
    7
 10
211.33461608508321
 20
155.20271834774127
 11
211.33461608508321
 21
154.6027183477413
  0
LINE
  8
_0-1_
  6
CONTINUOUS
 62
    7
 10
208.83461608508321
 20
159.70271834774127
 11
238.83461608508321
 21
159.70271834774127
  0
LINE
  8
_0-1_
  6
CONTINUOUS
 62
    7
 10
208.83461608508321
 20
156.40271834774126
 11
238.83461608508321
 21
156.40271834774126
  0
LINE
  8
_0-1_
  6
CONTINUOUS
 62
    7
 10
208.83461608508321
 20
155.20271834774127
 11
238.83461608508321
 21
155.20271834774127
  0
LINE
  8
_0-1_
  6
CONTINUOUS
 62
    7
 10
208.83461608508321
 20
159.70271834774127
 11
208.83461608508321
 21
155.20271834774127
  0
LINE
  8
_0-1_
  6
CONTINUOUS
 62
    7
 10
212.6203303537676
 20
145.60271815700662
 11
212.6203303537676
 21
150.10271815700662
  0
LINE
  8
_0-1_
  6
CONTINUOUS
 62
    7
 10
212.01318754771444
 20
145.60271815700662
 11
212.01318754771444
 21
150.10271815700662
  0
LINE
  8
_0-1_
  6
CONTINUOUS
 62
    7
 10
210.79890169718954
 20
145.60271815700662
 11
210.79890169718954
 21
150.10271815700662
  0
LINE
  8
_0-1_
  6
CONTINUOUS
 62
    7
 10
210.19175901034566
 20
145.60271815700662
 11
210.19175901034566
 21
150.10271815700662
  0
LINE
  8
_0-1_
  6
CONTINUOUS
 62
    7
 10
211.40604462245199
 20
145.60271815700662
 11
211.40604462245199
 21
150.10271815700662
  0
LINE
  8
_0-1_
  6
CONTINUOUS
 62
    7
 10
218.08461608508321
 20
145.60271815700662
 11
217.58461608508321
 21
145.10271815700662
  0
LINE
  8
_0-1_
  6
CONTINUOUS
 62
    7
 10
210.08461608508321
 20
145.10271815700662
 11
217.58461608508321
 21
145.10271815700662
  0
LINE
  8
_0-1_
  6
CONTINUOUS
 62
    7
 10
210.08461608508321
 20
145.10271815700662
 11
209.58461608508321
 21
145.60271815700662
  0
LINE
  8
_0-1_
  6
CONTINUOUS
 62
    7
 10
218.08461608508321
 20
145.60271815700662
 11
209.58461608508321
 21
145.60271815700662
  0
LINE
  8
_0-1_
  6
CONTINUOUS
 62
    7
 10
218.08461608508321
 20
150.10271815700662
 11
209.58461608508321
 21
150.10271815700662
  0
LINE
  8
_0-1_
  6
CONTINUOUS
 62
    7
 10
218.08461608508321
 20
145.60271815700662
 11
218.08461608508321
 21
151.40271834774148
  0
LINE
  8
_0-1_
  6
CONTINUOUS
 62
    7
 10
209.58461608508321
 20
145.60271815700662
 11
209.58461608508321
 21
151.40271834774148
  0
LINE
  8
_0-1_
  6
CONTINUOUS
 62
    7
 10
213.45933841684553
 20
151.40271834774148
 11
214.2098937533209
 21
150.10271815700662
  0
LINE
  8
_0-1_
  6
CONTINUOUS
 62
    7
 10
220.13461608508339
 20
154.6027183477413
 11
220.13461608508339
 21
155.20271834774127
  0
LINE
  8
_0-1_
  6
CONTINUOUS
 62
    7
 10
220.13461608508339
 20
159.70271834774127
 11
220.13461608508339
 21
186.09477191118845
  0
LINE
  8
_0-0_
  6
CONTINUOUS
 62
    7
 10
220.83461608508321
 20
185.3947719111884
 11
220.83461608508321
 21
159.70271834774127
  0
LINE
  8
_0-0_
  6
CONTINUOUS
 62
    7
 10
220.83461608508321
 20
155.20271834774127
 11
220.83461608508321
 21
154.6027183477413
  0
LINE
  8
_0-1_
  6
CONTINUOUS
 62
    7
 10
211.53460608508328
 20
186.09477191118845
 11
211.53460608508328
 21
159.9527080480018
  0
LINE
  8
_0-0_
  6
CONTINUOUS
 62
    7
 10
210.83461608508321
 20
154.6027183477413
 11
210.83461608508321
 21
155.20271834774127
  0
LINE
  8
_0-0_
  6
CONTINUOUS
 62
    7
 10
210.83461608508321
 20
159.70271834774127
 11
210.83461608508321
 21
185.3947719111884
  0
LINE
  8
_0-1_
  6
CONTINUOUS
 62
    7
 10
66.929530171414513
 20
46.858328974772576
 11
66.929530171414513
 21
49.167730010081414
  0
LINE
  8
_0-1_
  6
CONTINUOUS
 62
    7
 10
66.929530171414513
 20
49.167730010081414
 11
64.929530171414513
 21
50.322430527735833
  0
LINE
  8
_0-1_
  6
CONTINUOUS
 62
    7
 10
64.929530171414513
 20
50.322430527735833
 11
62.929530171414513
 21
49.167730010081414
  0
LINE
  8
_0-1_
  6
CONTINUOUS
 62
    7
 10
62.929530171414513
 20
49.167730010081414
 11
62.929530171414513
 21
46.858328974772576
  0
LINE
  8
_0-1_
  6
CONTINUOUS
 62
    7
 10
62.929530171414513
 20
46.858328974772576
 11
64.929530171414513
 21
45.703628457118157
  0
LINE
  8
_0-1_
  6
CONTINUOUS
 62
    7
 10
64.929530171414513
 20
45.703628457118157
 11
66.929530171414513
 21
46.858328974772576
  0
ARC
  8
_0-1_
  6
CONTINUOUS
 62
    7
 10
64.929530171414513
 20
48.013029492426995
 40
4.25
 50
277.15194817718543
 51
181.64546253280557
  0
LINE
  8
_0-1_
  6
CONTINUOUS
 62
    7
 10
27.084230689068931
 20
7.0130294924269947
 11
24.774829653760094
 21
7.0130294924269947
  0
LINE
  8
_0-1_
  6
CONTINUOUS
 62
    7
 10
24.774829653760094
 20
7.0130294924269947
 11
23.620129136105675
 21
9.0130294924269947
  0
LINE
  8
_0-1_
  6
CONTINUOUS
 62
    7
 10
23.620129136105675
 20
9.0130294924269947
 11
24.774829653760094
 21
11.013029492426995
  0
LINE
  8
_0-1_
  6
CONTINUOUS
 62
    7
 10
24.774829653760094
 20
11.013029492426995
 11
27.084230689068931
 21
11.013029492426995
  0
LINE
  8
_0-1_
  6
CONTINUOUS
 62
    7
 10
27.084230689068931
 20
11.013029492426995
 11
28.23893120672335
 21
9.0130294924269947
  0
LINE
  8
_0-1_
  6
CONTINUOUS
 62
    7
 10
28.23893120672335
 20
9.0130294924269947
 11
27.084230689068931
 21
7.0130294924269947
  0
ARC
  8
_0-1_
  6
CONTINUOUS
 62
    7
 10
25.929530171414513
 20
9.0130294924269947
 40
4.2499999999999991
 50
88.354537467194419
 51
352.84805182281468
  0
LINE
  8
_0-0_
  6
CONTINUOUS
 62
    7
 10
190.83461608508321
 20
54.013029492426995
 11
236.83461608508321
 21
54.013029492426995
  0
LINE
  8
_0-0_
  6
CONTINUOUS
 62
    7
 10
236.83461608508321
 20
54.013029492426995
 11
238.83461608508321
 21
52.013029492426995
  0
LINE
  8
_0-0_
  6
CONTINUOUS
 62
    7
 10
238.83461608508321
 20
52.013029492426995
 11
238.83461608508321
 21
29.013029492426995
  0
LINE
  8
_0-0_
  6
CONTINUOUS
 62
    7
 10
238.83461608508321
 20
29.013029492426995
 11
235.80826374583137
 21
25.986677153175151
  0
LINE
  8
_0-0_
  6
CONTINUOUS
 62
    7
 10
216.86096842433506
 20
7.0393818316788384
 11
213.83461608508321
 21
4.0130294924269947
  0
LINE
  8
_0-0_
  6
CONTINUOUS
 62
    7
 10
213.83461608508321
 20
4.0130294924269947
 11
190.83461608508321
 21
4.0130294924269947
  0
LINE
  8
_0-0_
  6
CONTINUOUS
 62
    7
 10
190.83461608508321
 20
4.0130294924269947
 11
188.83461608508321
 21
6.0130294924269947
  0
LINE
  8
_0-0_
  6
CONTINUOUS
 62
    7
 10
188.83461608508321
 20
6.0130294924269947
 11
188.83461608508321
 21
52.013029492426995
  0
LINE
  8
_0-0_
  6
CONTINUOUS
 62
    7
 10
188.83461608508321
 20
52.013029492426995
 11
190.83461608508321
 21
54.013029492426995
  0
CIRCLE
  8
_0-0_
  6
CONTINUOUS
 62
    7
 10
215.83461608508321
 20
27.013029492426995
 40
8
  0
CIRCLE
  8
_0-0_
  6
CONTINUOUS
 62
    7
 10
215.83461608508321
 20
27.013029492426995
 40
4.3000001907348633
  0
CIRCLE
  8
_0-0_
  6
CONTINUOUS
 62
    7
 10
215.83461608508321
 20
27.013029492426995
 40
20
  0
CIRCLE
  8
_0-0_
  6
CONTINUOUS
 62
    7
 10
215.83461608508321
 20
27.013029492426995
 40
18
  0
LINE
  8
_0-1_
  6
CONTINUOUS
 62
    7
 10
215.83461608508321
 20
49.167730010081414
 11
213.83461608508321
 21
50.322430527735833
  0
LINE
  8
_0-1_
  6
CONTINUOUS
 62
    7
 10
213.83461608508321
 20
50.322430527735833
 11
211.83461608508321
 21
49.167730010081414
  0
LINE
  8
_0-1_
  6
CONTINUOUS
 62
    7
 10
211.83461608508321
 20
49.167730010081414
 11
211.83461608508321
 21
46.858328974772576
  0
LINE
  8
_0-1_
  6
CONTINUOUS
 62
    7
 10
235.83461608508321
 20
46.858328974772576
 11
235.83461608508321
 21
49.167730010081414
  0
LINE
  8
_0-1_
  6
CONTINUOUS
 62
    7
 10
235.83461608508321
 20
49.167730010081414
 11
233.83461608508321
 21
50.322430527735833
  0
LINE
  8
_0-1_
  6
CONTINUOUS
 62
    7
 10
233.83461608508321
 20
50.322430527735833
 11
231.83461608508321
 21
49.167730010081414
  0
LINE
  8
_0-1_
  6
CONTINUOUS
 62
    7
 10
231.83461608508321
 20
49.167730010081414
 11
231.83461608508321
 21
46.858328974772576
  0
LINE
  8
_0-1_
  6
CONTINUOUS
 62
    7
 10
231.83461608508321
 20
46.858328974772576
 11
233.83461608508321
 21
45.703628457118157
  0
LINE
  8
_0-1_
  6
CONTINUOUS
 62
    7
 10
233.83461608508321
 20
45.703628457118157
 11
235.83461608508321
 21
46.858328974772576
  0
LINE
  8
_0-1_
  6
CONTINUOUS
 62
    7
 10
195.98931660273763
 20
31.013029492426995
 11
193.67991556742879
 21
31.013029492426995
  0
LINE
  8
_0-1_
  6
CONTINUOUS
 62
    7
 10
193.67991556742879
 20
31.013029492426995
 11
192.52521504977437
 21
29.013029492426995
  0
LINE
  8
_0-1_
  6
CONTINUOUS
 62
    7
 10
192.52521504977437
 20
29.013029492426995
 11
193.67991556742879
 21
27.013029492426995
  0
LINE
  8
_0-1_
  6
CONTINUOUS
 62
    7
 10
195.98931660273763
 20
11.013029492426995
 11
193.67991556742879
 21
11.013029492426995
  0
LINE
  8
_0-1_
  6
CONTINUOUS
 62
    7
 10
193.67991556742879
 20
11.013029492426995
 11
192.52521504977437
 21
9.0130294924269947
  0
LINE
  8
_0-1_
  6
CONTINUOUS
 62
    7
 10
192.52521504977437
 20
9.0130294924269947
 11
193.67991556742879
 21
7.0130294924269947
  0
LINE
  8
_0-1_
  6
CONTINUOUS
 62
    7
 10
193.67991556742879
 20
7.0130294924269947
 11
195.98931660273763
 21
7.0130294924269947
  0
LINE
  8
_0-1_
  6
CONTINUOUS
 62
    7
 10
195.98931660273763
 20
7.0130294924269947
 11
197.14401712039205
 21
9.0130294924269947
  0
LINE
  8
_0-1_
  6
CONTINUOUS
 62
    7
 10
197.14401712039205
 20
9.0130294924269947
 11
195.98931660273763
 21
11.013029492426995
  0
ARC
  8
_0-1_
  6
CONTINUOUS
 62
    7
 10
213.83461608508321
 20
48.013029492426995
 40
4.25
 50
344.84900776576302
 51
206.03165629624789
  0
LINE
  8
_0-1_
  6
CONTINUOUS
 62
    7
 10
211.83461608508321
 20
46.858328974772576
 11
212.1572617262338
 21
46.672049430344828
  0
LINE
  8
_0-1_
  6
CONTINUOUS
 62
    7
 10
215.83461608508321
 20
47.013029492426995
 11
215.83461608508321
 21
49.167730010081414
  0
CIRCLE
  8
_0-1_
  6
CONTINUOUS
 62
    7
 10
233.83461608508321
 20
48.013029492426995
 40
4.25
  0
CIRCLE
  8
_0-1_
  6
CONTINUOUS
 62
    7
 10
194.83461608508321
 20
9.0130294924269947
 40
4.25
  0
ARC
  8
_0-1_
  6
CONTINUOUS
 62
    7
 10
194.83461608508321
 20
29.013029492426995
 40
4.25
 50
63.968343703752062
 51
285.15099223423692
  0
LINE
  8
_0-1_
  6
CONTINUOUS
 62
    7
 10
196.17559614716538
 20
30.690383851276408
 11
195.98931660273763
 21
31.013029492426995
  0
LINE
  8
_0-1_
  6
CONTINUOUS
 62
    7
 10
193.67991556742879
 20
27.013029492426995
 11
195.83461608508321
 21
27.013029492426995
  0
TEXT
  8
_0-e_
 62
    7
 10
4.5530347876195947
 20
68.931226627821957
 40
5
 41
1
 50
0
  1
LS25-M12
  0
TEXT
  8
_0-e_
 62
    7
 10
166.13907802972051
 20
69.61398455701385
 40
5
 41
1
 50
0
  1
LS25-M10
  0
LINE
  8
_0-1_
  6
CENTER1
 62
  152
 10
215.83461608508321
 20
246.76047438818432
 11
215.83461608508321
 21
228.76047438818432
  0
LINE
  8
_0-1_
  6
CENTER1
 62
  152
 10
213.83461608508321
 20
219.36047438818468
 11
213.83461608508321
 21
214.16047438818441
  0
LINE
  8
_0-1_
  6
CENTER1
 62
  152
 10
216.43461608508312
 20
216.76047438818432
 11
211.23461608508308
 21
216.76047438818432
  0
LINE
  8
_0-1_
  6
CENTER1
 62
  152
 10
231.23461608508285
 20
216.76047438818432
 11
236.43461608508312
 21
216.76047438818432
  0
LINE
  8
_0-1_
  6
CENTER1
 62
  152
 10
233.83461608508321
 20
214.16047438818441
 11
233.83461608508321
 21
219.36047438818468
  0
LINE
  8
_0-1_
  6
CENTER1
 62
  152
 10
224.83461608508321
 20
237.76047438818432
 11
206.83461608508321
 21
237.76047438818432
  0
LINE
  8
_0-1_
  6
CENTER1
 62
  152
 10
197.43461608508312
 20
235.76047438818432
 11
192.23461608508308
 21
235.76047438818432
  0
LINE
  8
_0-1_
  6
CENTER1
 62
  152
 10
194.83461608508321
 20
238.36047438818423
 11
194.83461608508321
 21
233.16047438818441
  0
LINE
  8
_0-1_
  6
CENTER1
 62
  152
 10
194.83461608508321
 20
253.16047438818441
 11
194.83461608508321
 21
258.36047438818446
  0
LINE
  8
_0-1_
  6
CENTER1
 62
  152
 10
197.43461608508312
 20
255.76047438818432
 11
192.23461608508308
 21
255.76047438818432
  0
LINE
  8
_0-1_
  6
CENTER1
 62
  152
 10
46.929530171414513
 20
36.013029492426995
 11
46.929530171414513
 21
18.013029492426995
  0
LINE
  8
_0-1_
  6
CENTER1
 62
  152
 10
55.929530171414513
 20
27.013029492426995
 11
37.929530171414513
 21
27.013029492426995
  0
LINE
  8
_0-1_
  6
CENTER1
 62
  152
 10
44.929530171414513
 20
214.22148402516405
 11
44.929530171414513
 21
219.42148402516432
  0
LINE
  8
_0-1_
  6
CENTER1
 62
  152
 10
47.529530171414422
 20
216.82148402516395
 11
42.329530171414376
 21
216.82148402516395
  0
LINE
  8
_0-1_
  6
CENTER1
 62
  152
 10
46.929530171414513
 20
228.82148402516395
 11
46.929530171414513
 21
246.82148402516395
  0
LINE
  8
_0-1_
  6
CENTER1
 62
  152
 10
37.929530171414513
 20
237.82148402516395
 11
55.929530171414513
 21
237.82148402516395
  0
LINE
  8
_0-1_
  6
CENTER1
 62
  152
 10
62.329530171414149
 20
216.82148402516395
 11
67.529530171414422
 21
216.82148402516395
  0
LINE
  8
_0-1_
  6
CENTER1
 62
  152
 10
64.929530171414513
 20
214.22148402516405
 11
64.929530171414513
 21
219.42148402516432
  0
LINE
  8
_0-1_
  6
CENTER1
 62
  152
 10
28.529530171414422
 20
235.82148402516395
 11
23.329530171414376
 21
235.82148402516395
  0
LINE
  8
_0-1_
  6
CENTER1
 62
  152
 10
25.929530171414513
 20
238.42148402516386
 11
25.929530171414513
 21
233.22148402516405
  0
LINE
  8
_0-1_
  6
CENTER1
 62
  152
 10
25.929530171414513
 20
253.22148402516405
 11
25.929530171414513
 21
258.42148402516409
  0
LINE
  8
_0-1_
  6
CENTER1
 62
  152
 10
28.529530171414422
 20
255.82148402516395
 11
23.329530171414376
 21
255.82148402516395
  0
CIRCLE
  8
_0-1_
  6
CONTINUOUS
 62
  152
 10
46.929530171414513
 20
237.82148402516395
 40
6.0000000000000009
  0
CIRCLE
  8
_0-1_
  6
CONTINUOUS
 62
  152
 10
46.929530171414513
 20
27.013029492426995
 40
6.0000000000000009
  0
LINE
  8
_0-1_
  6
CENTER1
 62
  152
 10
87.475929242884717
 20
237.82148402516395
 11
107.47592924288472
 21
237.82148402516395
  0
LINE
  8
_0-1_
  6
CENTER1
 62
  152
 10
273.62912713807179
 20
237.76047438818432
 11
253.62912713807179
 21
237.76047438818432
  0
LINE
  8
_0-1_
  6
CENTER1
 62
  152
 10
64.929530171414513
 20
162.00381221901
 11
64.929530171414513
 21
142.69964977052985
  0
LINE
  8
_0-1_
  6
CENTER1
 62
  152
 10
25.929530171414513
 20
162.00381221901
 11
25.929530171414513
 21
142.69964977052985
  0
LINE
  8
_0-1_
  6
CENTER1
 62
  152
 10
44.929530171414513
 20
162.00381221901
 11
44.929530171414513
 21
142.69964977052985
  0
LINE
  8
_0-1_
  6
CENTER1
 62
  152
 10
46.929530171414513
 20
181.59477191118845
 11
46.929530171414513
 21
160.10271815700662
  0
LINE
  8
_0-1_
  6
CENTER1
 62
  152
 10
46.929530171414513
 20
145.10271815700662
 11
46.929530171414513
 21
86.094771911188445
  0
LINE
  8
_0-1_
  6
CENTER1
 62
  152
 10
233.83461608508321
 20
162.00381221901
 11
233.83461608508321
 21
142.69964977052985
  0
LINE
  8
_0-1_
  6
CENTER1
 62
  152
 10
194.83461608508321
 20
162.00381221901
 11
194.83461608508321
 21
142.69964977052985
  0
LINE
  8
_0-1_
  6
CENTER1
 62
  152
 10
213.83461608508321
 20
162.00381221901
 11
213.83461608508321
 21
142.69964977052985
  0
LINE
  8
_0-1_
  6
CENTER1
 62
  152
 10
215.83461608508321
 20
186.09477191118845
 11
215.83461608508321
 21
160.10271815700662
  0
LINE
  8
_0-1_
  6
CENTER1
 62
  152
 10
215.83461608508321
 20
145.10271815700662
 11
215.83461608508321
 21
86.094771911188445
  0
TEXT
  8
_0-e_
 62
    7
 10
166.13907802972051
 20
269.94785336767404
 40
5
 41
1
 50
0
  1
LP25-M10
  0
TEXT
  8
_0-e_
 62
    7
 10
4.5530347876195947
 20
269.26509543848215
 40
5
 41
1
 50
0
  1
LP25-M12
  0
LINE
  8
_0-1_
  6
CENTER1
 62
  152
 10
224.83461608508321
 20
27.013029492426995
 11
206.83461608508321
 21
27.013029492426995
  0
LINE
  8
_0-1_
  6
CENTER1
 62
  152
 10
215.83461608508321
 20
36.013029492426995
 11
215.83461608508321
 21
18.013029492426995
  0
CIRCLE
  8
_0-0_
  6
CONTINUOUS
 62
  152
 10
215.83461608508321
 20
27.013029492426995
 40
5
  0
LINE
  8
_0-1_
  6
CENTER1
 62
  152
 10
25.929530171414513
 20
6.4130294924270856
 11
25.929530171414513
 21
11.613029492427358
  0
LINE
  8
_0-1_
  6
CENTER1
 62
  152
 10
28.529530171414876
 20
9.0130294924269947
 11
23.329530171414604
 21
9.0130294924269947
  0
LINE
  8
_0-1_
  6
CENTER1
 62
  152
 10
64.929530171414513
 20
45.413029492426631
 11
64.929530171414513
 21
50.613029492426904
  0
LINE
  8
_0-1_
  6
CENTER1
 62
  152
 10
67.529530171414422
 20
48.013029492426995
 11
62.329530171414149
 21
48.013029492426995
  0
LINE
  8
_0-1_
  6
CENTER1
 62
  152
 10
197.43461608508312
 20
9.0130294924269947
 11
192.23461608508285
 21
9.0130294924269947
  0
LINE
  8
_0-1_
  6
CENTER1
 62
  152
 10
194.83461608508321
 20
11.613029492426904
 11
194.83461608508321
 21
6.4130294924270856
  0
LINE
  8
_0-1_
  6
CENTER1
 62
  152
 10
194.83461608508321
 20
31.613029492426904
 11
194.83461608508321
 21
26.413029492427086
  0
LINE
  8
_0-1_
  6
CENTER1
 62
  152
 10
197.43461608508312
 20
29.013029492426995
 11
192.23461608508285
 21
29.013029492426995
  0
LINE
  8
_0-1_
  6
CENTER1
 62
  152
 10
213.83461608508321
 20
50.613029492426904
 11
213.83461608508321
 21
45.413029492426631
  0
LINE
  8
_0-1_
  6
CENTER1
 62
  152
 10
216.43461608508312
 20
48.013029492426995
 11
211.23461608508285
 21
48.013029492426995
  0
LINE
  8
_0-1_
  6
CENTER1
 62
  152
 10
231.23461608508285
 20
48.013029492426995
 11
236.43461608508312
 21
48.013029492426995
  0
LINE
  8
_0-1_
  6
CENTER1
 62
  152
 10
233.83461608508321
 20
50.613029492426904
 11
233.83461608508321
 21
45.413029492426631
  0
ENDSEC
  0
EOF
