  0
SECTION
  2
HEADER
  9
$ACADVER
  1
AC1009
  9
$INSBASE
 10
0
 20
0
 30
0
  9
$EXTMIN
 10
0
 20
0
  9
$EXTMAX
 10
1189
 20
841
  9
$LIMMIN
 10
0
 20
0
  9
$LIMMAX
 10
1189
 20
841
  9
$LTSCALE
 40
1
  0
ENDSEC
  0
SECTION
  2
TABLES
  0
TABLE
  2
LTYPE
 70
     9
  0
LTYPE
  2
CONTINUOUS
 70
    64
  3
実線
 72
    65
 73
     0
 40
0.0
  0
LTYPE
  2
DASHED1
 70
    64
  3
--  --  --  --  --  --  --  --  
 72
    65
 73
     2
 40
2.5
 49
1.25
 49
-1.25
  0
LTYPE
  2
DASHED2
 70
    64
  3
----    ----    ----    ----    
 72
    65
 73
     2
 40
5.0
 49
2.5
 49
-2.5
  0
LTYPE
  2
DASHED3
 70
    64
  3
------  ------  ------  ------  
 72
    65
 73
     2
 40
5.0
 49
3.75
 49
-1.25
  0
LTYPE
  2
CENTER1
 70
    64
  3
----- - ----- - ----- - ----- - 
 72
    65
 73
     4
 40
10.0
 49
6.25
 49
-1.25
 49
1.25
 49
-1.25
  0
LTYPE
  2
CENTER2
 70
    64
  3
----------  --  ----------  --  
 72
    65
 73
     4
 40
20.0
 49
12.5
 49
-2.5
 49
2.5
 49
-2.5
  0
LTYPE
  2
PHANTOM1
 70
    64
  3
--- - - --- - - --- - - --- - - 
 72
    65
 73
     6
 40
10.0
 49
3.25
 49
-1.25
 49
1.25
 49
-1.25
 49
1.25
 49
-1.25
  0
LTYPE
  2
PHANTOM2
 70
    64
  3
--------  -  -  --------  -  -  
 72
    65
 73
     6
 40
20.0
 49
10.0
 49
-2.5
 49
1.25
 49
-2.5
 49
1.25
 49
-2.5
  0
LTYPE
  2
DOT
 70
    64
  3
-   -   -   -   -   -   -   -   
 72
    65
 73
     2
 40
2.5
 49
0.625
 49
-1.875
  0
LTYPE
  2
DUMMY
 70
    64
  3
ダミー
 72
    65
 73
     0
 40
0.0
  0
LTYPE
  2
RAND1
 70
    64
  3
ランダム線1
 72
    65
 73
     4
 40
10.0
 49
1.0
 49
-2.0
 49
3.0
 49
-4.0
  0
LTYPE
  2
RAND2
 70
    64
  3
ランダム線2
 72
    65
 73
     4
 40
14.0
 49
2.0
 49
-3.0
 49
4.0
 49
-5.0
  0
LTYPE
  2
RAND3
 70
    64
  3
ランダム線3
 72
    65
 73
     4
 40
18.0
 49
3.0
 49
-4.0
 49
5.0
 49
-6.0
  0
LTYPE
  2
RAND4
 70
    64
  3
ランダム線4
 72
    65
 73
     4
 40
22.0
 49
4.0
 49
-5.0
 49
6.0
 49
-7.0
  0
LTYPE
  2
RAND5
 70
    64
  3
ランダム線5
 72
    65
 73
     4
 40
26.0
 49
5.0
 49
-6.0
 49
7.0
 49
-8.0
  0
LTYPE
  2
LONG1
 70
    64
  3
----------  --  ----------  --  
 72
    65
 73
     4
 40
40.0
 49
32.5
 49
-2.5
 49
2.5
 49
-2.5
  0
LTYPE
  2
LONG2
 70
    64
  3
--------  -  -  --------  -  -  
 72
    65
 73
     6
 40
40.0
 49
30.0
 49
-2.5
 49
1.25
 49
-2.5
 49
1.25
 49
-2.5
  0
LTYPE
  2
LONG3
 70
    64
  3
+++++++++++++++..+++++++++++++++
 72
    65
 73
     2
 40
40.0
 49
37.5
 49
-2.5
  0
LTYPE
  2
LONG4
 70
    64
  3
+++++++++++++++..+++++++++++++++
 72
    65
 73
     2
 40
80.0
 49
75.0
 49
-5.0
  0
LTYPE
  2
LONG5
 70
    64
  3
----------  --  ----------  --  
 72
    65
 73
     4
 40
60.0
 49
37.5
 49
-7.5
 49
7.5
 49
-7.5
  0
LTYPE
  2
dashed
 70
   64
  3
-------   -------------   ------
 72
   65
 73
    2
 40
7.5
 49
6
 49
-1.5
  0
LTYPE
  2
dashed_spaced
 70
   64
  3
----        --------        ----
 72
   65
 73
    2
 40
12
 49
6
 49
-6
  0
LTYPE
  2
long_dashed_dotted
 70
   64
  3
------------- --- --------------
 72
   65
 73
    4
 40
15.25
 49
12
 49
-1.5
 49
0.25
 49
-1.5
  0
LTYPE
  2
long_dashed_double-dotted
 70
   64
  3
----------- --- --- ------------
 72
   65
 73
    6
 40
17
 49
12
 49
-1.5
 49
0.25
 49
-1.5
 49
0.25
 49
-1.5
  0
LTYPE
  2
long_dashed_triplicate-dotted
 70
   64
  3
--------- --- --- --- ----------
 72
   65
 73
    8
 40
18.75
 49
12
 49
-1.5
 49
0.25
 49
-1.5
 49
0.25
 49
-1.5
 49
0.25
 49
-1.5
  0
LTYPE
  2
dotted
 70
   64
  3
   -       -       -       -    
 72
   65
 73
    2
 40
1.75
 49
0.25
 49
-1.5
  0
LTYPE
  2
chain
 70
   64
  3
-------------- -- --------------
 72
   65
 73
    4
 40
18.5
 49
12
 49
-1.5
 49
3.5
 49
-1.5
  0
LTYPE
  2
chain_double_dash
 70
   64
  3
------------ -- -- -------------
 72
   65
 73
    6
 40
23.5
 49
12
 49
-1.5
 49
3.5
 49
-1.5
 49
3.5
 49
-1.5
  0
LTYPE
  2
dashed_dotted
 70
   64
  3
-----------     -     ----------
 72
   65
 73
    4
 40
9.25
 49
6
 49
-1.5
 49
0.25
 49
-1.5
  0
LTYPE
  2
double-dashed_dotted
 70
   64
  3
------   -----------   -   -----
 72
   65
 73
    6
 40
16.75
 49
6
 49
-1.5
 49
6
 49
-1.5
 49
0.25
 49
-1.5
  0
LTYPE
  2
dashed_double-dotted
 70
   64
  3
---------    -    -    ---------
 72
   65
 73
    6
 40
11
 49
6
 49
-1.5
 49
0.25
 49
-1.5
 49
0.25
 49
-1.5
  0
LTYPE
  2
double-dashed_double-dotted
 70
   64
  3
-----   ---------   -   -   ----
 72
   65
 73
    8
 40
18.5
 49
6
 49
-1.5
 49
6
 49
-1.5
 49
0.25
 49
-1.5
 49
0.25
 49
-1.5
  0
LTYPE
  2
dashed_triplicate-dotted
 70
   64
  3
-------    -    -    -    ------
 72
   65
 73
    8
 40
12.75
 49
6
 49
-1.5
 49
0.25
 49
-1.5
 49
0.25
 49
-1.5
 49
0.25
 49
-1.5
  0
LTYPE
  2
double-dashed_triplicate-dotted
 70
   64
  3
-----  ---------  -  -  -  -----
 72
   65
 73
   10
 40
20.25
 49
6
 49
-1.5
 49
6
 49
-1.5
 49
0.25
 49
-1.5
 49
0.25
 49
-1.5
 49
0.25
 49
-1.5
  0
LTYPE
  2
undefined
 70
   64
  3
--------------------------------
 72
   65
 73
    0
 40
0
  0
ENDTAB
  0
TABLE
  2
STYLE
  5
3
100
AcDbSymbolTable
 70
     1
  0
STYLE
  5
10
100
AcDbSymbolTableRecord
100
AcDbTextStyleTableRecord
  2
STANDARD
 70
     0
 40
0.0
 41
1.0
 50
0.0
 71
     0
 42
0.2
  3
txt
  4
bigfont.shx
  0
STYLE
  5
26
100
AcDbSymbolTableRecord
100
AcDbTextStyleTableRecord
  2
TATEGAKI
 70
    68
 40
0.0
 41
1.0
 50
0.0
 71
     0
 42
1.0
  3
txt
  4
bigfont.shx
  0
ENDTAB
  0
TABLE
  2
LAYER
 70
    7
  0
LAYER
  2
_0-0_
 70
   64
 62
    7
  6
CONTINUOUS
  0
LAYER
  2
_0-1_
 70
   64
 62
    7
  6
CONTINUOUS
  0
LAYER
  2
_0-2_
 70
   64
 62
    7
  6
CONTINUOUS
  0
LAYER
  2
_0-3_
 70
   64
 62
    7
  6
CONTINUOUS
  0
LAYER
  2
_0-e_
 70
   64
 62
    7
  6
CONTINUOUS
  0
LAYER
  2
_f-f_ADD_LINE
 70
   64
 62
    7
  6
CONTINUOUS
  0
LAYER
  2
ADD_LINE
 70
   64
 62
    7
  6
CONTINUOUS
  0
ENDTAB
  0
ENDSEC
  0
SECTION
  2
BLOCKS
  0
ENDSEC
  0
SECTION
  2
ENTITIES
  0
TEXT
  8
_0-e_
 62
    7
 10
147.41804046806158
 20
165.42172251472817
 40
5
 41
1
 50
0
  1
LA40-L60
  0
TEXT
  8
_0-e_
 62
    7
 10
148.41235740616736
 20
255.72171688445002
 40
5
 41
1
 50
0
  1
LA40-L30
  0
LINE
  8
_0-0_
  6
CONTINUOUS
 62
    7
 10
144.37419295909694
 20
48.729616717970828
 11
211.37419295909694
 21
48.729616717970828
  0
LINE
  8
_0-0_
  6
CONTINUOUS
 62
    7
 10
212.37419295909694
 20
47.729616717970828
 11
212.37419295909694
 21
47.669126717970528
  0
LINE
  8
_0-0_
  6
CONTINUOUS
 62
    7
 10
210.93590521420583
 20
46.170396723085048
 11
185.87419295909694
 21
45.13844671797068
  0
LINE
  8
_0-0_
  6
CONTINUOUS
 62
    7
 10
185.87419295909694
 20
47.229616717970828
 11
185.87419295909694
 21
33.829616717970737
  0
LINE
  8
_0-0_
  6
CONTINUOUS
 62
    7
 10
185.87419295909694
 20
33.829616717970737
 11
139.87419295909694
 21
33.829616717970737
  0
LINE
  8
_0-0_
  6
CONTINUOUS
 62
    7
 10
139.37419295909694
 20
34.329616717970282
 11
139.37419295909694
 21
34.945956717970773
  0
LINE
  8
_0-0_
  6
CONTINUOUS
 62
    7
 10
139.74478343654573
 20
35.42891963111532
 11
142.87419295909694
 21
36.267446717970586
  0
LINE
  8
_0-0_
  6
CONTINUOUS
 62
    7
 10
142.87419295909694
 20
33.829616717970737
 11
142.87419295909694
 21
47.229616717970828
  0
LINE
  8
_0-0_
  6
CONTINUOUS
 62
    7
 10
167.47419295909685
 20
48.729616717970828
 11
167.97419295909685
 21
49.229616717970373
  0
LINE
  8
_0-0_
  6
CONTINUOUS
 62
    7
 10
167.97419295909685
 20
49.229616717970373
 11
176.77419295909658
 21
49.229616717970373
  0
LINE
  8
_0-0_
  6
CONTINUOUS
 62
    7
 10
176.77419295909658
 20
49.229616717970373
 11
177.27419295909658
 21
48.729616717970828
  0
ARC
  8
_0-0_
  6
CONTINUOUS
 62
    7
 10
210.87419295909694
 20
47.669126717970528
 40
1.5000000000000002
 50
272.35789999999997
 51
0.0000000000000254
  0
ARC
  8
_0-0_
  6
CONTINUOUS
 62
    7
 10
139.87419295909694
 20
34.329616717970282
 40
0.5
 50
180
 51
270
  0
ARC
  8
_0-0_
  6
CONTINUOUS
 62
    7
 10
139.87419295909694
 20
34.945956717970773
 40
0.5
 50
105.00000000000001
 51
180
  0
ARC
  8
_0-0_
  6
CONTINUOUS
 62
    7
 10
144.37419295909694
 20
47.229616717970828
 40
1.5000000000000002
 50
90
 51
180
  0
ARC
  8
_0-0_
  6
CONTINUOUS
 62
    7
 10
184.37419295909694
 20
47.229616717970828
 40
1.5000000000000002
 50
0
 51
90
  0
ARC
  8
_0-0_
  6
CONTINUOUS
 62
    7
 10
211.37419295909694
 20
47.729616717970828
 40
1
 50
0
 51
33.796212999999995
  0
ARC
  8
_0-0_
  6
CONTINUOUS
 62
    7
 10
211.37419295909694
 20
47.729616717970828
 40
1
 50
33.796212999999995
 51
90
  0
LINE
  8
_0-0_
  6
CONTINUOUS
 62
    7
 10
212.37419295909694
 20
85.228955898984282
 11
212.37419295909694
 21
145.22895589898434
  0
LINE
  8
_0-0_
  6
CONTINUOUS
 62
    7
 10
185.87419295909694
 20
145.22895589898434
 11
185.87419295909694
 21
157.72895589898434
  0
LINE
  8
_0-0_
  6
CONTINUOUS
 62
    7
 10
182.87419295909694
 20
160.72895589898434
 11
145.87419295909694
 21
160.72895589898434
  0
LINE
  8
_0-0_
  6
CONTINUOUS
 62
    7
 10
142.87419295909694
 20
157.72895589898434
 11
142.87419295909694
 21
145.22895589898434
  0
LINE
  8
_0-0_
  6
CONTINUOUS
 62
    7
 10
142.87419295909694
 20
85.228955898984282
 11
142.87419295909694
 21
72.728955898984282
  0
LINE
  8
_0-0_
  6
CONTINUOUS
 62
    7
 10
145.87419295909694
 20
69.728955898984282
 11
182.87419295909694
 21
69.728955898984282
  0
LINE
  8
_0-0_
  6
CONTINUOUS
 62
    7
 10
185.87419295909694
 20
72.728955898984282
 11
185.87419295909694
 21
85.228955898984282
  0
LINE
  8
_0-0_
  6
CONTINUOUS
 62
    7
 10
169.87419295909694
 20
76.285580226010211
 11
172.37419295909694
 21
74.84220455303614
  0
LINE
  8
_0-0_
  6
CONTINUOUS
 62
    7
 10
172.37419295909694
 20
74.84220455303614
 11
174.87419295909694
 21
76.285580226010211
  0
LINE
  8
_0-0_
  6
CONTINUOUS
 62
    7
 10
174.87419295909694
 20
76.285580226010211
 11
174.87419295909694
 21
79.172331571958352
  0
LINE
  8
_0-0_
  6
CONTINUOUS
 62
    7
 10
174.87419295909694
 20
79.172331571958352
 11
172.37419295909694
 21
80.615707244932423
  0
LINE
  8
_0-0_
  6
CONTINUOUS
 62
    7
 10
172.37419295909694
 20
80.615707244932423
 11
169.87419295909694
 21
79.172331571958352
  0
LINE
  8
_0-0_
  6
CONTINUOUS
 62
    7
 10
169.87419295909694
 20
79.172331571958352
 11
169.87419295909694
 21
76.285580226010211
  0
LINE
  8
_0-0_
  6
CONTINUOUS
 62
    7
 10
160.87419295909694
 20
85.228955898984282
 11
160.87419295909694
 21
145.22895589898434
  0
LINE
  8
_0-0_
  6
CONTINUOUS
 62
    7
 10
159.37419295909694
 20
145.22895589898434
 11
159.37419295909694
 21
85.228955898984282
  0
LINE
  8
_0-0_
  6
CONTINUOUS
 62
    7
 10
174.87419295909694
 20
151.28558022601027
 11
172.37419295909694
 21
149.8422045530362
  0
LINE
  8
_0-0_
  6
CONTINUOUS
 62
    7
 10
172.37419295909694
 20
149.8422045530362
 11
169.87419295909694
 21
151.28558022601027
  0
LINE
  8
_0-0_
  6
CONTINUOUS
 62
    7
 10
169.87419295909694
 20
151.28558022601027
 11
169.87419295909694
 21
154.17233157195841
  0
LINE
  8
_0-0_
  6
CONTINUOUS
 62
    7
 10
169.87419295909694
 20
154.17233157195841
 11
172.37419295909694
 21
155.61570724493248
  0
LINE
  8
_0-0_
  6
CONTINUOUS
 62
    7
 10
172.37419295909694
 20
155.61570724493248
 11
174.87419295909694
 21
154.17233157195841
  0
LINE
  8
_0-0_
  6
CONTINUOUS
 62
    7
 10
174.87419295909694
 20
154.17233157195841
 11
174.87419295909694
 21
151.28558022601027
  0
CIRCLE
  8
_0-0_
  6
CONTINUOUS
 62
    7
 10
172.37419295909694
 20
152.72895589898434
 40
5.25
  0
ARC
  8
_0-0_
  6
CONTINUOUS
 62
    7
 10
145.87419295909694
 20
157.72895589898434
 40
3.0000000000000004
 50
90
 51
180
  0
ARC
  8
_0-0_
  6
CONTINUOUS
 62
    7
 10
182.87419295909694
 20
157.72895589898434
 40
3.0000000000000004
 50
0
 51
90
  0
CIRCLE
  8
_0-0_
  6
CONTINUOUS
 62
    7
 10
172.37419295909694
 20
152.72895589898434
 40
5
  0
ARC
  8
_0-0_
  6
CONTINUOUS
 62
    7
 10
182.87419295909694
 20
72.728955898984282
 40
3.0000000000000004
 50
270
 51
0
  0
ARC
  8
_0-0_
  6
CONTINUOUS
 62
    7
 10
145.87419295909694
 20
72.728955898984282
 40
3.0000000000000004
 50
180
 51
270
  0
CIRCLE
  8
_0-0_
  6
CONTINUOUS
 62
    7
 10
172.37419295909694
 20
77.728955898984282
 40
5.25
  0
CIRCLE
  8
_0-0_
  6
CONTINUOUS
 62
    7
 10
172.37419295909694
 20
77.728955898984282
 40
5
  0
LINE
  8
_0-0_
  6
CONTINUOUS
 62
    7
 10
212.37419295909694
 20
204.76563779014626
 11
212.37419295909694
 21
234.76563779014629
  0
LINE
  8
_0-0_
  6
CONTINUOUS
 62
    7
 10
185.87419295909694
 20
234.76563779014629
 11
185.87419295909694
 21
247.26563779014629
  0
LINE
  8
_0-0_
  6
CONTINUOUS
 62
    7
 10
182.87419295909694
 20
250.26563779014629
 11
145.87419295909694
 21
250.26563779014629
  0
LINE
  8
_0-0_
  6
CONTINUOUS
 62
    7
 10
142.87419295909694
 20
247.26563779014629
 11
142.87419295909694
 21
234.76563779014629
  0
LINE
  8
_0-0_
  6
CONTINUOUS
 62
    7
 10
142.87419295909694
 20
204.76563779014626
 11
142.87419295909694
 21
192.26563779014626
  0
LINE
  8
_0-0_
  6
CONTINUOUS
 62
    7
 10
145.87419295909694
 20
189.26563779014626
 11
182.87419295909694
 21
189.26563779014626
  0
LINE
  8
_0-0_
  6
CONTINUOUS
 62
    7
 10
185.87419295909694
 20
192.26563779014626
 11
185.87419295909694
 21
204.76563779014626
  0
LINE
  8
_0-0_
  6
CONTINUOUS
 62
    7
 10
169.87419295909694
 20
195.82226211717219
 11
172.37419295909694
 21
194.37888644419812
  0
LINE
  8
_0-0_
  6
CONTINUOUS
 62
    7
 10
172.37419295909694
 20
194.37888644419812
 11
174.87419295909694
 21
195.82226211717219
  0
LINE
  8
_0-0_
  6
CONTINUOUS
 62
    7
 10
174.87419295909694
 20
195.82226211717219
 11
174.87419295909694
 21
198.70901346312033
  0
LINE
  8
_0-0_
  6
CONTINUOUS
 62
    7
 10
174.87419295909694
 20
198.70901346312033
 11
172.37419295909694
 21
200.1523891360944
  0
LINE
  8
_0-0_
  6
CONTINUOUS
 62
    7
 10
172.37419295909694
 20
200.1523891360944
 11
169.87419295909694
 21
198.70901346312033
  0
LINE
  8
_0-0_
  6
CONTINUOUS
 62
    7
 10
169.87419295909694
 20
198.70901346312033
 11
169.87419295909694
 21
195.82226211717219
  0
LINE
  8
_0-0_
  6
CONTINUOUS
 62
    7
 10
160.87419295909694
 20
204.76563779014626
 11
160.87419295909694
 21
234.76563779014629
  0
LINE
  8
_0-0_
  6
CONTINUOUS
 62
    7
 10
159.37419295909694
 20
234.76563779014629
 11
159.37419295909694
 21
204.76563779014626
  0
LINE
  8
_0-0_
  6
CONTINUOUS
 62
    7
 10
172.37419295909694
 20
245.15238913609443
 11
174.87419295909694
 21
243.70901346312036
  0
LINE
  8
_0-0_
  6
CONTINUOUS
 62
    7
 10
174.87419295909694
 20
243.70901346312036
 11
174.87419295909694
 21
240.82226211717222
  0
LINE
  8
_0-0_
  6
CONTINUOUS
 62
    7
 10
174.87419295909694
 20
240.82226211717222
 11
172.37419295909694
 21
239.37888644419814
  0
LINE
  8
_0-0_
  6
CONTINUOUS
 62
    7
 10
172.37419295909694
 20
239.37888644419814
 11
169.87419295909694
 21
240.82226211717222
  0
LINE
  8
_0-0_
  6
CONTINUOUS
 62
    7
 10
169.87419295909694
 20
240.82226211717222
 11
169.87419295909694
 21
243.70901346312036
  0
LINE
  8
_0-0_
  6
CONTINUOUS
 62
    7
 10
169.87419295909694
 20
243.70901346312036
 11
172.37419295909694
 21
245.15238913609443
  0
CIRCLE
  8
_0-0_
  6
CONTINUOUS
 62
    7
 10
172.37419295909694
 20
242.26563779014629
 40
5.25
  0
ARC
  8
_0-0_
  6
CONTINUOUS
 62
    7
 10
145.87419295909694
 20
247.26563779014629
 40
3.0000000000000004
 50
90
 51
180
  0
ARC
  8
_0-0_
  6
CONTINUOUS
 62
    7
 10
182.87419295909694
 20
247.26563779014629
 40
3.0000000000000004
 50
0
 51
90
  0
ARC
  8
_0-0_
  6
CONTINUOUS
 62
    7
 10
182.87419295909694
 20
192.26563779014626
 40
3.0000000000000004
 50
270
 51
0
  0
ARC
  8
_0-0_
  6
CONTINUOUS
 62
    7
 10
145.87419295909694
 20
192.26563779014626
 40
3.0000000000000004
 50
180
 51
270
  0
CIRCLE
  8
_0-0_
  6
CONTINUOUS
 62
    7
 10
172.37419295909694
 20
197.26563779014626
 40
5.25
  0
CIRCLE
  8
_0-0_
  6
CONTINUOUS
 62
    7
 10
172.37419295909694
 20
242.26563779014629
 40
5
  0
CIRCLE
  8
_0-0_
  6
CONTINUOUS
 62
    7
 10
172.37419295909694
 20
197.26563779014626
 40
5
  0
LINE
  8
_0-0_
  6
CONTINUOUS
 62
    7
 10
61.098957310708101
 20
160.72895589898434
 11
49.198957310708238
 21
160.72895589898434
  0
ARC
  8
_0-0_
  6
CONTINUOUS
 62
    7
 10
61.098957310708101
 20
157.72895589898434
 40
3
 50
0
 51
90
  0
LINE
  8
_0-0_
  6
CONTINUOUS
 62
    7
 10
64.098957310708101
 20
72.728955898984282
 11
64.098957310708101
 21
157.72895589898434
  0
ARC
  8
_0-0_
  6
CONTINUOUS
 62
    7
 10
61.098957310708101
 20
72.728955898984282
 40
3
 50
270
 51
0
  0
LINE
  8
_0-0_
  6
CONTINUOUS
 62
    7
 10
61.098957310708101
 20
69.728955898984282
 11
49.198957310708238
 21
69.728955898984282
  0
LINE
  8
_0-0_
  6
CONTINUOUS
 62
    7
 10
64.098957310708329
 20
82.628955898984373
 11
64.598957310707874
 21
82.128955898984373
  0
LINE
  8
_0-0_
  6
CONTINUOUS
 62
    7
 10
64.598957310707874
 20
82.128955898984373
 11
64.598957310707874
 21
73.328955898984646
  0
LINE
  8
_0-0_
  6
CONTINUOUS
 62
    7
 10
64.598957310707874
 20
73.328955898984646
 11
64.098957310708329
 21
72.828955898984646
  0
LINE
  8
_0-0_
  6
CONTINUOUS
 62
    7
 10
64.098957310708329
 20
157.62895589898443
 11
64.598957310707874
 21
157.12895589898443
  0
LINE
  8
_0-0_
  6
CONTINUOUS
 62
    7
 10
64.598957310707874
 20
157.12895589898443
 11
64.598957310707874
 21
148.3289558989847
  0
LINE
  8
_0-0_
  6
CONTINUOUS
 62
    7
 10
64.598957310707874
 20
148.3289558989847
 11
64.098957310708329
 21
147.8289558989847
  0
LINE
  8
_0-0_
  6
CONTINUOUS
 62
    7
 10
260.64942860748567
 20
160.72895589898434
 11
272.54942860748565
 21
160.72895589898434
  0
ARC
  8
_0-0_
  6
CONTINUOUS
 62
    7
 10
260.64942860748567
 20
157.72895589898434
 40
3
 50
90
 51
180
  0
LINE
  8
_0-0_
  6
CONTINUOUS
 62
    7
 10
257.64942860748567
 20
72.728955898984282
 11
257.64942860748567
 21
157.72895589898434
  0
ARC
  8
_0-0_
  6
CONTINUOUS
 62
    7
 10
260.64942860748567
 20
72.728955898984282
 40
3
 50
180
 51
270
  0
LINE
  8
_0-0_
  6
CONTINUOUS
 62
    7
 10
272.54942860748565
 20
69.728955898984282
 11
272.54942860748565
 21
160.72895589898434
  0
LINE
  8
_0-0_
  6
CONTINUOUS
 62
    7
 10
260.64942860748567
 20
69.728955898984282
 11
272.54942860748565
 21
69.728955898984282
  0
LINE
  8
_0-0_
  6
CONTINUOUS
 62
    7
 10
257.64942860748556
 20
82.628955898984373
 11
257.14942860748602
 21
82.128955898984373
  0
LINE
  8
_0-0_
  6
CONTINUOUS
 62
    7
 10
257.14942860748602
 20
82.128955898984373
 11
257.14942860748602
 21
73.328955898984646
  0
LINE
  8
_0-0_
  6
CONTINUOUS
 62
    7
 10
257.14942860748602
 20
73.328955898984646
 11
257.64942860748556
 21
72.828955898984646
  0
LINE
  8
_0-0_
  6
CONTINUOUS
 62
    7
 10
257.64942860748556
 20
157.62895589898443
 11
257.14942860748602
 21
157.12895589898443
  0
LINE
  8
_0-0_
  6
CONTINUOUS
 62
    7
 10
257.14942860748602
 20
157.12895589898443
 11
257.14942860748602
 21
148.3289558989847
  0
LINE
  8
_0-0_
  6
CONTINUOUS
 62
    7
 10
257.14942860748602
 20
148.3289558989847
 11
257.64942860748556
 21
147.8289558989847
  0
LINE
  8
_0-0_
  6
CONTINUOUS
 62
    7
 10
260.20864860295251
 20
85.228955898984282
 11
260.20864860295251
 21
145.22895589898434
  0
LINE
  8
_0-0_
  6
CONTINUOUS
 62
    7
 10
257.64942860748567
 20
85.228955898984282
 11
272.54942860748565
 21
85.228955898984282
  0
LINE
  8
_0-0_
  6
CONTINUOUS
 62
    7
 10
257.64942860748567
 20
145.22895589898434
 11
272.54942860748565
 21
145.22895589898434
  0
ARC
  8
_0-0_
  6
CONTINUOUS
 62
    7
 10
61.098957310708101
 20
192.26563779014626
 40
3
 50
270
 51
0
  0
LINE
  8
_0-0_
  6
CONTINUOUS
 62
    7
 10
61.098957310708101
 20
189.26563779014626
 11
49.198957310708238
 21
189.26563779014626
  0
LINE
  8
_0-0_
  6
CONTINUOUS
 62
    7
 10
64.098957310708329
 20
202.16563779014635
 11
64.598957310707874
 21
201.66563779014635
  0
LINE
  8
_0-0_
  6
CONTINUOUS
 62
    7
 10
64.598957310707874
 20
201.66563779014635
 11
64.598957310707874
 21
192.86563779014662
  0
LINE
  8
_0-0_
  6
CONTINUOUS
 62
    7
 10
64.598957310707874
 20
192.86563779014662
 11
64.098957310708329
 21
192.36563779014662
  0
ARC
  8
_0-0_
  6
CONTINUOUS
 62
    7
 10
260.64942860748567
 20
192.26563779014626
 40
3
 50
180
 51
270
  0
LINE
  8
_0-0_
  6
CONTINUOUS
 62
    7
 10
260.64942860748567
 20
189.26563779014626
 11
272.54942860748565
 21
189.26563779014626
  0
LINE
  8
_0-0_
  6
CONTINUOUS
 62
    7
 10
257.64942860748556
 20
202.16563779014635
 11
257.14942860748602
 21
201.66563779014635
  0
LINE
  8
_0-0_
  6
CONTINUOUS
 62
    7
 10
257.14942860748602
 20
201.66563779014635
 11
257.14942860748602
 21
192.86563779014662
  0
LINE
  8
_0-0_
  6
CONTINUOUS
 62
    7
 10
257.14942860748602
 20
192.86563779014662
 11
257.64942860748556
 21
192.36563779014662
  0
LINE
  8
_0-0_
  6
CONTINUOUS
 62
    7
 10
257.64942860748567
 20
204.76563779014626
 11
272.54942860748565
 21
204.76563779014626
  0
LINE
  8
_0-0_
  6
CONTINUOUS
 62
    7
 10
61.098957310708101
 20
250.26563779014629
 11
49.198957310708238
 21
250.26563779014629
  0
ARC
  8
_0-0_
  6
CONTINUOUS
 62
    7
 10
61.098957310708101
 20
247.26563779014629
 40
3
 50
0
 51
90
  0
LINE
  8
_0-0_
  6
CONTINUOUS
 62
    7
 10
64.098957310708101
 20
192.26563779014626
 11
64.098957310708101
 21
247.26563779014629
  0
LINE
  8
_0-0_
  6
CONTINUOUS
 62
    7
 10
64.098957310708329
 20
247.16563779014638
 11
64.598957310707874
 21
246.66563779014638
  0
LINE
  8
_0-0_
  6
CONTINUOUS
 62
    7
 10
64.598957310707874
 20
246.66563779014638
 11
64.598957310707874
 21
237.86563779014665
  0
LINE
  8
_0-0_
  6
CONTINUOUS
 62
    7
 10
64.598957310707874
 20
237.86563779014665
 11
64.098957310708329
 21
237.36563779014665
  0
LINE
  8
_0-0_
  6
CONTINUOUS
 62
    7
 10
260.64942860748567
 20
250.26563779014629
 11
272.54942860748565
 21
250.26563779014629
  0
ARC
  8
_0-0_
  6
CONTINUOUS
 62
    7
 10
260.64942860748567
 20
247.26563779014629
 40
3
 50
90
 51
180
  0
LINE
  8
_0-0_
  6
CONTINUOUS
 62
    7
 10
257.64942860748567
 20
192.26563779014626
 11
257.64942860748567
 21
247.26563779014629
  0
LINE
  8
_0-0_
  6
CONTINUOUS
 62
    7
 10
272.54942860748565
 20
189.26563779014626
 11
272.54942860748565
 21
250.26563779014629
  0
LINE
  8
_0-0_
  6
CONTINUOUS
 62
    7
 10
257.64942860748556
 20
247.16563779014638
 11
257.14942860748602
 21
246.66563779014638
  0
LINE
  8
_0-0_
  6
CONTINUOUS
 62
    7
 10
257.14942860748602
 20
246.66563779014638
 11
257.14942860748602
 21
237.86563779014665
  0
LINE
  8
_0-0_
  6
CONTINUOUS
 62
    7
 10
257.14942860748602
 20
237.86563779014665
 11
257.64942860748556
 21
237.36563779014665
  0
LINE
  8
_0-0_
  6
CONTINUOUS
 62
    7
 10
260.20864860295251
 20
204.76563779014626
 11
260.20864860295251
 21
234.76563779014629
  0
LINE
  8
_0-0_
  6
CONTINUOUS
 62
    7
 10
257.64942860748567
 20
234.76563779014629
 11
272.54942860748565
 21
234.76563779014629
  0
ARC
  8
_0-0_
  6
CONTINUOUS
 62
    7
 10
133.87419295909694
 20
34.753423767608808
 40
0.5
 50
130
 51
180
  0
LINE
  8
_0-0_
  6
CONTINUOUS
 62
    7
 10
133.37419295909694
 20
32.629058883144467
 11
133.37419295909694
 21
34.753423767608808
  0
ARC
  8
_0-0_
  6
CONTINUOUS
 62
    7
 10
133.87419295909694
 20
32.629058883144467
 40
0.5
 50
180
 51
223.49256424122481
  0
ARC
  8
_0-0_
  6
CONTINUOUS
 62
    7
 10
131.37419295909694
 20
36.180274370862833
 40
1
 50
130
 51
180
  0
LINE
  8
_0-0_
  6
CONTINUOUS
 62
    7
 10
130.37419295909694
 20
31.843152421365289
 11
130.37419295909694
 21
36.180274370862833
  0
ARC
  8
_0-0_
  6
CONTINUOUS
 62
    7
 10
131.37419295909694
 20
31.843152421365289
 40
1
 50
180
 51
229.99999999999989
  0
LINE
  8
_0-0_
  6
CONTINUOUS
 62
    7
 10
134.92384247396183
 20
27.559235533301148
 11
130.73140534941035
 21
31.077107978246318
  0
ARC
  8
_0-0_
  6
CONTINUOUS
 62
    7
 10
135.56663008364842
 20
28.325279976420177
 40
1
 50
229.99999999999949
 51
318.81407483428848
  0
LINE
  8
_0-0_
  6
CONTINUOUS
 62
    7
 10
136.89418752991776
 20
28.323896227480247
 11
136.31920677835524
 21
27.666775368551669
  0
ARC
  8
_0-0_
  6
CONTINUOUS
 62
    7
 10
136.66841452150572
 20
28.521447609840777
 40
0.2999999999999999
 50
318.81407483429041
 51
43.492564241221629
  0
LINE
  8
_0-0_
  6
CONTINUOUS
 62
    7
 10
136.88605363105853
 20
28.727925739416492
 11
133.51146110984223
 21
32.284928667184943
  0
LINE
  8
_0-0_
  6
CONTINUOUS
 62
    7
 10
133.55279915425365
 20
35.136445989168294
 11
140.75732178997043
 21
41.181758275606683
  0
LINE
  8
_0-0_
  6
CONTINUOUS
 62
    7
 10
158.87419295909694
 20
48.729616717970657
 11
144.77419295909692
 21
48.729616717970657
  0
LINE
  8
_0-0_
  6
CONTINUOUS
 62
    7
 10
130.73140534941035
 20
36.946318813981804
 11
142.87419295909694
 21
47.135327418733823
  0
ARC
  8
_0-0_
  6
CONTINUOUS
 62
    7
 10
142.04289700934351
 20
39.649669389368626
 40
2
 50
65.43987082448453
 51
130.0000000000002
  0
LINE
  8
_0-0_
  6
CONTINUOUS
 62
    7
 10
212.37419295909694
 20
145.22895589898434
 11
130.37419295909694
 21
145.22895589898434
  0
LINE
  8
_0-0_
  6
CONTINUOUS
 62
    7
 10
130.37419295909694
 20
85.228955898984282
 11
130.37419295909694
 21
145.22895589898434
  0
LINE
  8
_0-0_
  6
CONTINUOUS
 62
    7
 10
130.37419295909694
 20
85.228955898984282
 11
212.37419295909694
 21
85.228955898984282
  0
LINE
  8
_0-0_
  6
CONTINUOUS
 62
    7
 10
212.37419295909694
 20
234.76563779014629
 11
130.37419295909694
 21
234.76563779014629
  0
LINE
  8
_0-0_
  6
CONTINUOUS
 62
    7
 10
130.37419295909694
 20
204.76563779014626
 11
130.37419295909694
 21
234.76563779014629
  0
LINE
  8
_0-0_
  6
CONTINUOUS
 62
    7
 10
130.37419295909694
 20
204.76563779014626
 11
212.37419295909694
 21
204.76563779014626
  0
LINE
  8
_0-0_
  6
CONTINUOUS
 62
    7
 10
49.198957310708238
 20
69.728955898984282
 11
49.198957310708238
 21
85.228955898984282
  0
LINE
  8
_0-0_
  6
CONTINUOUS
 62
    7
 10
49.198957310708238
 20
145.22895589898434
 11
49.198957310708238
 21
160.72895589898434
  0
LINE
  8
_0-0_
  6
CONTINUOUS
 62
    7
 10
46.746185355947773
 20
85.228955898984282
 11
46.746185355947773
 21
145.22895589898434
  0
LINE
  8
_0-0_
  6
CONTINUOUS
 62
    7
 10
52.015922621755294
 20
85.228955898984282
 11
52.015922621755294
 21
145.22895589898434
  0
LINE
  8
_0-0_
  6
CONTINUOUS
 62
    7
 10
64.098957310708101
 20
145.22895589898434
 11
42.694620569157678
 21
145.22895589898434
  0
LINE
  8
_0-0_
  6
CONTINUOUS
 62
    7
 10
42.694620569157678
 20
85.228955898984282
 11
42.694620569157678
 21
145.22895589898434
  0
LINE
  8
_0-0_
  6
CONTINUOUS
 62
    7
 10
64.098957310708101
 20
85.228955898984282
 11
42.694620569157678
 21
85.228955898984282
  0
LINE
  8
_0-0_
  6
CONTINUOUS
 62
    7
 10
49.198957310708238
 20
189.26563779014626
 11
49.198957310708238
 21
204.76563779014626
  0
LINE
  8
_0-0_
  6
CONTINUOUS
 62
    7
 10
49.198957310708238
 20
234.76563779014629
 11
49.198957310708238
 21
250.26563779014629
  0
LINE
  8
_0-0_
  6
CONTINUOUS
 62
    7
 10
64.098957310708101
 20
234.76563779014629
 11
42.694620569157678
 21
234.76563779014629
  0
LINE
  8
_0-0_
  6
CONTINUOUS
 62
    7
 10
42.694620569157678
 20
204.76563779014626
 11
42.694620569157678
 21
234.76563779014629
  0
LINE
  8
_0-0_
  6
CONTINUOUS
 62
    7
 10
64.098957310708101
 20
204.76563779014626
 11
42.694620569157678
 21
204.76563779014626
  0
LINE
  8
_0-0_
  6
CONTINUOUS
 62
    7
 10
46.746185356157639
 20
204.76563779014626
 11
46.746185356157639
 21
234.76563779014629
  0
LINE
  8
_0-0_
  6
CONTINUOUS
 62
    7
 10
52.015922622157632
 20
204.76563779014626
 11
52.015922622157632
 21
234.76563779014629
  0
LINE
  8
_0-0_
  6
CONTINUOUS
 62
    7
 10
270.54942860748565
 20
85.228955898984282
 11
270.54942860748565
 21
145.22895589898434
  0
LINE
  8
_0-0_
  6
CONTINUOUS
 62
    7
 10
270.54942860748565
 20
204.76563779014626
 11
270.54942860748565
 21
234.76563779014629
  0
LINE
  8
_0-1_
  6
CENTER2
 62
  152
 10
177.37421295909689
 20
23.829616717970964
 11
167.37416295909679
 21
23.829616717970964
  0
LINE
  8
_0-1_
  6
CONTINUOUS
 62
  152
 10
144.37419295909694
 20
145.22895589898434
 11
144.37419295909694
 21
85.228955898984282
  0
LINE
  8
_0-1_
  6
CENTER2
 62
  152
 10
177.62419295909694
 20
77.728955898984282
 11
167.12419295909694
 21
77.728955898984282
  0
LINE
  8
_0-1_
  6
CENTER2
 62
  152
 10
172.37419295909694
 20
72.478955898984282
 11
172.37419295909694
 21
82.978955898984282
  0
LINE
  8
_0-1_
  6
CONTINUOUS
 62
  152
 10
159.28377295909695
 20
79.978955898984282
 11
148.18377295909659
 21
79.978955898984282
  0
LINE
  8
_0-1_
  6
CONTINUOUS
 62
  152
 10
147.73377295909677
 20
79.528955898984464
 11
147.73377295909677
 21
75.928955898984555
  0
LINE
  8
_0-1_
  6
CONTINUOUS
 62
  152
 10
148.18377295909659
 20
75.478955898984282
 11
159.28377295909695
 21
75.478955898984282
  0
LINE
  8
_0-1_
  6
CONTINUOUS
 62
  152
 10
159.73377295909677
 20
75.928955898984555
 11
159.73377295909677
 21
79.528955898984464
  0
LINE
  8
_0-1_
  6
CONTINUOUS
 62
  152
 10
158.93176295909689
 20
79.214545898984056
 11
156.78775295909691
 21
79.214545898984056
  0
LINE
  8
_0-1_
  6
CONTINUOUS
 62
  152
 10
156.78775295909691
 20
79.214545898984056
 11
156.78775295909691
 21
78.668605898984538
  0
LINE
  8
_0-1_
  6
CONTINUOUS
 62
  152
 10
156.78775295909691
 20
78.668605898984538
 11
158.16810295909681
 21
78.668605898984538
  0
LINE
  8
_0-1_
  6
CONTINUOUS
 62
  152
 10
158.16810295909681
 20
78.668605898984538
 11
158.16810295909681
 21
76.152195898983905
  0
LINE
  8
_0-1_
  6
CONTINUOUS
 62
  152
 10
158.16810295909681
 20
76.152195898983905
 11
158.93176295909689
 21
76.152195898983905
  0
LINE
  8
_0-1_
  6
CONTINUOUS
 62
  152
 10
158.93176295909689
 20
76.152195898983905
 11
158.93176295909689
 21
79.214545898984056
  0
LINE
  8
_0-1_
  6
CONTINUOUS
 62
  152
 10
156.19855295909656
 20
79.214545898984056
 11
156.19855295909656
 21
76.152195898983905
  0
LINE
  8
_0-1_
  6
CONTINUOUS
 62
  152
 10
156.19855295909656
 20
76.152195898983905
 11
154.05398295909663
 21
76.152195898983905
  0
LINE
  8
_0-1_
  6
CONTINUOUS
 62
  152
 10
154.05398295909663
 20
76.152195898983905
 11
154.05398295909663
 21
76.698135898984333
  0
LINE
  8
_0-1_
  6
CONTINUOUS
 62
  152
 10
154.05398295909663
 20
76.698135898984333
 11
155.43760295909669
 21
76.698135898984333
  0
LINE
  8
_0-1_
  6
CONTINUOUS
 62
  152
 10
155.43760295909669
 20
76.698135898984333
 11
155.43760295909669
 21
77.408305898984622
  0
LINE
  8
_0-1_
  6
CONTINUOUS
 62
  152
 10
155.43760295909669
 20
77.408305898984622
 11
154.18592295909684
 21
77.408305898984622
  0
LINE
  8
_0-1_
  6
CONTINUOUS
 62
  152
 10
154.18592295909684
 20
77.408305898984622
 11
154.18592295909684
 21
77.920775898984289
  0
LINE
  8
_0-1_
  6
CONTINUOUS
 62
  152
 10
154.18592295909684
 20
77.920775898984289
 11
155.43760295909669
 21
77.920775898984289
  0
LINE
  8
_0-1_
  6
CONTINUOUS
 62
  152
 10
155.43760295909669
 20
77.920775898984289
 11
155.43760295909669
 21
78.668605898984538
  0
LINE
  8
_0-1_
  6
CONTINUOUS
 62
  152
 10
155.43760295909669
 20
78.668605898984538
 11
154.05398295909663
 21
78.668605898984538
  0
LINE
  8
_0-1_
  6
CONTINUOUS
 62
  152
 10
154.05398295909663
 20
78.668605898984538
 11
154.05398295909663
 21
79.214545898984056
  0
LINE
  8
_0-1_
  6
CONTINUOUS
 62
  152
 10
154.05398295909663
 20
79.214545898984056
 11
156.19855295909656
 21
79.214545898984056
  0
LINE
  8
_0-1_
  6
CONTINUOUS
 62
  152
 10
152.0950229590967
 20
78.170265898984439
 11
151.29854295909672
 21
78.170265898984439
  0
LINE
  8
_0-1_
  6
CONTINUOUS
 62
  152
 10
151.3186729590966
 20
77.066765898984272
 11
152.09882295909665
 21
77.066765898984272
  0
LINE
  8
_0-1_
  6
CONTINUOUS
 62
  152
 10
148.37419295909694
 20
154.52895589898452
 11
148.37419295909694
 21
150.92895589898461
  0
LINE
  8
_0-1_
  6
CONTINUOUS
 62
  152
 10
148.82419295909676
 20
150.47895589898434
 11
159.92419295909667
 21
150.47895589898434
  0
LINE
  8
_0-1_
  6
CONTINUOUS
 62
  152
 10
160.37419295909694
 20
150.92895589898461
 11
160.37419295909694
 21
154.52895589898452
  0
LINE
  8
_0-1_
  6
CONTINUOUS
 62
  152
 10
159.92419295909667
 20
154.97895589898434
 11
148.82419295909676
 21
154.97895589898434
  0
LINE
  8
_0-1_
  6
CONTINUOUS
 62
  152
 10
149.17620295909683
 20
154.30571589898472
 11
149.9398629590969
 21
154.30571589898472
  0
LINE
  8
_0-1_
  6
CONTINUOUS
 62
  152
 10
149.9398629590969
 20
154.30571589898472
 11
149.9398629590969
 21
151.78931589898428
  0
LINE
  8
_0-1_
  6
CONTINUOUS
 62
  152
 10
149.9398629590969
 20
151.78931589898428
 11
151.32021295909681
 21
151.78931589898428
  0
LINE
  8
_0-1_
  6
CONTINUOUS
 62
  152
 10
151.32021295909681
 20
151.78931589898428
 11
151.32021295909681
 21
151.24337589898431
  0
LINE
  8
_0-1_
  6
CONTINUOUS
 62
  152
 10
151.32021295909681
 20
151.24337589898431
 11
149.17620295909683
 21
151.24337589898431
  0
LINE
  8
_0-1_
  6
CONTINUOUS
 62
  152
 10
149.17620295909683
 20
151.24337589898431
 11
149.17620295909683
 21
154.30571589898472
  0
LINE
  8
_0-1_
  6
CONTINUOUS
 62
  152
 10
151.9094129590967
 20
154.30571589898472
 11
154.05398295909663
 21
154.30571589898472
  0
LINE
  8
_0-1_
  6
CONTINUOUS
 62
  152
 10
154.05398295909663
 20
154.30571589898472
 11
154.05398295909663
 21
153.75977589898429
  0
LINE
  8
_0-1_
  6
CONTINUOUS
 62
  152
 10
154.05398295909663
 20
153.75977589898429
 11
152.67036295909656
 21
153.75977589898429
  0
LINE
  8
_0-1_
  6
CONTINUOUS
 62
  152
 10
152.67036295909656
 20
153.75977589898429
 11
152.67036295909656
 21
153.0496158989842
  0
LINE
  8
_0-1_
  6
CONTINUOUS
 62
  152
 10
152.67036295909656
 20
153.0496158989842
 11
153.92204295909687
 21
153.0496158989842
  0
LINE
  8
_0-1_
  6
CONTINUOUS
 62
  152
 10
153.92204295909687
 20
153.0496158989842
 11
153.92204295909687
 21
152.53713589898433
  0
LINE
  8
_0-1_
  6
CONTINUOUS
 62
  152
 10
153.92204295909687
 20
152.53713589898433
 11
152.67036295909656
 21
152.53713589898433
  0
LINE
  8
_0-1_
  6
CONTINUOUS
 62
  152
 10
152.67036295909656
 20
152.53713589898433
 11
152.67036295909656
 21
151.78931589898428
  0
LINE
  8
_0-1_
  6
CONTINUOUS
 62
  152
 10
152.67036295909656
 20
151.78931589898428
 11
154.05398295909663
 21
151.78931589898428
  0
LINE
  8
_0-1_
  6
CONTINUOUS
 62
  152
 10
154.05398295909663
 20
151.78931589898428
 11
154.05398295909663
 21
151.24337589898431
  0
LINE
  8
_0-1_
  6
CONTINUOUS
 62
  152
 10
154.05398295909663
 20
151.24337589898431
 11
151.9094129590967
 21
151.24337589898431
  0
LINE
  8
_0-1_
  6
CONTINUOUS
 62
  152
 10
151.9094129590967
 20
151.24337589898431
 11
151.9094129590967
 21
154.30571589898472
  0
LINE
  8
_0-1_
  6
CONTINUOUS
 62
  152
 10
156.00914295909661
 20
153.39114589898435
 11
156.78929295909666
 21
153.39114589898435
  0
LINE
  8
_0-1_
  6
CONTINUOUS
 62
  152
 10
156.80942295909654
 20
152.28765589898438
 11
156.01294295909656
 21
152.28765589898438
  0
LINE
  8
_0-1_
  6
CENTER2
 62
  152
 10
167.12419295909694
 20
152.72895589898434
 11
177.62419295909694
 21
152.72895589898434
  0
LINE
  8
_0-1_
  6
CENTER2
 62
  152
 10
172.37419295909694
 20
147.47895589898434
 11
172.37419295909694
 21
157.97895589898434
  0
ARC
  8
_0-1_
  6
CONTINUOUS
 62
  152
 10
158.4119429590969
 20
151.97556589898448
 40
0.2487944
 50
198.78093000000001
 51
341.21906000000001
  0
ARC
  8
_0-1_
  6
CONTINUOUS
 62
  152
 10
155.72800295909656
 20
151.97556589898448
 40
0.2487944
 50
198.78093000000001
 51
341.21906000000001
  0
ARC
  8
_0-1_
  6
CONTINUOUS
 62
  152
 10
158.57984295909682
 20
153.47227589898438
 40
0.8582684000000001
 50
19.118120000000001
 51
73.770895999999965
  0
ARC
  8
_0-1_
  6
CONTINUOUS
 62
  152
 10
158.24404295909653
 20
153.47227589898438
 40
0.8582684000000001
 50
106.2291
 51
160.88186999999999
  0
ARC
  8
_0-1_
  6
CONTINUOUS
 62
  152
 10
158.4119429590969
 20
152.69302589898433
 40
1.6543543999999999
 50
75.730706999999995
 51
104.26929
  0
ARC
  8
_0-1_
  6
CONTINUOUS
 62
  152
 10
157.30763295909674
 20
153.28568589898458
 40
1.3894609
 50
359.28076999999996
 51
15.355257999999957
  0
ARC
  8
_0-1_
  6
CONTINUOUS
 62
  152
 10
158.4119429590969
 20
153.57352589898454
 40
0.2487944
 50
18.780933999999998
 51
161.21906000000001
  0
ARC
  8
_0-1_
  6
CONTINUOUS
 62
  152
 10
159.51625295909662
 20
153.28568589898458
 40
1.3894609
 50
164.64474000000004
 51
180.71922000000004
  0
ARC
  8
_0-1_
  6
CONTINUOUS
 62
  152
 10
159.51625295909662
 20
152.26340589898444
 40
1.3894609
 50
179.28076999999999
 51
195.35525000000001
  0
ARC
  8
_0-1_
  6
CONTINUOUS
 62
  152
 10
157.30763295909674
 20
152.26340589898444
 40
1.3894609
 50
344.64474000000007
 51
0.719224299999991
  0
ARC
  8
_0-1_
  6
CONTINUOUS
 62
  152
 10
155.92797295909668
 20
152.77454589898406
 40
3.5984795000000003
 50
344.21599999999995
 51
15.783997000000026
  0
ARC
  8
_0-1_
  6
CONTINUOUS
 62
  152
 10
158.24404295909653
 20
152.07681589898465
 40
0.8582684000000001
 50
199.11812000000006
 51
253.77089000000001
  0
ARC
  8
_0-1_
  6
CONTINUOUS
 62
  152
 10
158.57984295909682
 20
152.07681589898465
 40
0.8582684000000001
 50
286.22910000000002
 51
340.88186999999999
  0
ARC
  8
_0-1_
  6
CONTINUOUS
 62
  152
 10
158.4119429590969
 20
152.8560658989847
 40
1.6543543999999999
 50
255.73070000000004
 51
284.26929000000007
  0
ARC
  8
_0-1_
  6
CONTINUOUS
 62
  152
 10
149.57222295909696
 20
152.77454589898406
 40
9.1391083999999996
 50
356.78919000000002
 51
3.2108098999999948
  0
ARC
  8
_0-1_
  6
CONTINUOUS
 62
  152
 10
167.25166295909685
 20
152.77454589898406
 40
9.1391083999999996
 50
176.78918999999999
 51
183.21080000000001
  0
ARC
  8
_0-1_
  6
CONTINUOUS
 62
  152
 10
160.89591295909668
 20
152.77454589898406
 40
3.5984795000000003
 50
164.21600000000004
 51
195.78399000000002
  0
ARC
  8
_0-1_
  6
CONTINUOUS
 62
  152
 10
155.56010295909664
 20
153.47227589898438
 40
0.8582684000000001
 50
106.2291
 51
160.88186999999999
  0
ARC
  8
_0-1_
  6
CONTINUOUS
 62
  152
 10
155.72800295909656
 20
152.69302589898433
 40
1.6543543999999999
 50
75.730706999999995
 51
104.26929
  0
ARC
  8
_0-1_
  6
CONTINUOUS
 62
  152
 10
153.24403295909678
 20
152.77454589898406
 40
3.5984795000000003
 50
9.8663227000000013
 51
15.783997000000001
  0
ARC
  8
_0-1_
  6
CONTINUOUS
 62
  152
 10
155.89590295909693
 20
153.47227589898438
 40
0.8582684000000001
 50
19.118120000000001
 51
73.770895999999965
  0
ARC
  8
_0-1_
  6
CONTINUOUS
 62
  152
 10
154.62369295909684
 20
153.28568589898458
 40
1.3894609
 50
4.3528099999999998
 51
15.355258000000001
  0
ARC
  8
_0-1_
  6
CONTINUOUS
 62
  152
 10
156.83231295909673
 20
153.28568589898458
 40
1.3894609
 50
164.64474000000004
 51
180.71922000000004
  0
ARC
  8
_0-1_
  6
CONTINUOUS
 62
  152
 10
155.72800295909656
 20
153.57352589898454
 40
0.2487944
 50
18.780933999999998
 51
161.21906000000001
  0
ARC
  8
_0-1_
  6
CONTINUOUS
 62
  152
 10
156.83231295909673
 20
152.26340589898444
 40
1.3894609
 50
179.28076999999999
 51
195.35525000000001
  0
ARC
  8
_0-1_
  6
CONTINUOUS
 62
  152
 10
154.62369295909684
 20
152.26340589898444
 40
1.3894609
 50
344.64474000000007
 51
1.0000756000000433
  0
ARC
  8
_0-1_
  6
CONTINUOUS
 62
  152
 10
153.24403295909678
 20
152.77454589898406
 40
3.5984795000000003
 50
344.21599999999995
 51
352.22374999999994
  0
ARC
  8
_0-1_
  6
CONTINUOUS
 62
  152
 10
155.89590295909693
 20
152.07681589898465
 40
0.8582684000000001
 50
286.22910000000002
 51
340.88186999999999
  0
ARC
  8
_0-1_
  6
CONTINUOUS
 62
  152
 10
155.72800295909656
 20
152.8560658989847
 40
1.6543543999999999
 50
255.73070000000004
 51
284.26929000000007
  0
ARC
  8
_0-1_
  6
CONTINUOUS
 62
  152
 10
155.56010295909664
 20
152.07681589898465
 40
0.8582684000000001
 50
199.11812000000006
 51
253.77089000000001
  0
ARC
  8
_0-1_
  6
CONTINUOUS
 62
  152
 10
164.5677329590967
 20
152.77454589898406
 40
9.1391083999999996
 50
176.78918999999999
 51
183.21080000000001
  0
ARC
  8
_0-1_
  6
CONTINUOUS
 62
  152
 10
158.21197295909678
 20
152.77454589898406
 40
3.5984795000000003
 50
164.21600000000004
 51
195.78399000000002
  0
ARC
  8
_0-1_
  6
CONTINUOUS
 62
  152
 10
159.92419295909667
 20
150.92895589898461
 40
0.45
 50
270
 51
0
  0
ARC
  8
_0-1_
  6
CONTINUOUS
 62
  152
 10
159.92419295909667
 20
154.52895589898452
 40
0.45
 50
0
 51
90
  0
ARC
  8
_0-1_
  6
CONTINUOUS
 62
  152
 10
148.82419295909676
 20
154.52895589898452
 40
0.45
 50
90
 51
180
  0
ARC
  8
_0-1_
  6
CONTINUOUS
 62
  152
 10
148.82419295909676
 20
150.92895589898461
 40
0.45
 50
180
 51
270
  0
ARC
  8
_0-1_
  6
CONTINUOUS
 62
  152
 10
159.28377295909695
 20
79.528955898984464
 40
0.45
 50
0
 51
90
  0
ARC
  8
_0-1_
  6
CONTINUOUS
 62
  152
 10
159.28377295909695
 20
75.928955898984555
 40
0.45
 50
270
 51
0
  0
ARC
  8
_0-1_
  6
CONTINUOUS
 62
  152
 10
148.18377295909659
 20
75.928955898984555
 40
0.45
 50
180
 51
270
  0
ARC
  8
_0-1_
  6
CONTINUOUS
 62
  152
 10
148.18377295909659
 20
79.528955898984464
 40
0.45
 50
90
 51
180
  0
ARC
  8
_0-1_
  6
CONTINUOUS
 62
  152
 10
149.89599295909693
 20
77.683365898984562
 40
3.5984795000000003
 50
344.21599999999995
 51
15.783997000000026
  0
ARC
  8
_0-1_
  6
CONTINUOUS
 62
  152
 10
143.54023295909656
 20
77.683365898984562
 40
9.1391083999999996
 50
356.78919000000002
 51
3.2108098999999948
  0
ARC
  8
_0-1_
  6
CONTINUOUS
 62
  152
 10
152.54785295909687
 20
78.381105898984629
 40
0.8582684000000001
 50
19.118120000000001
 51
73.770895999999965
  0
ARC
  8
_0-1_
  6
CONTINUOUS
 62
  152
 10
152.3799629590967
 20
77.601855898984581
 40
1.6543543999999999
 50
75.730706999999995
 51
104.26929
  0
ARC
  8
_0-1_
  6
CONTINUOUS
 62
  152
 10
152.21206295909678
 20
78.381105898984629
 40
0.8582684000000001
 50
106.2291
 51
160.88186999999999
  0
ARC
  8
_0-1_
  6
CONTINUOUS
 62
  152
 10
154.86392295909673
 20
77.683365898984562
 40
3.5984795000000003
 50
164.21600000000004
 51
172.22375000000002
  0
ARC
  8
_0-1_
  6
CONTINUOUS
 62
  152
 10
152.3799629590967
 20
78.482345898984136
 40
0.2487944
 50
18.780933999999998
 51
161.21906000000001
  0
ARC
  8
_0-1_
  6
CONTINUOUS
 62
  152
 10
153.48427295909687
 20
78.194515898984378
 40
1.3894609
 50
164.64474000000004
 51
181.00007000000002
  0
ARC
  8
_0-1_
  6
CONTINUOUS
 62
  152
 10
151.27564295909679
 20
78.194515898984378
 40
1.3894609
 50
359.28076999999996
 51
15.355257999999957
  0
ARC
  8
_0-1_
  6
CONTINUOUS
 62
  152
 10
152.3799629590967
 20
76.88439589898428
 40
0.2487944
 50
198.78093000000001
 51
341.21906000000001
  0
ARC
  8
_0-1_
  6
CONTINUOUS
 62
  152
 10
151.27564295909679
 20
77.172225898984493
 40
1.3894609
 50
344.64474000000007
 51
0.719224299999991
  0
ARC
  8
_0-1_
  6
CONTINUOUS
 62
  152
 10
153.48427295909687
 20
77.172225898984493
 40
1.3894609
 50
184.35281000000006
 51
195.35525000000007
  0
ARC
  8
_0-1_
  6
CONTINUOUS
 62
  152
 10
152.21206295909678
 20
76.985635898984242
 40
0.8582684000000001
 50
199.11812000000006
 51
253.77089000000001
  0
ARC
  8
_0-1_
  6
CONTINUOUS
 62
  152
 10
154.86392295909673
 20
77.683365898984562
 40
3.5984795000000003
 50
189.86632000000003
 51
195.78399000000002
  0
ARC
  8
_0-1_
  6
CONTINUOUS
 62
  152
 10
152.3799629590967
 20
77.764885898984289
 40
1.6543543999999999
 50
255.73070000000004
 51
284.26929000000007
  0
ARC
  8
_0-1_
  6
CONTINUOUS
 62
  152
 10
152.54785295909687
 20
76.985635898984242
 40
0.8582684000000001
 50
286.22910000000002
 51
340.88186999999999
  0
ARC
  8
_0-1_
  6
CONTINUOUS
 62
  152
 10
147.21205295909658
 20
77.683365898984562
 40
3.5984795000000003
 50
344.21599999999995
 51
15.783997000000026
  0
ARC
  8
_0-1_
  6
CONTINUOUS
 62
  152
 10
140.85629295909666
 20
77.683365898984562
 40
9.1391083999999996
 50
356.78919000000002
 51
3.2108098999999948
  0
ARC
  8
_0-1_
  6
CONTINUOUS
 62
  152
 10
158.53574295909675
 20
77.683365898984562
 40
9.1391083999999996
 50
176.78918999999999
 51
183.21080000000001
  0
ARC
  8
_0-1_
  6
CONTINUOUS
 62
  152
 10
149.69602295909681
 20
78.482345898984136
 40
0.2487944
 50
18.780933999999998
 51
161.21906000000001
  0
ARC
  8
_0-1_
  6
CONTINUOUS
 62
  152
 10
149.69602295909681
 20
77.601855898984581
 40
1.6543543999999999
 50
75.730706999999995
 51
104.26929
  0
ARC
  8
_0-1_
  6
CONTINUOUS
 62
  152
 10
149.52812295909689
 20
78.381105898984629
 40
0.8582684000000001
 50
106.2291
 51
160.88186999999999
  0
ARC
  8
_0-1_
  6
CONTINUOUS
 62
  152
 10
149.86391295909652
 20
78.381105898984629
 40
0.8582684000000001
 50
19.118120000000001
 51
73.770895999999965
  0
ARC
  8
_0-1_
  6
CONTINUOUS
 62
  152
 10
152.17999295909658
 20
77.683365898984562
 40
3.5984795000000003
 50
164.21600000000004
 51
195.78399000000002
  0
ARC
  8
_0-1_
  6
CONTINUOUS
 62
  152
 10
150.80033295909652
 20
78.194515898984378
 40
1.3894609
 50
164.64474000000004
 51
180.71922000000004
  0
ARC
  8
_0-1_
  6
CONTINUOUS
 62
  152
 10
148.59170295909689
 20
78.194515898984378
 40
1.3894609
 50
359.28076999999996
 51
15.355257999999957
  0
ARC
  8
_0-1_
  6
CONTINUOUS
 62
  152
 10
148.59170295909689
 20
77.172225898984493
 40
1.3894609
 50
344.64474000000007
 51
0.719224299999991
  0
ARC
  8
_0-1_
  6
CONTINUOUS
 62
  152
 10
149.69602295909681
 20
76.88439589898428
 40
0.2487944
 50
198.78093000000001
 51
341.21906000000001
  0
ARC
  8
_0-1_
  6
CONTINUOUS
 62
  152
 10
150.80033295909652
 20
77.172225898984493
 40
1.3894609
 50
179.28076999999999
 51
195.35525000000001
  0
ARC
  8
_0-1_
  6
CONTINUOUS
 62
  152
 10
149.69602295909681
 20
77.764885898984289
 40
1.6543543999999999
 50
255.73070000000004
 51
284.26929000000007
  0
ARC
  8
_0-1_
  6
CONTINUOUS
 62
  152
 10
149.86391295909652
 20
76.985635898984242
 40
0.8582684000000001
 50
286.22910000000002
 51
340.88186999999999
  0
ARC
  8
_0-1_
  6
CONTINUOUS
 62
  152
 10
149.52812295909689
 20
76.985635898984242
 40
0.8582684000000001
 50
199.11812000000006
 51
253.77089000000001
  0
LINE
  8
_0-1_
  6
CONTINUOUS
 62
  152
 10
144.37419295909694
 20
234.76563779014629
 11
144.37419295909694
 21
204.76563779014626
  0
LINE
  8
_0-1_
  6
CENTER2
 62
  152
 10
177.62419295909694
 20
197.26563779014626
 11
167.12419295909694
 21
197.26563779014626
  0
LINE
  8
_0-1_
  6
CENTER2
 62
  152
 10
172.37419295909694
 20
192.01563779014626
 11
172.37419295909694
 21
202.51563779014626
  0
LINE
  8
_0-1_
  6
CONTINUOUS
 62
  152
 10
159.28377295909695
 20
199.51563779014626
 11
148.18377295909659
 21
199.51563779014626
  0
LINE
  8
_0-1_
  6
CONTINUOUS
 62
  152
 10
147.73377295909677
 20
199.06563779014644
 11
147.73377295909677
 21
195.46563779014653
  0
LINE
  8
_0-1_
  6
CONTINUOUS
 62
  152
 10
148.18377295909659
 20
195.01563779014626
 11
159.28377295909695
 21
195.01563779014626
  0
LINE
  8
_0-1_
  6
CONTINUOUS
 62
  152
 10
159.73377295909677
 20
195.46563779014653
 11
159.73377295909677
 21
199.06563779014644
  0
LINE
  8
_0-1_
  6
CONTINUOUS
 62
  152
 10
158.93176295909689
 20
198.75122779014603
 11
156.78775295909691
 21
198.75122779014603
  0
LINE
  8
_0-1_
  6
CONTINUOUS
 62
  152
 10
156.78775295909691
 20
198.75122779014603
 11
156.78775295909691
 21
198.20528779014651
  0
LINE
  8
_0-1_
  6
CONTINUOUS
 62
  152
 10
156.78775295909691
 20
198.20528779014651
 11
158.16810295909681
 21
198.20528779014651
  0
LINE
  8
_0-1_
  6
CONTINUOUS
 62
  152
 10
158.16810295909681
 20
198.20528779014651
 11
158.16810295909681
 21
195.68887779014588
  0
LINE
  8
_0-1_
  6
CONTINUOUS
 62
  152
 10
158.16810295909681
 20
195.68887779014588
 11
158.93176295909689
 21
195.68887779014588
  0
LINE
  8
_0-1_
  6
CONTINUOUS
 62
  152
 10
158.93176295909689
 20
195.68887779014588
 11
158.93176295909689
 21
198.75122779014603
  0
LINE
  8
_0-1_
  6
CONTINUOUS
 62
  152
 10
156.19855295909656
 20
198.75122779014603
 11
156.19855295909656
 21
195.68887779014588
  0
LINE
  8
_0-1_
  6
CONTINUOUS
 62
  152
 10
156.19855295909656
 20
195.68887779014588
 11
154.05398295909663
 21
195.68887779014588
  0
LINE
  8
_0-1_
  6
CONTINUOUS
 62
  152
 10
154.05398295909663
 20
195.68887779014588
 11
154.05398295909663
 21
196.23481779014631
  0
LINE
  8
_0-1_
  6
CONTINUOUS
 62
  152
 10
154.05398295909663
 20
196.23481779014631
 11
155.43760295909669
 21
196.23481779014631
  0
LINE
  8
_0-1_
  6
CONTINUOUS
 62
  152
 10
155.43760295909669
 20
196.23481779014631
 11
155.43760295909669
 21
196.9449877901466
  0
LINE
  8
_0-1_
  6
CONTINUOUS
 62
  152
 10
155.43760295909669
 20
196.9449877901466
 11
154.18592295909684
 21
196.9449877901466
  0
LINE
  8
_0-1_
  6
CONTINUOUS
 62
  152
 10
154.18592295909684
 20
196.9449877901466
 11
154.18592295909684
 21
197.45745779014626
  0
LINE
  8
_0-1_
  6
CONTINUOUS
 62
  152
 10
154.18592295909684
 20
197.45745779014626
 11
155.43760295909669
 21
197.45745779014626
  0
LINE
  8
_0-1_
  6
CONTINUOUS
 62
  152
 10
155.43760295909669
 20
197.45745779014626
 11
155.43760295909669
 21
198.20528779014651
  0
LINE
  8
_0-1_
  6
CONTINUOUS
 62
  152
 10
155.43760295909669
 20
198.20528779014651
 11
154.05398295909663
 21
198.20528779014651
  0
LINE
  8
_0-1_
  6
CONTINUOUS
 62
  152
 10
154.05398295909663
 20
198.20528779014651
 11
154.05398295909663
 21
198.75122779014603
  0
LINE
  8
_0-1_
  6
CONTINUOUS
 62
  152
 10
154.05398295909663
 20
198.75122779014603
 11
156.19855295909656
 21
198.75122779014603
  0
LINE
  8
_0-1_
  6
CONTINUOUS
 62
  152
 10
152.0950229590967
 20
197.70694779014642
 11
151.29854295909672
 21
197.70694779014642
  0
LINE
  8
_0-1_
  6
CONTINUOUS
 62
  152
 10
151.3186729590966
 20
196.60344779014625
 11
152.09882295909665
 21
196.60344779014625
  0
LINE
  8
_0-1_
  6
CENTER2
 62
  152
 10
172.37419295909694
 20
237.01563779014629
 11
172.37419295909694
 21
247.51563779014629
  0
LINE
  8
_0-1_
  6
CENTER2
 62
  152
 10
167.12419295909694
 20
242.26563779014629
 11
177.62419295909694
 21
242.26563779014629
  0
LINE
  8
_0-1_
  6
CONTINUOUS
 62
  152
 10
160.37419295909694
 20
240.46563779014656
 11
160.37419295909694
 21
244.06563779014647
  0
LINE
  8
_0-1_
  6
CONTINUOUS
 62
  152
 10
159.92419295909667
 20
244.51563779014629
 11
148.82419295909676
 21
244.51563779014629
  0
LINE
  8
_0-1_
  6
CONTINUOUS
 62
  152
 10
148.37419295909694
 20
244.06563779014647
 11
148.37419295909694
 21
240.46563779014656
  0
LINE
  8
_0-1_
  6
CONTINUOUS
 62
  152
 10
148.82419295909676
 20
240.01563779014629
 11
159.92419295909667
 21
240.01563779014629
  0
LINE
  8
_0-1_
  6
CONTINUOUS
 62
  152
 10
156.80942295909654
 20
241.82433779014633
 11
156.01294295909656
 21
241.82433779014633
  0
LINE
  8
_0-1_
  6
CONTINUOUS
 62
  152
 10
156.00914295909661
 20
242.9278277901463
 11
156.78929295909666
 21
242.9278277901463
  0
LINE
  8
_0-1_
  6
CONTINUOUS
 62
  152
 10
154.05398295909663
 20
243.29645779014623
 11
152.67036295909656
 21
243.29645779014623
  0
LINE
  8
_0-1_
  6
CONTINUOUS
 62
  152
 10
152.67036295909656
 20
243.29645779014623
 11
152.67036295909656
 21
242.58629779014615
  0
LINE
  8
_0-1_
  6
CONTINUOUS
 62
  152
 10
152.67036295909656
 20
242.58629779014615
 11
153.92204295909687
 21
242.58629779014615
  0
LINE
  8
_0-1_
  6
CONTINUOUS
 62
  152
 10
153.92204295909687
 20
242.58629779014615
 11
153.92204295909687
 21
242.07381779014628
  0
LINE
  8
_0-1_
  6
CONTINUOUS
 62
  152
 10
153.92204295909687
 20
242.07381779014628
 11
152.67036295909656
 21
242.07381779014628
  0
LINE
  8
_0-1_
  6
CONTINUOUS
 62
  152
 10
152.67036295909656
 20
242.07381779014628
 11
152.67036295909656
 21
241.32599779014623
  0
LINE
  8
_0-1_
  6
CONTINUOUS
 62
  152
 10
152.67036295909656
 20
241.32599779014623
 11
154.05398295909663
 21
241.32599779014623
  0
LINE
  8
_0-1_
  6
CONTINUOUS
 62
  152
 10
154.05398295909663
 20
241.32599779014623
 11
154.05398295909663
 21
240.78005779014626
  0
LINE
  8
_0-1_
  6
CONTINUOUS
 62
  152
 10
154.05398295909663
 20
240.78005779014626
 11
151.9094129590967
 21
240.78005779014626
  0
LINE
  8
_0-1_
  6
CONTINUOUS
 62
  152
 10
151.9094129590967
 20
240.78005779014626
 11
151.9094129590967
 21
243.84239779014666
  0
LINE
  8
_0-1_
  6
CONTINUOUS
 62
  152
 10
151.9094129590967
 20
243.84239779014666
 11
154.05398295909663
 21
243.84239779014666
  0
LINE
  8
_0-1_
  6
CONTINUOUS
 62
  152
 10
154.05398295909663
 20
243.84239779014666
 11
154.05398295909663
 21
243.29645779014623
  0
LINE
  8
_0-1_
  6
CONTINUOUS
 62
  152
 10
149.9398629590969
 20
243.84239779014666
 11
149.9398629590969
 21
241.32599779014623
  0
LINE
  8
_0-1_
  6
CONTINUOUS
 62
  152
 10
149.9398629590969
 20
241.32599779014623
 11
151.32021295909681
 21
241.32599779014623
  0
LINE
  8
_0-1_
  6
CONTINUOUS
 62
  152
 10
151.32021295909681
 20
241.32599779014623
 11
151.32021295909681
 21
240.78005779014626
  0
LINE
  8
_0-1_
  6
CONTINUOUS
 62
  152
 10
151.32021295909681
 20
240.78005779014626
 11
149.17620295909683
 21
240.78005779014626
  0
LINE
  8
_0-1_
  6
CONTINUOUS
 62
  152
 10
149.17620295909683
 20
240.78005779014626
 11
149.17620295909683
 21
243.84239779014666
  0
LINE
  8
_0-1_
  6
CONTINUOUS
 62
  152
 10
149.17620295909683
 20
243.84239779014666
 11
149.9398629590969
 21
243.84239779014666
  0
ARC
  8
_0-1_
  6
CONTINUOUS
 62
  152
 10
158.4119429590969
 20
241.51224779014643
 40
0.2487944
 50
198.78093000000001
 51
341.21906000000001
  0
ARC
  8
_0-1_
  6
CONTINUOUS
 62
  152
 10
155.72800295909656
 20
241.51224779014643
 40
0.2487944
 50
198.78093000000001
 51
341.21906000000001
  0
ARC
  8
_0-1_
  6
CONTINUOUS
 62
  152
 10
158.57984295909682
 20
243.00895779014633
 40
0.8582684000000001
 50
19.118120000000001
 51
73.770895999999965
  0
ARC
  8
_0-1_
  6
CONTINUOUS
 62
  152
 10
158.24404295909653
 20
243.00895779014633
 40
0.8582684000000001
 50
106.2291
 51
160.88186999999999
  0
ARC
  8
_0-1_
  6
CONTINUOUS
 62
  152
 10
158.4119429590969
 20
242.22970779014628
 40
1.6543543999999999
 50
75.730706999999995
 51
104.26929
  0
ARC
  8
_0-1_
  6
CONTINUOUS
 62
  152
 10
157.30763295909674
 20
242.82236779014653
 40
1.3894609
 50
359.28076999999996
 51
15.355257999999957
  0
ARC
  8
_0-1_
  6
CONTINUOUS
 62
  152
 10
158.4119429590969
 20
243.11020779014649
 40
0.2487944
 50
18.780933999999998
 51
161.21906000000001
  0
ARC
  8
_0-1_
  6
CONTINUOUS
 62
  152
 10
159.51625295909662
 20
242.82236779014653
 40
1.3894609
 50
164.64474000000004
 51
180.71922000000004
  0
ARC
  8
_0-1_
  6
CONTINUOUS
 62
  152
 10
159.51625295909662
 20
241.80008779014639
 40
1.3894609
 50
179.28076999999999
 51
195.35525000000001
  0
ARC
  8
_0-1_
  6
CONTINUOUS
 62
  152
 10
157.30763295909674
 20
241.80008779014639
 40
1.3894609
 50
344.64474000000007
 51
0.719224299999991
  0
ARC
  8
_0-1_
  6
CONTINUOUS
 62
  152
 10
155.92797295909668
 20
242.31122779014601
 40
3.5984795000000003
 50
344.21599999999995
 51
15.783997000000026
  0
ARC
  8
_0-1_
  6
CONTINUOUS
 62
  152
 10
158.24404295909653
 20
241.6134977901466
 40
0.8582684000000001
 50
199.11812000000006
 51
253.77089000000001
  0
ARC
  8
_0-1_
  6
CONTINUOUS
 62
  152
 10
158.57984295909682
 20
241.6134977901466
 40
0.8582684000000001
 50
286.22910000000002
 51
340.88186999999999
  0
ARC
  8
_0-1_
  6
CONTINUOUS
 62
  152
 10
158.4119429590969
 20
242.39274779014664
 40
1.6543543999999999
 50
255.73070000000004
 51
284.26929000000007
  0
ARC
  8
_0-1_
  6
CONTINUOUS
 62
  152
 10
149.57222295909696
 20
242.31122779014601
 40
9.1391083999999996
 50
356.78919000000002
 51
3.2108098999999948
  0
ARC
  8
_0-1_
  6
CONTINUOUS
 62
  152
 10
167.25166295909685
 20
242.31122779014601
 40
9.1391083999999996
 50
176.78918999999999
 51
183.21080000000001
  0
ARC
  8
_0-1_
  6
CONTINUOUS
 62
  152
 10
160.89591295909668
 20
242.31122779014601
 40
3.5984795000000003
 50
164.21600000000004
 51
195.78399000000002
  0
ARC
  8
_0-1_
  6
CONTINUOUS
 62
  152
 10
155.56010295909664
 20
243.00895779014633
 40
0.8582684000000001
 50
106.2291
 51
160.88186999999999
  0
ARC
  8
_0-1_
  6
CONTINUOUS
 62
  152
 10
155.72800295909656
 20
242.22970779014628
 40
1.6543543999999999
 50
75.730706999999995
 51
104.26929
  0
ARC
  8
_0-1_
  6
CONTINUOUS
 62
  152
 10
153.24403295909678
 20
242.31122779014601
 40
3.5984795000000003
 50
9.8663227000000013
 51
15.783997000000001
  0
ARC
  8
_0-1_
  6
CONTINUOUS
 62
  152
 10
155.89590295909693
 20
243.00895779014633
 40
0.8582684000000001
 50
19.118120000000001
 51
73.770895999999965
  0
ARC
  8
_0-1_
  6
CONTINUOUS
 62
  152
 10
154.62369295909684
 20
242.82236779014653
 40
1.3894609
 50
4.3528099999999998
 51
15.355258000000001
  0
ARC
  8
_0-1_
  6
CONTINUOUS
 62
  152
 10
156.83231295909673
 20
242.82236779014653
 40
1.3894609
 50
164.64474000000004
 51
180.71922000000004
  0
ARC
  8
_0-1_
  6
CONTINUOUS
 62
  152
 10
155.72800295909656
 20
243.11020779014649
 40
0.2487944
 50
18.780933999999998
 51
161.21906000000001
  0
ARC
  8
_0-1_
  6
CONTINUOUS
 62
  152
 10
156.83231295909673
 20
241.80008779014639
 40
1.3894609
 50
179.28076999999999
 51
195.35525000000001
  0
ARC
  8
_0-1_
  6
CONTINUOUS
 62
  152
 10
154.62369295909684
 20
241.80008779014639
 40
1.3894609
 50
344.64474000000007
 51
1.0000756000000433
  0
ARC
  8
_0-1_
  6
CONTINUOUS
 62
  152
 10
153.24403295909678
 20
242.31122779014601
 40
3.5984795000000003
 50
344.21599999999995
 51
352.22374999999994
  0
ARC
  8
_0-1_
  6
CONTINUOUS
 62
  152
 10
155.89590295909693
 20
241.6134977901466
 40
0.8582684000000001
 50
286.22910000000002
 51
340.88186999999999
  0
ARC
  8
_0-1_
  6
CONTINUOUS
 62
  152
 10
155.72800295909656
 20
242.39274779014664
 40
1.6543543999999999
 50
255.73070000000004
 51
284.26929000000007
  0
ARC
  8
_0-1_
  6
CONTINUOUS
 62
  152
 10
155.56010295909664
 20
241.6134977901466
 40
0.8582684000000001
 50
199.11812000000006
 51
253.77089000000001
  0
ARC
  8
_0-1_
  6
CONTINUOUS
 62
  152
 10
164.5677329590967
 20
242.31122779014601
 40
9.1391083999999996
 50
176.78918999999999
 51
183.21080000000001
  0
ARC
  8
_0-1_
  6
CONTINUOUS
 62
  152
 10
158.21197295909678
 20
242.31122779014601
 40
3.5984795000000003
 50
164.21600000000004
 51
195.78399000000002
  0
ARC
  8
_0-1_
  6
CONTINUOUS
 62
  152
 10
159.92419295909667
 20
240.46563779014656
 40
0.45
 50
270
 51
0
  0
ARC
  8
_0-1_
  6
CONTINUOUS
 62
  152
 10
159.92419295909667
 20
244.06563779014647
 40
0.45
 50
0
 51
90
  0
ARC
  8
_0-1_
  6
CONTINUOUS
 62
  152
 10
148.82419295909676
 20
244.06563779014647
 40
0.45
 50
90
 51
180
  0
ARC
  8
_0-1_
  6
CONTINUOUS
 62
  152
 10
148.82419295909676
 20
240.46563779014656
 40
0.45
 50
180
 51
270
  0
ARC
  8
_0-1_
  6
CONTINUOUS
 62
  152
 10
159.28377295909695
 20
199.06563779014644
 40
0.45
 50
0
 51
90
  0
ARC
  8
_0-1_
  6
CONTINUOUS
 62
  152
 10
159.28377295909695
 20
195.46563779014653
 40
0.45
 50
270
 51
0
  0
ARC
  8
_0-1_
  6
CONTINUOUS
 62
  152
 10
148.18377295909659
 20
195.46563779014653
 40
0.45
 50
180
 51
270
  0
ARC
  8
_0-1_
  6
CONTINUOUS
 62
  152
 10
148.18377295909659
 20
199.06563779014644
 40
0.45
 50
90
 51
180
  0
ARC
  8
_0-1_
  6
CONTINUOUS
 62
  152
 10
149.89599295909693
 20
197.22004779014654
 40
3.5984795000000003
 50
344.21599999999995
 51
15.783997000000026
  0
ARC
  8
_0-1_
  6
CONTINUOUS
 62
  152
 10
143.54023295909656
 20
197.22004779014654
 40
9.1391083999999996
 50
356.78919000000002
 51
3.2108098999999948
  0
ARC
  8
_0-1_
  6
CONTINUOUS
 62
  152
 10
152.54785295909687
 20
197.9177877901466
 40
0.8582684000000001
 50
19.118120000000001
 51
73.770895999999965
  0
ARC
  8
_0-1_
  6
CONTINUOUS
 62
  152
 10
152.3799629590967
 20
197.13853779014656
 40
1.6543543999999999
 50
75.730706999999995
 51
104.26929
  0
ARC
  8
_0-1_
  6
CONTINUOUS
 62
  152
 10
152.21206295909678
 20
197.9177877901466
 40
0.8582684000000001
 50
106.2291
 51
160.88186999999999
  0
ARC
  8
_0-1_
  6
CONTINUOUS
 62
  152
 10
154.86392295909673
 20
197.22004779014654
 40
3.5984795000000003
 50
164.21600000000004
 51
172.22375000000002
  0
ARC
  8
_0-1_
  6
CONTINUOUS
 62
  152
 10
152.3799629590967
 20
198.01902779014611
 40
0.2487944
 50
18.780933999999998
 51
161.21906000000001
  0
ARC
  8
_0-1_
  6
CONTINUOUS
 62
  152
 10
153.48427295909687
 20
197.73119779014635
 40
1.3894609
 50
164.64474000000004
 51
181.00007000000002
  0
ARC
  8
_0-1_
  6
CONTINUOUS
 62
  152
 10
151.27564295909679
 20
197.73119779014635
 40
1.3894609
 50
359.28076999999996
 51
15.355257999999957
  0
ARC
  8
_0-1_
  6
CONTINUOUS
 62
  152
 10
152.3799629590967
 20
196.42107779014626
 40
0.2487944
 50
198.78093000000001
 51
341.21906000000001
  0
ARC
  8
_0-1_
  6
CONTINUOUS
 62
  152
 10
151.27564295909679
 20
196.70890779014647
 40
1.3894609
 50
344.64474000000007
 51
0.719224299999991
  0
ARC
  8
_0-1_
  6
CONTINUOUS
 62
  152
 10
153.48427295909687
 20
196.70890779014647
 40
1.3894609
 50
184.35281000000006
 51
195.35525000000007
  0
ARC
  8
_0-1_
  6
CONTINUOUS
 62
  152
 10
152.21206295909678
 20
196.52231779014622
 40
0.8582684000000001
 50
199.11812000000006
 51
253.77089000000001
  0
ARC
  8
_0-1_
  6
CONTINUOUS
 62
  152
 10
154.86392295909673
 20
197.22004779014654
 40
3.5984795000000003
 50
189.86632000000003
 51
195.78399000000002
  0
ARC
  8
_0-1_
  6
CONTINUOUS
 62
  152
 10
152.3799629590967
 20
197.30156779014627
 40
1.6543543999999999
 50
255.73070000000004
 51
284.26929000000007
  0
ARC
  8
_0-1_
  6
CONTINUOUS
 62
  152
 10
152.54785295909687
 20
196.52231779014622
 40
0.8582684000000001
 50
286.22910000000002
 51
340.88186999999999
  0
ARC
  8
_0-1_
  6
CONTINUOUS
 62
  152
 10
147.21205295909658
 20
197.22004779014654
 40
3.5984795000000003
 50
344.21599999999995
 51
15.783997000000026
  0
ARC
  8
_0-1_
  6
CONTINUOUS
 62
  152
 10
140.85629295909666
 20
197.22004779014654
 40
9.1391083999999996
 50
356.78919000000002
 51
3.2108098999999948
  0
ARC
  8
_0-1_
  6
CONTINUOUS
 62
  152
 10
158.53574295909675
 20
197.22004779014654
 40
9.1391083999999996
 50
176.78918999999999
 51
183.21080000000001
  0
ARC
  8
_0-1_
  6
CONTINUOUS
 62
  152
 10
149.69602295909681
 20
198.01902779014611
 40
0.2487944
 50
18.780933999999998
 51
161.21906000000001
  0
ARC
  8
_0-1_
  6
CONTINUOUS
 62
  152
 10
149.69602295909681
 20
197.13853779014656
 40
1.6543543999999999
 50
75.730706999999995
 51
104.26929
  0
ARC
  8
_0-1_
  6
CONTINUOUS
 62
  152
 10
149.52812295909689
 20
197.9177877901466
 40
0.8582684000000001
 50
106.2291
 51
160.88186999999999
  0
ARC
  8
_0-1_
  6
CONTINUOUS
 62
  152
 10
149.86391295909652
 20
197.9177877901466
 40
0.8582684000000001
 50
19.118120000000001
 51
73.770895999999965
  0
ARC
  8
_0-1_
  6
CONTINUOUS
 62
  152
 10
152.17999295909658
 20
197.22004779014654
 40
3.5984795000000003
 50
164.21600000000004
 51
195.78399000000002
  0
ARC
  8
_0-1_
  6
CONTINUOUS
 62
  152
 10
150.80033295909652
 20
197.73119779014635
 40
1.3894609
 50
164.64474000000004
 51
180.71922000000004
  0
ARC
  8
_0-1_
  6
CONTINUOUS
 62
  152
 10
148.59170295909689
 20
197.73119779014635
 40
1.3894609
 50
359.28076999999996
 51
15.355257999999957
  0
ARC
  8
_0-1_
  6
CONTINUOUS
 62
  152
 10
148.59170295909689
 20
196.70890779014647
 40
1.3894609
 50
344.64474000000007
 51
0.719224299999991
  0
ARC
  8
_0-1_
  6
CONTINUOUS
 62
  152
 10
149.69602295909681
 20
196.42107779014626
 40
0.2487944
 50
198.78093000000001
 51
341.21906000000001
  0
ARC
  8
_0-1_
  6
CONTINUOUS
 62
  152
 10
150.80033295909652
 20
196.70890779014647
 40
1.3894609
 50
179.28076999999999
 51
195.35525000000001
  0
ARC
  8
_0-1_
  6
CONTINUOUS
 62
  152
 10
149.69602295909681
 20
197.30156779014627
 40
1.6543543999999999
 50
255.73070000000004
 51
284.26929000000007
  0
ARC
  8
_0-1_
  6
CONTINUOUS
 62
  152
 10
149.86391295909652
 20
196.52231779014622
 40
0.8582684000000001
 50
286.22910000000002
 51
340.88186999999999
  0
ARC
  8
_0-1_
  6
CONTINUOUS
 62
  152
 10
149.52812295909689
 20
196.52231779014622
 40
0.8582684000000001
 50
199.11812000000006
 51
253.77089000000001
  0
LINE
  8
_0-1_
  6
CENTER2
 62
  152
 10
257.14942860748602
 20
77.728955898984282
 11
272.54942860748565
 21
77.728955898984282
  0
LINE
  8
_0-1_
  6
CENTER2
 62
  152
 10
257.14942860748602
 20
152.72895589898434
 11
272.54942860748565
 21
152.72895589898434
  0
LINE
  8
_0-1_
  6
CENTER2
 62
  152
 10
172.37419295909694
 20
49.229616717970373
 11
172.37419295909694
 21
16.627231245784003
  0
LINE
  8
ADD_LINE
  6
DOT
 62
  152
 10
172.37419295909694
 20
33.829616622584183
 11
171.66708617792938
 21
33.122509841416615
  0
LINE
  8
ADD_LINE
  6
DOT
 62
  152
 10
173.08129974030271
 20
33.122509841416615
 11
172.37419295911604
 21
33.829616622603282
  0
LINE
  8
_0-2_
  6
CONTINUOUS
 62
  152
 10
168.87422866013753
 20
26.62961969911936
 11
175.87406345587738
 21
26.62959373697737
  0
LINE
  8
_0-2_
  6
CONTINUOUS
 62
  152
 10
177.46160149870843
 20
30.229616717970714
 11
177.19917080962273
 21
33.229605144178606
  0
LINE
  8
_0-2_
  6
CONTINUOUS
 62
  152
 10
175.87406345587738
 20
26.62959373697737
 11
179.05290843739726
 21
28.464858702146614
  0
LINE
  8
_0-2_
  6
CONTINUOUS
 62
  152
 10
179.37414693102232
 20
30.229616717970714
 11
177.46160149870843
 21
30.229616717970714
  0
LINE
  8
_0-2_
  6
CONTINUOUS
 62
  152
 10
179.05290843739726
 20
28.464858702146614
 11
179.37414693102232
 21
30.229616717970714
  0
LINE
  8
_0-2_
  6
CONTINUOUS
 62
  152
 10
167.28671115126349
 20
30.229616717970714
 11
167.54921510860936
 21
33.229638291756203
  0
LINE
  8
_0-2_
  6
CONTINUOUS
 62
  152
 10
177.19917080962273
 20
33.229605144178606
 11
167.54921510860936
 21
33.229638291756203
  0
LINE
  8
_0-2_
  6
CONTINUOUS
 62
  152
 10
168.87431060616768
 20
26.62959373697737
 11
165.6954656246478
 21
28.464858702146614
  0
LINE
  8
_0-2_
  6
CONTINUOUS
 62
  152
 10
165.37422713102274
 20
30.229616717970714
 11
167.28677256333663
 21
30.229616717970714
  0
LINE
  8
_0-2_
  6
CONTINUOUS
 62
  152
 10
165.6954656246478
 20
28.464858702146614
 11
165.37422713102274
 21
30.229616717970714
  0
LINE
  8
_0-2_
  6
CONTINUOUS
 62
  152
 10
169.37419295909694
 20
33.229632022961141
 11
169.37419295909694
 21
33.829616717970737
  0
LINE
  8
_0-2_
  6
CONTINUOUS
 62
  152
 10
169.82419300678066
 20
33.829616717970737
 11
169.82419300678066
 21
33.229630477211913
  0
LINE
  8
_0-2_
  6
CONTINUOUS
 62
  152
 10
174.92419291141323
 20
33.829616717970737
 11
174.92419291141323
 21
33.229612958722896
  0
LINE
  8
_0-2_
  6
CONTINUOUS
 62
  152
 10
175.37419295909694
 20
33.229611412973668
 11
175.37419295909694
 21
33.829616717970737
  0
LINE
  8
ADD_LINE
  6
DOT
 62
  152
 10
49.198957215321684
 20
77.728955898984282
 11
48.491850434154117
 21
78.436062680151849
  0
LINE
  8
ADD_LINE
  6
DOT
 62
  152
 10
48.491850434154117
 20
77.021849117778515
 11
49.198957215340783
 21
77.728955898965182
  0
LINE
  8
ADD_LINE
  6
DOT
 62
  152
 10
49.198957215321684
 20
152.72895589898434
 11
48.491850434154117
 21
153.43606268015191
  0
LINE
  8
ADD_LINE
  6
DOT
 62
  152
 10
48.491850434154117
 20
152.02184911777857
 11
49.198957215340783
 21
152.72895589896524
  0
LINE
  8
_0-1_
  6
CENTER2
 62
  152
 10
64.598957310707874
 20
152.72895589898434
 11
41.26181195699121
 21
152.72895589898434
  0
LINE
  8
_0-1_
  6
CENTER2
 62
  152
 10
64.598957310707874
 20
77.728955898984282
 11
41.252152715559419
 21
77.728955898984282
  0
LINE
  8
ADD_LINE
  6
DOT
 62
  152
 10
272.54942870287221
 20
77.728955898984282
 11
273.25653548403977
 21
78.436062680151849
  0
LINE
  8
ADD_LINE
  6
DOT
 62
  152
 10
273.25653548403977
 20
77.021849117778515
 11
272.54942870285311
 21
77.728955898965182
  0
LINE
  8
ADD_LINE
  6
DOT
 62
  152
 10
272.54942870287221
 20
152.72895589898434
 11
273.25653548403977
 21
153.43606268015191
  0
LINE
  8
ADD_LINE
  6
DOT
 62
  152
 10
273.25653548403977
 20
152.02184911777857
 11
272.54942870285311
 21
152.72895589896524
  0
LINE
  8
_0-1_
  6
CENTER2
 62
  152
 10
257.14942860748602
 20
197.26563779014626
 11
272.54942860748565
 21
197.26563779014626
  0
LINE
  8
ADD_LINE
  6
DOT
 62
  152
 10
49.198957215321684
 20
197.26563779014626
 11
48.491850434154117
 21
197.97274457131383
  0
LINE
  8
ADD_LINE
  6
DOT
 62
  152
 10
48.491850434154117
 20
196.55853100894049
 11
49.198957215340783
 21
197.26563779012716
  0
LINE
  8
_0-1_
  6
CENTER2
 62
  152
 10
64.598957310707874
 20
197.26563779014626
 11
41.252152715559419
 21
197.26563779014626
  0
LINE
  8
ADD_LINE
  6
DOT
 62
  152
 10
272.54942870287221
 20
197.26563779014626
 11
273.25653548403977
 21
197.97274457131383
  0
LINE
  8
ADD_LINE
  6
DOT
 62
  152
 10
273.25653548403977
 20
196.55853100894049
 11
272.54942870285311
 21
197.26563779012716
  0
LINE
  8
_0-1_
  6
CENTER2
 62
  152
 10
257.14942860748602
 20
242.26563779014629
 11
272.54942860748565
 21
242.26563779014629
  0
LINE
  8
ADD_LINE
  6
DOT
 62
  152
 10
49.198957215321684
 20
242.26563779014629
 11
48.491850434154117
 21
242.97274457131385
  0
LINE
  8
ADD_LINE
  6
DOT
 62
  152
 10
48.491850434154117
 20
241.55853100894052
 11
49.198957215340783
 21
242.26563779012719
  0
LINE
  8
_0-1_
  6
CENTER2
 62
  152
 10
64.598957310707874
 20
242.26563779014629
 11
41.26181195699121
 21
242.26563779014629
  0
LINE
  8
ADD_LINE
  6
DOT
 62
  152
 10
272.54942870287221
 20
242.26563779014629
 11
273.25653548403977
 21
242.97274457131385
  0
LINE
  8
ADD_LINE
  6
DOT
 62
  152
 10
273.25653548403977
 20
241.55853100894052
 11
272.54942870285311
 21
242.26563779012719
  0
LINE
  8
_0-3_
  6
PHANTOM1
 62
  152
 10
152.37419295909694
 20
33.829616717970737
 11
192.37419295909694
 21
33.829616717970737
  0
LINE
  8
_0-3_
  6
PHANTOM1
 62
  152
 10
109.37419295909694
 20
33.829616717970737
 11
149.37419295909694
 21
33.829616717970737
  0
LINE
  8
_0-3_
  6
PHANTOM1
 62
  152
 10
152.3741929107083
 20
69.728955898984282
 11
152.3741929107083
 21
63.694708165269731
  0
LINE
  8
_0-3_
  6
PHANTOM1
 62
  152
 10
152.3741929107083
 20
258.92525384097468
 11
152.3741929107083
 21
250.26563779014629
  0
LINE
  8
_0-3_
  6
PHANTOM1
 62
  152
 10
152.3741929107083
 20
189.26563779014626
 11
152.3741929107083
 21
160.72895589898434
  0
LINE
  8
_0-3_
  6
PHANTOM1
 62
  152
 10
192.37419296070823
 20
258.92525384097468
 11
192.37419296070823
 21
234.76563779014629
  0
LINE
  8
_0-3_
  6
PHANTOM1
 62
  152
 10
192.37419296070823
 20
204.76563779014626
 11
192.37419296070823
 21
145.22895589898434
  0
LINE
  8
_0-3_
  6
PHANTOM1
 62
  152
 10
192.37419296070823
 20
85.228955898984282
 11
192.37419296070823
 21
63.694708165269731
  0
LINE
  8
_0-3_
  6
PHANTOM1
 62
  152
 10
152.37419295909694
 20
13.829616717970737
 11
152.37419295909694
 21
33.829616717970737
  0
LINE
  8
_0-3_
  6
PHANTOM1
 62
  152
 10
152.37419295909694
 20
13.829616717970737
 11
192.37419295909694
 21
13.829616717970737
  0
LINE
  8
_0-3_
  6
PHANTOM1
 62
  152
 10
192.37419295909694
 20
33.829616717970737
 11
192.37419295909694
 21
13.829616717970737
  0
LINE
  8
_0-3_
  6
PHANTOM1
 62
  152
 10
109.37419295909694
 20
33.829616717970737
 11
109.37419295909694
 21
6.8471201705535236
  0
LINE
  8
_0-3_
  6
PHANTOM1
 62
  152
 10
149.37419295909694
 20
33.829616717970737
 11
149.37419295909694
 21
7.6540855821290279
  0
LINE
  8
_0-3_
  6
PHANTOM1
 62
  152
 10
272.54942861070822
 20
258.92525384097468
 11
272.54942861070822
 21
60.399376286354425
  0
LINE
  8
_0-3_
  6
PHANTOM1
 62
  152
 10
312.54942861070822
 20
258.92525384097468
 11
312.54942861070822
 21
60.399376286354425
  0
LINE
  8
_0-3_
  6
PHANTOM1
 62
  152
 10
49.198957310708238
 20
258.92525384097468
 11
49.198957310708238
 21
60.931640862376128
  0
LINE
  8
_0-3_
  6
PHANTOM1
 62
  152
 10
9.1989573107081242
 20
258.92525384097468
 11
9.1989573107081242
 21
60.931640862376128
  0
ENDSEC
  0
EOF
