  0
SECTION
  2
HEADER
  9
$ACADVER
  1
AC1009
  9
$INSBASE
 10
0
 20
0
 30
0
  9
$EXTMIN
 10
0
 20
0
  9
$EXTMAX
 10
1189
 20
841
  9
$LIMMIN
 10
0
 20
0
  9
$LIMMAX
 10
1189
 20
841
  9
$LTSCALE
 40
1
  0
ENDSEC
  0
SECTION
  2
TABLES
  0
TABLE
  2
LTYPE
 70
     9
  0
LTYPE
  2
CONTINUOUS
 70
    64
  3
実線
 72
    65
 73
     0
 40
0.0
  0
LTYPE
  2
DASHED1
 70
    64
  3
--  --  --  --  --  --  --  --  
 72
    65
 73
     2
 40
2.5
 49
1.25
 49
-1.25
  0
LTYPE
  2
DASHED2
 70
    64
  3
----    ----    ----    ----    
 72
    65
 73
     2
 40
5.0
 49
2.5
 49
-2.5
  0
LTYPE
  2
DASHED3
 70
    64
  3
------  ------  ------  ------  
 72
    65
 73
     2
 40
5.0
 49
3.75
 49
-1.25
  0
LTYPE
  2
CENTER1
 70
    64
  3
----- - ----- - ----- - ----- - 
 72
    65
 73
     4
 40
10.0
 49
6.25
 49
-1.25
 49
1.25
 49
-1.25
  0
LTYPE
  2
CENTER2
 70
    64
  3
----------  --  ----------  --  
 72
    65
 73
     4
 40
20.0
 49
12.5
 49
-2.5
 49
2.5
 49
-2.5
  0
LTYPE
  2
PHANTOM1
 70
    64
  3
--- - - --- - - --- - - --- - - 
 72
    65
 73
     6
 40
10.0
 49
3.25
 49
-1.25
 49
1.25
 49
-1.25
 49
1.25
 49
-1.25
  0
LTYPE
  2
PHANTOM2
 70
    64
  3
--------  -  -  --------  -  -  
 72
    65
 73
     6
 40
20.0
 49
10.0
 49
-2.5
 49
1.25
 49
-2.5
 49
1.25
 49
-2.5
  0
LTYPE
  2
DOT
 70
    64
  3
-   -   -   -   -   -   -   -   
 72
    65
 73
     2
 40
2.5
 49
0.625
 49
-1.875
  0
LTYPE
  2
DUMMY
 70
    64
  3
ダミー
 72
    65
 73
     0
 40
0.0
  0
LTYPE
  2
RAND1
 70
    64
  3
ランダム線1
 72
    65
 73
     4
 40
10.0
 49
1.0
 49
-2.0
 49
3.0
 49
-4.0
  0
LTYPE
  2
RAND2
 70
    64
  3
ランダム線2
 72
    65
 73
     4
 40
14.0
 49
2.0
 49
-3.0
 49
4.0
 49
-5.0
  0
LTYPE
  2
RAND3
 70
    64
  3
ランダム線3
 72
    65
 73
     4
 40
18.0
 49
3.0
 49
-4.0
 49
5.0
 49
-6.0
  0
LTYPE
  2
RAND4
 70
    64
  3
ランダム線4
 72
    65
 73
     4
 40
22.0
 49
4.0
 49
-5.0
 49
6.0
 49
-7.0
  0
LTYPE
  2
RAND5
 70
    64
  3
ランダム線5
 72
    65
 73
     4
 40
26.0
 49
5.0
 49
-6.0
 49
7.0
 49
-8.0
  0
LTYPE
  2
LONG1
 70
    64
  3
----------  --  ----------  --  
 72
    65
 73
     4
 40
40.0
 49
32.5
 49
-2.5
 49
2.5
 49
-2.5
  0
LTYPE
  2
LONG2
 70
    64
  3
--------  -  -  --------  -  -  
 72
    65
 73
     6
 40
40.0
 49
30.0
 49
-2.5
 49
1.25
 49
-2.5
 49
1.25
 49
-2.5
  0
LTYPE
  2
LONG3
 70
    64
  3
+++++++++++++++..+++++++++++++++
 72
    65
 73
     2
 40
40.0
 49
37.5
 49
-2.5
  0
LTYPE
  2
LONG4
 70
    64
  3
+++++++++++++++..+++++++++++++++
 72
    65
 73
     2
 40
80.0
 49
75.0
 49
-5.0
  0
LTYPE
  2
LONG5
 70
    64
  3
----------  --  ----------  --  
 72
    65
 73
     4
 40
60.0
 49
37.5
 49
-7.5
 49
7.5
 49
-7.5
  0
LTYPE
  2
dashed
 70
   64
  3
-------   -------------   ------
 72
   65
 73
    2
 40
7.5
 49
6
 49
-1.5
  0
LTYPE
  2
dashed_spaced
 70
   64
  3
----        --------        ----
 72
   65
 73
    2
 40
12
 49
6
 49
-6
  0
LTYPE
  2
long_dashed_dotted
 70
   64
  3
------------- --- --------------
 72
   65
 73
    4
 40
15.25
 49
12
 49
-1.5
 49
0.25
 49
-1.5
  0
LTYPE
  2
long_dashed_double-dotted
 70
   64
  3
----------- --- --- ------------
 72
   65
 73
    6
 40
17
 49
12
 49
-1.5
 49
0.25
 49
-1.5
 49
0.25
 49
-1.5
  0
LTYPE
  2
long_dashed_triplicate-dotted
 70
   64
  3
--------- --- --- --- ----------
 72
   65
 73
    8
 40
18.75
 49
12
 49
-1.5
 49
0.25
 49
-1.5
 49
0.25
 49
-1.5
 49
0.25
 49
-1.5
  0
LTYPE
  2
dotted
 70
   64
  3
   -       -       -       -    
 72
   65
 73
    2
 40
1.75
 49
0.25
 49
-1.5
  0
LTYPE
  2
chain
 70
   64
  3
-------------- -- --------------
 72
   65
 73
    4
 40
18.5
 49
12
 49
-1.5
 49
3.5
 49
-1.5
  0
LTYPE
  2
chain_double_dash
 70
   64
  3
------------ -- -- -------------
 72
   65
 73
    6
 40
23.5
 49
12
 49
-1.5
 49
3.5
 49
-1.5
 49
3.5
 49
-1.5
  0
LTYPE
  2
dashed_dotted
 70
   64
  3
-----------     -     ----------
 72
   65
 73
    4
 40
9.25
 49
6
 49
-1.5
 49
0.25
 49
-1.5
  0
LTYPE
  2
double-dashed_dotted
 70
   64
  3
------   -----------   -   -----
 72
   65
 73
    6
 40
16.75
 49
6
 49
-1.5
 49
6
 49
-1.5
 49
0.25
 49
-1.5
  0
LTYPE
  2
dashed_double-dotted
 70
   64
  3
---------    -    -    ---------
 72
   65
 73
    6
 40
11
 49
6
 49
-1.5
 49
0.25
 49
-1.5
 49
0.25
 49
-1.5
  0
LTYPE
  2
double-dashed_double-dotted
 70
   64
  3
-----   ---------   -   -   ----
 72
   65
 73
    8
 40
18.5
 49
6
 49
-1.5
 49
6
 49
-1.5
 49
0.25
 49
-1.5
 49
0.25
 49
-1.5
  0
LTYPE
  2
dashed_triplicate-dotted
 70
   64
  3
-------    -    -    -    ------
 72
   65
 73
    8
 40
12.75
 49
6
 49
-1.5
 49
0.25
 49
-1.5
 49
0.25
 49
-1.5
 49
0.25
 49
-1.5
  0
LTYPE
  2
double-dashed_triplicate-dotted
 70
   64
  3
-----  ---------  -  -  -  -----
 72
   65
 73
   10
 40
20.25
 49
6
 49
-1.5
 49
6
 49
-1.5
 49
0.25
 49
-1.5
 49
0.25
 49
-1.5
 49
0.25
 49
-1.5
  0
LTYPE
  2
undefined
 70
   64
  3
--------------------------------
 72
   65
 73
    0
 40
0
  0
ENDTAB
  0
TABLE
  2
STYLE
  5
3
100
AcDbSymbolTable
 70
     1
  0
STYLE
  5
10
100
AcDbSymbolTableRecord
100
AcDbTextStyleTableRecord
  2
STANDARD
 70
     0
 40
0.0
 41
1.0
 50
0.0
 71
     0
 42
0.2
  3
txt
  4
bigfont.shx
  0
STYLE
  5
26
100
AcDbSymbolTableRecord
100
AcDbTextStyleTableRecord
  2
TATEGAKI
 70
    68
 40
0.0
 41
1.0
 50
0.0
 71
     0
 42
1.0
  3
txt
  4
bigfont.shx
  0
ENDTAB
  0
TABLE
  2
LAYER
 70
    5
  0
LAYER
  2
_0-0_
 70
   64
 62
    7
  6
CONTINUOUS
  0
LAYER
  2
_0-1_
 70
   64
 62
    7
  6
CONTINUOUS
  0
LAYER
  2
_0-3_
 70
   64
 62
    7
  6
CONTINUOUS
  0
LAYER
  2
_0-e_
 70
   64
 62
    7
  6
CONTINUOUS
  0
LAYER
  2
ADD_LINE
 70
   64
 62
    7
  6
CONTINUOUS
  0
ENDTAB
  0
ENDSEC
  0
SECTION
  2
BLOCKS
  0
ENDSEC
  0
SECTION
  2
ENTITIES
  0
LINE
  8
_0-0_
  6
CONTINUOUS
 62
    7
 10
172.89931446685927
 20
140.4830804333111
 11
172.89931446685927
 21
80.483080433311102
  0
LINE
  8
_0-0_
  6
CONTINUOUS
 62
    7
 10
172.89931446685927
 20
80.483080433311102
 11
89.006784466859187
 21
80.483080433311102
  0
LINE
  8
_0-0_
  6
CONTINUOUS
 62
    7
 10
89.006784466859187
 20
80.483080433311102
 11
89.006784466859187
 21
140.4830804333111
  0
LINE
  8
_0-0_
  6
CONTINUOUS
 62
    7
 10
89.006784466859187
 20
140.4830804333111
 11
172.89931446685927
 21
140.4830804333111
  0
LINE
  8
_0-0_
  6
CONTINUOUS
 62
    7
 10
137.89931446685927
 20
140.4830804333111
 11
137.89931446685927
 21
150.4830804333111
  0
LINE
  8
_0-0_
  6
CONTINUOUS
 62
    7
 10
134.89931446685927
 20
153.4830804333111
 11
105.89931446685927
 21
153.4830804333111
  0
LINE
  8
_0-0_
  6
CONTINUOUS
 62
    7
 10
102.89931446685927
 20
150.4830804333111
 11
102.89931446685927
 21
140.4830804333111
  0
LINE
  8
_0-0_
  6
CONTINUOUS
 62
    7
 10
119.89931446685927
 20
140.4830804333111
 11
119.89931446685927
 21
80.483080433311102
  0
LINE
  8
_0-0_
  6
CONTINUOUS
 62
    7
 10
121.39931446685927
 20
80.483080433311102
 11
121.39931446685927
 21
140.4830804333111
  0
LINE
  8
_0-0_
  6
CONTINUOUS
 62
    7
 10
120.39931446685927
 20
144.75103043331148
 11
121.89931446685927
 21
145.61705043331142
  0
LINE
  8
_0-0_
  6
CONTINUOUS
 62
    7
 10
121.89931446685927
 20
145.61705043331142
 11
121.89931446685927
 21
147.34910043331149
  0
LINE
  8
_0-0_
  6
CONTINUOUS
 62
    7
 10
121.89931446685927
 20
147.34910043331149
 11
120.39931446685927
 21
148.21513043331117
  0
LINE
  8
_0-0_
  6
CONTINUOUS
 62
    7
 10
120.39931446685927
 20
148.21513043331117
 11
118.89931446685927
 21
147.34910043331149
  0
LINE
  8
_0-0_
  6
CONTINUOUS
 62
    7
 10
118.89931446685927
 20
147.34910043331149
 11
118.89931446685927
 21
145.61705043331142
  0
LINE
  8
_0-0_
  6
CONTINUOUS
 62
    7
 10
118.89931446685927
 20
145.61705043331142
 11
120.39931446685927
 21
144.75103043331148
  0
LINE
  8
_0-0_
  6
CONTINUOUS
 62
    7
 10
120.39931446685927
 20
76.215130433311174
 11
118.89931446685927
 21
75.349100433311492
  0
LINE
  8
_0-0_
  6
CONTINUOUS
 62
    7
 10
118.89931446685927
 20
75.349100433311492
 11
118.89931446685927
 21
73.617050433310965
  0
LINE
  8
_0-0_
  6
CONTINUOUS
 62
    7
 10
118.89931446685927
 20
73.617050433310965
 11
120.39931446685927
 21
72.751030433311485
  0
LINE
  8
_0-0_
  6
CONTINUOUS
 62
    7
 10
120.39931446685927
 20
72.751030433311485
 11
121.89931446685927
 21
73.617050433310965
  0
LINE
  8
_0-0_
  6
CONTINUOUS
 62
    7
 10
121.89931446685927
 20
73.617050433310965
 11
121.89931446685927
 21
75.349100433311492
  0
LINE
  8
_0-0_
  6
CONTINUOUS
 62
    7
 10
121.89931446685927
 20
75.349100433311492
 11
120.39931446685927
 21
76.215130433311174
  0
LINE
  8
_0-0_
  6
CONTINUOUS
 62
    7
 10
102.89931446685927
 20
80.483080433311102
 11
102.89931446685927
 21
70.483080433311102
  0
LINE
  8
_0-0_
  6
CONTINUOUS
 62
    7
 10
105.89931446685927
 20
67.483080433311102
 11
134.89931446685927
 21
67.483080433311102
  0
LINE
  8
_0-0_
  6
CONTINUOUS
 62
    7
 10
137.89931446685927
 20
70.483080433311102
 11
137.89931446685927
 21
80.483080433311102
  0
CIRCLE
  8
_0-0_
  6
CONTINUOUS
 62
    7
 10
120.39931446685927
 20
146.4830804333111
 40
3.75
  0
ARC
  8
_0-0_
  6
CONTINUOUS
 62
    7
 10
105.89931446685927
 20
150.4830804333111
 40
3.0000000000000004
 50
90
 51
180
  0
ARC
  8
_0-0_
  6
CONTINUOUS
 62
    7
 10
134.89931446685927
 20
150.4830804333111
 40
3.0000000000000004
 50
0
 51
90
  0
CIRCLE
  8
_0-0_
  6
CONTINUOUS
 62
    7
 10
120.39931446685927
 20
146.4830804333111
 40
3.5000000000000004
  0
CIRCLE
  8
_0-0_
  6
CONTINUOUS
 62
    7
 10
120.39931446685927
 20
74.483080433311102
 40
3.75
  0
ARC
  8
_0-0_
  6
CONTINUOUS
 62
    7
 10
105.89931446685927
 20
70.483080433311102
 40
3.0000000000000004
 50
180
 51
270
  0
ARC
  8
_0-0_
  6
CONTINUOUS
 62
    7
 10
134.89931446685927
 20
70.483080433311102
 40
3.0000000000000004
 50
270
 51
0
  0
CIRCLE
  8
_0-0_
  6
CONTINUOUS
 62
    7
 10
120.39931446685927
 20
74.483080433311102
 40
3.5000000000000004
  0
LINE
  8
_0-0_
  6
CONTINUOUS
 62
    7
 10
172.89931446685927
 20
200.01976232447305
 11
89.006784466859415
 21
200.01976232447305
  0
LINE
  8
_0-0_
  6
CONTINUOUS
 62
    7
 10
89.006784466859415
 20
200.01976232447305
 11
89.006784466859415
 21
230.01976232447305
  0
LINE
  8
_0-0_
  6
CONTINUOUS
 62
    7
 10
89.006784466859415
 20
230.01976232447305
 11
172.89931446685927
 21
230.01976232447305
  0
LINE
  8
_0-0_
  6
CONTINUOUS
 62
    7
 10
172.89931446685927
 20
230.01976232447305
 11
172.89931446685927
 21
200.01976232447305
  0
LINE
  8
_0-0_
  6
CONTINUOUS
 62
    7
 10
137.89931446685927
 20
200.01976232447305
 11
137.89931446685927
 21
190.01976232447305
  0
LINE
  8
_0-0_
  6
CONTINUOUS
 62
    7
 10
134.89931446685927
 20
187.01976232447305
 11
105.89931446685927
 21
187.01976232447305
  0
LINE
  8
_0-0_
  6
CONTINUOUS
 62
    7
 10
102.89931446685927
 20
190.01976232447305
 11
102.89931446685927
 21
200.01976232447305
  0
LINE
  8
_0-0_
  6
CONTINUOUS
 62
    7
 10
119.89931446685927
 20
200.01976232447305
 11
119.89931446685927
 21
230.01976232447305
  0
LINE
  8
_0-0_
  6
CONTINUOUS
 62
    7
 10
121.39931446685927
 20
230.01976232447305
 11
121.39931446685927
 21
200.01976232447305
  0
LINE
  8
_0-0_
  6
CONTINUOUS
 62
    7
 10
120.39931446685927
 20
195.75181232447312
 11
118.89931446685927
 21
194.88578232447344
  0
LINE
  8
_0-0_
  6
CONTINUOUS
 62
    7
 10
118.89931446685927
 20
194.88578232447344
 11
118.89931446685927
 21
193.15373232447291
  0
LINE
  8
_0-0_
  6
CONTINUOUS
 62
    7
 10
118.89931446685927
 20
193.15373232447291
 11
120.39931446685927
 21
192.28771232447343
  0
LINE
  8
_0-0_
  6
CONTINUOUS
 62
    7
 10
120.39931446685927
 20
192.28771232447343
 11
121.89931446685927
 21
193.15373232447291
  0
LINE
  8
_0-0_
  6
CONTINUOUS
 62
    7
 10
121.89931446685927
 20
193.15373232447291
 11
121.89931446685927
 21
194.88578232447344
  0
LINE
  8
_0-0_
  6
CONTINUOUS
 62
    7
 10
121.89931446685927
 20
194.88578232447344
 11
120.39931446685927
 21
195.75181232447312
  0
LINE
  8
_0-0_
  6
CONTINUOUS
 62
    7
 10
134.89931446685927
 20
243.01976232447305
 11
105.89931446685927
 21
243.01976232447305
  0
LINE
  8
_0-0_
  6
CONTINUOUS
 62
    7
 10
102.89931446685927
 20
240.01976232447305
 11
102.89931446685927
 21
230.01976232447305
  0
LINE
  8
_0-0_
  6
CONTINUOUS
 62
    7
 10
118.89931446685927
 20
235.15373232447337
 11
118.89931446685927
 21
236.88578232447344
  0
LINE
  8
_0-0_
  6
CONTINUOUS
 62
    7
 10
118.89931446685927
 20
236.88578232447344
 11
120.39931446685927
 21
237.75181232447312
  0
LINE
  8
_0-0_
  6
CONTINUOUS
 62
    7
 10
120.39931446685927
 20
237.75181232447312
 11
121.89931446685927
 21
236.88578232447344
  0
LINE
  8
_0-0_
  6
CONTINUOUS
 62
    7
 10
121.89931446685927
 20
236.88578232447344
 11
121.89931446685927
 21
235.15373232447337
  0
LINE
  8
_0-0_
  6
CONTINUOUS
 62
    7
 10
121.89931446685927
 20
235.15373232447337
 11
120.39931446685927
 21
234.28771232447343
  0
LINE
  8
_0-0_
  6
CONTINUOUS
 62
    7
 10
120.39931446685927
 20
234.28771232447343
 11
118.89931446685927
 21
235.15373232447337
  0
LINE
  8
_0-0_
  6
CONTINUOUS
 62
    7
 10
137.89931446685927
 20
240.01976232447305
 11
137.89931446685927
 21
230.01976232447305
  0
CIRCLE
  8
_0-0_
  6
CONTINUOUS
 62
    7
 10
120.39931446685927
 20
236.01976232447305
 40
3.75
  0
ARC
  8
_0-0_
  6
CONTINUOUS
 62
    7
 10
105.89931446685927
 20
240.01976232447305
 40
3.0000000000000004
 50
90
 51
180
  0
ARC
  8
_0-0_
  6
CONTINUOUS
 62
    7
 10
134.89931446685927
 20
240.01976232447305
 40
3.0000000000000004
 50
0
 51
90
  0
CIRCLE
  8
_0-0_
  6
CONTINUOUS
 62
    7
 10
120.39931446685927
 20
194.01976232447305
 40
3.75
  0
ARC
  8
_0-0_
  6
CONTINUOUS
 62
    7
 10
105.89931446685927
 20
190.01976232447305
 40
3.0000000000000004
 50
180
 51
270
  0
ARC
  8
_0-0_
  6
CONTINUOUS
 62
    7
 10
134.89931446685927
 20
190.01976232447305
 40
3.0000000000000004
 50
270
 51
0
  0
CIRCLE
  8
_0-0_
  6
CONTINUOUS
 62
    7
 10
120.39931446685927
 20
236.01976232447305
 40
3.5000000000000004
  0
CIRCLE
  8
_0-0_
  6
CONTINUOUS
 62
    7
 10
120.39931446685927
 20
194.01976232447305
 40
3.5000000000000004
  0
LINE
  8
_0-0_
  6
CONTINUOUS
 62
    7
 10
172.89931446685927
 20
42.983741252297591
 11
172.89931446685927
 21
42.923251252297291
  0
LINE
  8
_0-0_
  6
CONTINUOUS
 62
    7
 10
171.89931446685927
 20
43.983741252297591
 11
104.39931446685927
 21
43.983741252297591
  0
LINE
  8
_0-0_
  6
CONTINUOUS
 62
    7
 10
102.89931446685927
 20
42.483741252297591
 11
102.89931446685927
 21
29.0837412522975
  0
LINE
  8
_0-0_
  6
CONTINUOUS
 62
    7
 10
102.89931446685927
 20
31.387591252297284
 11
100.26990446685926
 21
30.683041252297357
  0
LINE
  8
_0-0_
  6
CONTINUOUS
 62
    7
 10
99.899314466859266
 20
30.200081252297537
 11
99.899314466859266
 21
29.5837412522975
  0
LINE
  8
_0-0_
  6
CONTINUOUS
 62
    7
 10
100.39931446685927
 20
29.0837412522975
 11
141.39931446685927
 21
29.0837412522975
  0
LINE
  8
_0-0_
  6
CONTINUOUS
 62
    7
 10
141.89931446685927
 20
29.5837412522975
 11
141.89931446685927
 21
30.5837412522975
  0
LINE
  8
_0-0_
  6
CONTINUOUS
 62
    7
 10
141.39931446685927
 20
31.0837412522975
 11
139.3879944668592
 21
31.0837412522975
  0
LINE
  8
_0-0_
  6
CONTINUOUS
 62
    7
 10
138.95497446685926
 20
31.3337412522975
 11
137.89931446685927
 21
33.162211252297425
  0
LINE
  8
_0-0_
  6
CONTINUOUS
 62
    7
 10
137.89931446685927
 20
32.5837412522975
 11
137.94461446685949
 21
32.5837412522975
  0
LINE
  8
_0-0_
  6
CONTINUOUS
 62
    7
 10
137.89931446685927
 20
29.0837412522975
 11
137.89931446685927
 21
42.483741252297591
  0
LINE
  8
_0-0_
  6
CONTINUOUS
 62
    7
 10
142.70456446685915
 20
40.240431252297299
 11
171.46102446685921
 21
41.424521252297495
  0
LINE
  8
_0-0_
  6
CONTINUOUS
 62
    7
 10
123.39931446685927
 20
44.283741252297318
 11
123.69931446685945
 21
43.983741252297591
  0
LINE
  8
_0-0_
  6
CONTINUOUS
 62
    7
 10
123.39931446685927
 20
44.283741252297318
 11
117.39931446685927
 21
44.283741252297318
  0
LINE
  8
_0-0_
  6
CONTINUOUS
 62
    7
 10
117.39931446685927
 20
44.283741252297318
 11
117.09931446685908
 21
43.983741252297591
  0
LINE
  8
_0-0_
  6
CONTINUOUS
 62
    7
 10
102.89931446685927
 20
42.246811252297562
 11
89.52322446685929
 21
30.630121252297272
  0
LINE
  8
_0-0_
  6
CONTINUOUS
 62
    7
 10
89.446124466859317
 20
28.436941252297515
 11
93.992204466859164
 21
23.890851252297693
  0
LINE
  8
_0-0_
  6
CONTINUOUS
 62
    7
 10
95.406424466859278
 20
23.890851252297693
 11
95.575094466859298
 21
24.059521252297714
  0
LINE
  8
_0-0_
  6
CONTINUOUS
 62
    7
 10
95.657344466859229
 20
25.380571252297273
 11
92.989474466859463
 21
28.810681252297513
  0
LINE
  8
_0-0_
  6
CONTINUOUS
 62
    7
 10
93.055474466859266
 20
29.494431252297659
 11
101.00843446685889
 21
36.432131252297609
  0
LINE
  8
_0-0_
  6
CONTINUOUS
 62
    7
 10
139.93021446685947
 20
36.466511252297664
 11
141.2038744668593
 21
31.713151252297507
  0
ARC
  8
_0-0_
  6
CONTINUOUS
 62
    7
 10
137.94461446685949
 20
32.0837412522975
 40
0.5
 50
29.999999999999996
 51
90
  0
ARC
  8
_0-0_
  6
CONTINUOUS
 62
    7
 10
139.3879944668592
 20
31.5837412522975
 40
0.5
 50
210.00000000000003
 51
270
  0
ARC
  8
_0-0_
  6
CONTINUOUS
 62
    7
 10
141.39931446685927
 20
29.5837412522975
 40
0.5
 50
270
 51
0
  0
ARC
  8
_0-0_
  6
CONTINUOUS
 62
    7
 10
141.39931446685927
 20
30.5837412522975
 40
0.5
 50
0
 51
90
  0
ARC
  8
_0-0_
  6
CONTINUOUS
 62
    7
 10
100.39931446685927
 20
29.5837412522975
 40
0.5
 50
180
 51
270
  0
ARC
  8
_0-0_
  6
CONTINUOUS
 62
    7
 10
100.39931446685927
 20
30.200081252297537
 40
0.5
 50
105.00000000000001
 51
180
  0
ARC
  8
_0-0_
  6
CONTINUOUS
 62
    7
 10
94.699314466859448
 20
24.597961252297523
 40
1
 50
225
 51
315
  0
ARC
  8
_0-0_
  6
CONTINUOUS
 62
    7
 10
94.851744466859088
 20
24.750391252297163
 40
1
 50
315.00000000000006
 51
315.89738000000006
  0
ARC
  8
_0-0_
  6
CONTINUOUS
 62
    7
 10
90.506784466859187
 20
29.497601252297613
 40
1.5000000000000002
 50
130.97323000000003
 51
225
  0
ARC
  8
_0-0_
  6
CONTINUOUS
 62
    7
 10
94.867984466859014
 20
24.766631252297543
 40
1
 50
315.00000000000006
 51
37.874983000000036
  0
ARC
  8
_0-0_
  6
CONTINUOUS
 62
    7
 10
93.384154466858888
 20
29.117651252297605
 40
0.5
 50
131.09950000000001
 51
217.87497999999999
  0
ARC
  8
_0-0_
  6
CONTINUOUS
 62
    7
 10
171.89931446685927
 20
42.983741252297591
 40
1
 50
0
 51
90
  0
ARC
  8
_0-0_
  6
CONTINUOUS
 62
    7
 10
171.39931446685927
 20
42.923251252297291
 40
1.5000000000000002
 50
272.35789999999997
 51
0.0000000000000254
  0
ARC
  8
_0-0_
  6
CONTINUOUS
 62
    7
 10
142.82799446685925
 20
37.242971252297707
 40
3.0000000000000004
 50
92.357904999999988
 51
194.99999999999997
  0
ARC
  8
_0-0_
  6
CONTINUOUS
 62
    7
 10
136.39931446685927
 20
42.483741252297591
 40
1.5000000000000002
 50
0
 51
90
  0
ARC
  8
_0-0_
  6
CONTINUOUS
 62
    7
 10
104.39931446685927
 20
42.483741252297591
 40
1.5000000000000002
 50
90
 51
180
  0
ARC
  8
_0-0_
  6
CONTINUOUS
 62
    7
 10
102.32317446685914
 20
34.924991252297445
 40
2
 50
73.257454999999993
 51
131.09950000000001
  0
ARC
  8
_0-0_
  6
CONTINUOUS
 62
    7
 10
140.72090446685928
 20
31.5837412522975
 40
0.5
 50
270
 51
15.000000000000009
  0
LINE
  8
_0-0_
  6
CONTINUOUS
 62
    7
 10
42.919158756821844
 20
67.483080433311102
 11
29.519158756821753
 21
67.483080433311102
  0
ARC
  8
_0-0_
  6
CONTINUOUS
 62
    7
 10
42.919158756821844
 20
68.983080433311102
 40
1.5
 50
270
 51
0
  0
LINE
  8
_0-0_
  6
CONTINUOUS
 62
    7
 10
29.519158756821753
 20
67.483080433311102
 11
29.519158756821753
 21
80.483080433311102
  0
LINE
  8
_0-0_
  6
CONTINUOUS
 62
    7
 10
44.419158756821844
 20
80.483080433311102
 11
24.033378756821776
 21
80.483080433311102
  0
LINE
  8
_0-0_
  6
CONTINUOUS
 62
    7
 10
44.719158756821571
 20
71.483080433311102
 11
44.419158756821844
 21
71.18308043331092
  0
LINE
  8
_0-0_
  6
CONTINUOUS
 62
    7
 10
44.719158756821571
 20
71.483080433311102
 11
44.719158756821571
 21
77.483080433311102
  0
LINE
  8
_0-0_
  6
CONTINUOUS
 62
    7
 10
44.719158756821571
 20
77.483080433311102
 11
44.419158756821844
 21
77.783080433311284
  0
LINE
  8
_0-0_
  6
CONTINUOUS
 62
    7
 10
42.919158756821844
 20
153.4830804333111
 11
29.519158756821753
 21
153.4830804333111
  0
ARC
  8
_0-0_
  6
CONTINUOUS
 62
    7
 10
42.919158756821844
 20
151.9830804333111
 40
1.5
 50
0
 51
90
  0
LINE
  8
_0-0_
  6
CONTINUOUS
 62
    7
 10
29.519158756821753
 20
153.4830804333111
 11
29.519158756821753
 21
140.4830804333111
  0
LINE
  8
_0-0_
  6
CONTINUOUS
 62
    7
 10
44.419158756821844
 20
140.4830804333111
 11
24.033378756821776
 21
140.4830804333111
  0
LINE
  8
_0-0_
  6
CONTINUOUS
 62
    7
 10
44.719158756821571
 20
149.4830804333111
 11
44.419158756821844
 21
149.78308043331128
  0
LINE
  8
_0-0_
  6
CONTINUOUS
 62
    7
 10
44.719158756821571
 20
149.4830804333111
 11
44.719158756821571
 21
143.4830804333111
  0
LINE
  8
_0-0_
  6
CONTINUOUS
 62
    7
 10
44.719158756821571
 20
143.4830804333111
 11
44.419158756821844
 21
143.18308043331092
  0
LINE
  8
_0-0_
  6
CONTINUOUS
 62
    7
 10
44.419158756821844
 20
68.983080433311102
 11
44.419158756821844
 21
151.9830804333111
  0
LINE
  8
_0-0_
  6
CONTINUOUS
 62
    7
 10
24.033378756821776
 20
80.483080433311102
 11
24.033378756821776
 21
140.4830804333111
  0
LINE
  8
_0-0_
  6
CONTINUOUS
 62
    7
 10
30.010309610845297
 20
80.483080433311102
 11
30.010309610845297
 21
140.4830804333111
  0
LINE
  8
_0-0_
  6
CONTINUOUS
 62
    7
 10
214.03074249348566
 20
67.483080433311102
 11
227.43074249348575
 21
67.483080433311102
  0
ARC
  8
_0-0_
  6
CONTINUOUS
 62
    7
 10
214.03074249348566
 20
68.983080433311102
 40
1.5
 50
180
 51
270
  0
LINE
  8
_0-0_
  6
CONTINUOUS
 62
    7
 10
212.23074249348593
 20
71.483080433311102
 11
212.53074249348566
 21
71.18308043331092
  0
LINE
  8
_0-0_
  6
CONTINUOUS
 62
    7
 10
212.23074249348593
 20
71.483080433311102
 11
212.23074249348593
 21
77.483080433311102
  0
LINE
  8
_0-0_
  6
CONTINUOUS
 62
    7
 10
212.23074249348593
 20
77.483080433311102
 11
212.53074249348566
 21
77.783080433311284
  0
LINE
  8
_0-0_
  6
CONTINUOUS
 62
    7
 10
214.03074249348566
 20
153.4830804333111
 11
227.43074249348575
 21
153.4830804333111
  0
ARC
  8
_0-0_
  6
CONTINUOUS
 62
    7
 10
214.03074249348566
 20
151.9830804333111
 40
1.5
 50
90
 51
180
  0
LINE
  8
_0-0_
  6
CONTINUOUS
 62
    7
 10
212.23074249348593
 20
149.4830804333111
 11
212.53074249348566
 21
149.78308043331128
  0
LINE
  8
_0-0_
  6
CONTINUOUS
 62
    7
 10
212.23074249348593
 20
149.4830804333111
 11
212.23074249348593
 21
143.4830804333111
  0
LINE
  8
_0-0_
  6
CONTINUOUS
 62
    7
 10
212.23074249348593
 20
143.4830804333111
 11
212.53074249348566
 21
143.18308043331092
  0
LINE
  8
_0-0_
  6
CONTINUOUS
 62
    7
 10
212.53074249348566
 20
68.983080433311102
 11
212.53074249348566
 21
151.9830804333111
  0
LINE
  8
_0-0_
  6
CONTINUOUS
 62
    7
 10
215.08996248837144
 20
80.483080433311102
 11
215.08996248837144
 21
140.4830804333111
  0
LINE
  8
_0-0_
  6
CONTINUOUS
 62
    7
 10
227.43074249348575
 20
153.4830804333111
 11
227.43074249348575
 21
67.483080433311102
  0
LINE
  8
_0-0_
  6
CONTINUOUS
 62
    7
 10
212.53074249348566
 20
80.483080433311102
 11
227.43074249348575
 21
80.483080433311102
  0
LINE
  8
_0-0_
  6
CONTINUOUS
 62
    7
 10
212.53074249348566
 20
140.4830804333111
 11
227.43074249348575
 21
140.4830804333111
  0
LINE
  8
_0-0_
  6
CONTINUOUS
 62
    7
 10
225.43074249348575
 20
140.4830804333111
 11
225.43074249348575
 21
80.483080433311102
  0
LINE
  8
_0-0_
  6
CONTINUOUS
 62
    7
 10
42.919158756821844
 20
187.01976232447305
 11
29.519158756821753
 21
187.01976232447305
  0
ARC
  8
_0-0_
  6
CONTINUOUS
 62
    7
 10
42.919158756821844
 20
188.51976232447305
 40
1.5
 50
270
 51
0
  0
LINE
  8
_0-0_
  6
CONTINUOUS
 62
    7
 10
29.519158756821753
 20
187.01976232447305
 11
29.519158756821753
 21
200.01976232447305
  0
LINE
  8
_0-0_
  6
CONTINUOUS
 62
    7
 10
44.419158756821844
 20
200.01976232447305
 11
24.033378756821776
 21
200.01976232447305
  0
LINE
  8
_0-0_
  6
CONTINUOUS
 62
    7
 10
44.719158756821571
 20
191.01976232447305
 11
44.419158756821844
 21
190.71976232447287
  0
LINE
  8
_0-0_
  6
CONTINUOUS
 62
    7
 10
44.719158756821571
 20
191.01976232447305
 11
44.719158756821571
 21
197.01976232447305
  0
LINE
  8
_0-0_
  6
CONTINUOUS
 62
    7
 10
44.719158756821571
 20
197.01976232447305
 11
44.419158756821844
 21
197.31976232447323
  0
LINE
  8
_0-0_
  6
CONTINUOUS
 62
    7
 10
214.03074249348566
 20
187.01976232447305
 11
227.43074249348575
 21
187.01976232447305
  0
ARC
  8
_0-0_
  6
CONTINUOUS
 62
    7
 10
214.03074249348566
 20
188.51976232447305
 40
1.5
 50
180
 51
270
  0
LINE
  8
_0-0_
  6
CONTINUOUS
 62
    7
 10
212.23074249348593
 20
191.01976232447305
 11
212.53074249348566
 21
190.71976232447287
  0
LINE
  8
_0-0_
  6
CONTINUOUS
 62
    7
 10
212.23074249348593
 20
191.01976232447305
 11
212.23074249348593
 21
197.01976232447305
  0
LINE
  8
_0-0_
  6
CONTINUOUS
 62
    7
 10
212.23074249348593
 20
197.01976232447305
 11
212.53074249348566
 21
197.31976232447323
  0
LINE
  8
_0-0_
  6
CONTINUOUS
 62
    7
 10
212.53074249348566
 20
200.01976232447305
 11
227.43074249348575
 21
200.01976232447305
  0
LINE
  8
_0-0_
  6
CONTINUOUS
 62
    7
 10
42.919158756821844
 20
243.01976232447305
 11
29.519158756821753
 21
243.01976232447305
  0
ARC
  8
_0-0_
  6
CONTINUOUS
 62
    7
 10
42.919158756821844
 20
241.51976232447305
 40
1.5
 50
0
 51
90
  0
LINE
  8
_0-0_
  6
CONTINUOUS
 62
    7
 10
29.519158756821753
 20
243.01976232447305
 11
29.519158756821753
 21
230.01976232447305
  0
LINE
  8
_0-0_
  6
CONTINUOUS
 62
    7
 10
44.419158756821844
 20
230.01976232447305
 11
24.033378756821776
 21
230.01976232447305
  0
LINE
  8
_0-0_
  6
CONTINUOUS
 62
    7
 10
44.719158756821571
 20
239.01976232447305
 11
44.419158756821844
 21
239.31976232447323
  0
LINE
  8
_0-0_
  6
CONTINUOUS
 62
    7
 10
44.719158756821571
 20
239.01976232447305
 11
44.719158756821571
 21
233.01976232447305
  0
LINE
  8
_0-0_
  6
CONTINUOUS
 62
    7
 10
44.719158756821571
 20
233.01976232447305
 11
44.419158756821844
 21
232.71976232447287
  0
LINE
  8
_0-0_
  6
CONTINUOUS
 62
    7
 10
44.419158756821844
 20
188.51976232447305
 11
44.419158756821844
 21
241.51976232447305
  0
LINE
  8
_0-0_
  6
CONTINUOUS
 62
    7
 10
24.033378756821776
 20
200.01976232447305
 11
24.033378756821776
 21
230.01976232447305
  0
LINE
  8
_0-0_
  6
CONTINUOUS
 62
    7
 10
30.010309610845297
 20
200.01976232447305
 11
30.010309610845297
 21
230.01976232447305
  0
LINE
  8
_0-0_
  6
CONTINUOUS
 62
    7
 10
214.03074249348566
 20
243.01976232447305
 11
227.43074249348575
 21
243.01976232447305
  0
ARC
  8
_0-0_
  6
CONTINUOUS
 62
    7
 10
214.03074249348566
 20
241.51976232447305
 40
1.5
 50
90
 51
180
  0
LINE
  8
_0-0_
  6
CONTINUOUS
 62
    7
 10
212.23074249348593
 20
239.01976232447305
 11
212.53074249348566
 21
239.31976232447323
  0
LINE
  8
_0-0_
  6
CONTINUOUS
 62
    7
 10
212.23074249348593
 20
239.01976232447305
 11
212.23074249348593
 21
233.01976232447305
  0
LINE
  8
_0-0_
  6
CONTINUOUS
 62
    7
 10
212.23074249348593
 20
233.01976232447305
 11
212.53074249348566
 21
232.71976232447287
  0
LINE
  8
_0-0_
  6
CONTINUOUS
 62
    7
 10
212.53074249348566
 20
188.51976232447305
 11
212.53074249348566
 21
241.51976232447305
  0
LINE
  8
_0-0_
  6
CONTINUOUS
 62
    7
 10
215.08996248837144
 20
200.01976232447305
 11
215.08996248837144
 21
230.01976232447305
  0
LINE
  8
_0-0_
  6
CONTINUOUS
 62
    7
 10
227.43074249348575
 20
243.01976232447305
 11
227.43074249348575
 21
187.01976232447305
  0
LINE
  8
_0-0_
  6
CONTINUOUS
 62
    7
 10
212.53074249348566
 20
230.01976232447305
 11
227.43074249348575
 21
230.01976232447305
  0
LINE
  8
_0-0_
  6
CONTINUOUS
 62
    7
 10
225.43074249348575
 20
230.01976232447305
 11
225.43074249348575
 21
200.01976232447305
  0
LINE
  8
_0-1_
  6
CENTER2
 62
  152
 10
120.39931446685927
 20
150.2330804333111
 11
120.39931446685927
 21
142.7330804333111
  0
LINE
  8
_0-1_
  6
CENTER2
 62
  152
 10
116.64931446685927
 20
146.4830804333111
 11
124.14931446685927
 21
146.4830804333111
  0
LINE
  8
_0-1_
  6
CONTINUOUS
 62
  152
 10
104.89931446685927
 20
140.4830804333111
 11
104.89931446685927
 21
80.483080433311102
  0
LINE
  8
_0-1_
  6
CENTER2
 62
  152
 10
120.39931446685927
 20
78.233080433311102
 11
120.39931446685927
 21
70.733080433311102
  0
LINE
  8
_0-1_
  6
CENTER2
 62
  152
 10
116.64931446685927
 20
74.483080433311102
 11
124.14931446685927
 21
74.483080433311102
  0
LINE
  8
_0-1_
  6
CONTINUOUS
 62
  152
 10
104.89931446685927
 20
230.01976232447305
 11
104.89931446685927
 21
200.01976232447305
  0
LINE
  8
_0-1_
  6
CENTER2
 62
  152
 10
120.39931446685927
 20
197.76976232447305
 11
120.39931446685927
 21
190.26976232447305
  0
LINE
  8
_0-1_
  6
CENTER2
 62
  152
 10
116.64931446685927
 20
194.01976232447305
 11
124.14931446685927
 21
194.01976232447305
  0
LINE
  8
_0-1_
  6
CENTER2
 62
  152
 10
120.39931446685927
 20
232.26976232447305
 11
120.39931446685927
 21
239.76976232447305
  0
LINE
  8
_0-1_
  6
CENTER2
 62
  152
 10
124.14931446685927
 20
236.01976232447305
 11
116.64931446685927
 21
236.01976232447305
  0
LINE
  8
_0-1_
  6
CENTER2
 62
  152
 10
120.39931446685927
 20
43.983741252297591
 11
120.39931446685927
 21
29.0837412522975
  0
LINE
  8
_0-1_
  6
CENTER1
 62
  152
 10
120.39931446685927
 20
26.5837412522975
 11
120.39931446685927
 21
16.5837412522975
  0
LINE
  8
_0-1_
  6
CENTER1
 62
  152
 10
115.39931446685927
 20
21.5837412522975
 11
125.39931446685927
 21
21.5837412522975
  0
TEXT
  8
_0-e_
 62
    7
 10
64.762192769759167
 20
224.74153838747856
 40
5
 41
1
 50
0
  1
LA25-L30
  0
TEXT
  8
_0-e_
 62
    7
 10
64.18166765632941
 20
134.17962069243913
 40
5
 41
1
 50
0
  1
LA25-L60
  0
LINE
  8
_0-3_
  6
PHANTOM1
 62
  152
 10
105.39931446685927
 20
14.0837412522975
 11
135.39931446685927
 21
14.0837412522975
  0
LINE
  8
_0-3_
  6
PHANTOM1
 62
  152
 10
135.39931446685927
 20
14.0837412522975
 11
135.39931446685927
 21
29.0837412522975
  0
LINE
  8
_0-3_
  6
PHANTOM1
 62
  152
 10
135.39931446685927
 20
29.0837412522975
 11
105.39931446685927
 21
29.0837412522975
  0
LINE
  8
_0-3_
  6
PHANTOM1
 62
  152
 10
105.39931446685927
 20
29.0837412522975
 11
105.39931446685927
 21
14.0837412522975
  0
LINE
  8
_0-3_
  6
PHANTOM1
 62
  152
 10
102.89931446685927
 20
29.0837412522975
 11
77.899314466859323
 21
29.0837412522975
  0
LINE
  8
_0-3_
  6
PHANTOM1
 62
  152
 10
77.899314466859323
 20
29.0837412522975
 11
77.899314466859323
 21
4.0837412522975001
  0
LINE
  8
_0-3_
  6
PHANTOM1
 62
  152
 10
102.89931446685927
 20
4.0837412522975001
 11
77.899314466859323
 21
4.0837412522975001
  0
LINE
  8
_0-3_
  6
PHANTOM1
 62
  152
 10
102.89931446685927
 20
29.0837412522975
 11
102.89931446685927
 21
4.0837412522975001
  0
LINE
  8
_0-3_
  6
PHANTOM1
 62
  152
 10
105.39931446685927
 20
153.44112032486089
 11
105.39931446685927
 21
187.06172243292323
  0
LINE
  8
_0-3_
  6
PHANTOM1
 62
  152
 10
135.39931446685927
 20
153.44112032486089
 11
135.39931446685927
 21
187.06172243292323
  0
LINE
  8
_0-3_
  6
PHANTOM1
 62
  152
 10
105.39931446685927
 20
56.197237523903198
 11
105.39931446685927
 21
67.525040541761314
  0
LINE
  8
_0-3_
  6
PHANTOM1
 62
  152
 10
135.39931446685927
 20
56.197237523903198
 11
135.39931446685927
 21
67.525040541761314
  0
LINE
  8
_0-1_
  6
CENTER2
 62
  152
 10
47.453128780704674
 20
74.483080433311102
 11
26.893727789695163
 21
74.483080433311102
  0
LINE
  8
_0-1_
  6
CENTER2
 62
  152
 10
47.453128780704674
 20
146.4830804333111
 11
26.893727789695163
 21
146.4830804333111
  0
LINE
  8
_0-1_
  6
CENTER2
 62
  152
 10
209.49677246960283
 20
74.483080433311102
 11
230.05617346061246
 21
74.483080433311102
  0
LINE
  8
_0-1_
  6
CENTER2
 62
  152
 10
209.49677246960283
 20
146.4830804333111
 11
230.05617346061246
 21
146.4830804333111
  0
LINE
  8
_0-3_
  6
PHANTOM1
 62
  152
 10
105.39931446685927
 20
242.97780221602284
 11
105.39931446685927
 21
254.85351839680891
  0
LINE
  8
_0-3_
  6
PHANTOM1
 62
  152
 10
135.39931446685927
 20
242.97780221602284
 11
135.39931446685927
 21
254.85351839680891
  0
LINE
  8
_0-3_
  6
PHANTOM1
 62
  152
 10
29.519158756859269
 20
56.197237523903198
 11
29.519158756859269
 21
254.85351839680891
  0
LINE
  8
_0-3_
  6
PHANTOM1
 62
  152
 10
227.43074245685921
 20
56.197237523903198
 11
227.43074245685921
 21
254.85351839680891
  0
LINE
  8
_0-3_
  6
PHANTOM1
 62
  152
 10
4.5191587568592695
 20
56.197237523903198
 11
4.5191587568592695
 21
254.85351839680891
  0
LINE
  8
_0-3_
  6
PHANTOM1
 62
  152
 10
252.43074245685921
 20
56.197237523903198
 11
252.43074245685921
 21
254.85351839680891
  0
LINE
  8
_0-1_
  6
CENTER2
 62
  152
 10
47.453128780704674
 20
194.01976232447305
 11
26.893727789695163
 21
194.01976232447305
  0
LINE
  8
_0-1_
  6
CENTER2
 62
  152
 10
209.49677246960283
 20
194.01976232447305
 11
230.05617346061246
 21
194.01976232447305
  0
LINE
  8
_0-1_
  6
CENTER2
 62
  152
 10
47.453128780704674
 20
236.01976232447305
 11
26.893727789695163
 21
236.01976232447305
  0
LINE
  8
_0-1_
  6
CENTER2
 62
  152
 10
209.49677246960283
 20
236.01976232447305
 11
230.05617346061246
 21
236.01976232447305
  0
ENDSEC
  0
EOF
