  0
SECTION
  2
HEADER
  9
$ACADVER
  1
AC1009
  9
$INSBASE
 10
0
 20
0
 30
0
  9
$EXTMIN
 10
0
 20
0
  9
$EXTMAX
 10
297
 20
210
  9
$LIMMIN
 10
0
 20
0
  9
$LIMMAX
 10
297
 20
210
  9
$LTSCALE
 40
1
  0
ENDSEC
  0
SECTION
  2
TABLES
  0
TABLE
  2
LTYPE
 70
     9
  0
LTYPE
  2
CONTINUOUS
 70
    64
  3
実線
 72
    65
 73
     0
 40
0.0
  0
LTYPE
  2
DASHED1
 70
    64
  3
--  --  --  --  --  --  --  --  
 72
    65
 73
     2
 40
2.5
 49
1.25
 49
-1.25
  0
LTYPE
  2
DASHED2
 70
    64
  3
----    ----    ----    ----    
 72
    65
 73
     2
 40
5.0
 49
2.5
 49
-2.5
  0
LTYPE
  2
DASHED3
 70
    64
  3
------  ------  ------  ------  
 72
    65
 73
     2
 40
5.0
 49
3.75
 49
-1.25
  0
LTYPE
  2
CENTER1
 70
    64
  3
----- - ----- - ----- - ----- - 
 72
    65
 73
     4
 40
10.0
 49
6.25
 49
-1.25
 49
1.25
 49
-1.25
  0
LTYPE
  2
CENTER2
 70
    64
  3
----------  --  ----------  --  
 72
    65
 73
     4
 40
20.0
 49
12.5
 49
-2.5
 49
2.5
 49
-2.5
  0
LTYPE
  2
PHANTOM1
 70
    64
  3
--- - - --- - - --- - - --- - - 
 72
    65
 73
     6
 40
10.0
 49
3.25
 49
-1.25
 49
1.25
 49
-1.25
 49
1.25
 49
-1.25
  0
LTYPE
  2
PHANTOM2
 70
    64
  3
--------  -  -  --------  -  -  
 72
    65
 73
     6
 40
20.0
 49
10.0
 49
-2.5
 49
1.25
 49
-2.5
 49
1.25
 49
-2.5
  0
LTYPE
  2
DOT
 70
    64
  3
-   -   -   -   -   -   -   -   
 72
    65
 73
     2
 40
2.5
 49
0.625
 49
-1.875
  0
LTYPE
  2
DUMMY
 70
    64
  3
ダミー
 72
    65
 73
     0
 40
0.0
  0
LTYPE
  2
RAND1
 70
    64
  3
ランダム線1
 72
    65
 73
     4
 40
10.0
 49
1.0
 49
-2.0
 49
3.0
 49
-4.0
  0
LTYPE
  2
RAND2
 70
    64
  3
ランダム線2
 72
    65
 73
     4
 40
14.0
 49
2.0
 49
-3.0
 49
4.0
 49
-5.0
  0
LTYPE
  2
RAND3
 70
    64
  3
ランダム線3
 72
    65
 73
     4
 40
18.0
 49
3.0
 49
-4.0
 49
5.0
 49
-6.0
  0
LTYPE
  2
RAND4
 70
    64
  3
ランダム線4
 72
    65
 73
     4
 40
22.0
 49
4.0
 49
-5.0
 49
6.0
 49
-7.0
  0
LTYPE
  2
RAND5
 70
    64
  3
ランダム線5
 72
    65
 73
     4
 40
26.0
 49
5.0
 49
-6.0
 49
7.0
 49
-8.0
  0
LTYPE
  2
LONG1
 70
    64
  3
----------  --  ----------  --  
 72
    65
 73
     4
 40
40.0
 49
32.5
 49
-2.5
 49
2.5
 49
-2.5
  0
LTYPE
  2
LONG2
 70
    64
  3
--------  -  -  --------  -  -  
 72
    65
 73
     6
 40
40.0
 49
30.0
 49
-2.5
 49
1.25
 49
-2.5
 49
1.25
 49
-2.5
  0
LTYPE
  2
LONG3
 70
    64
  3
+++++++++++++++..+++++++++++++++
 72
    65
 73
     2
 40
40.0
 49
37.5
 49
-2.5
  0
LTYPE
  2
LONG4
 70
    64
  3
+++++++++++++++..+++++++++++++++
 72
    65
 73
     2
 40
80.0
 49
75.0
 49
-5.0
  0
LTYPE
  2
LONG5
 70
    64
  3
----------  --  ----------  --  
 72
    65
 73
     4
 40
60.0
 49
37.5
 49
-7.5
 49
7.5
 49
-7.5
  0
LTYPE
  2
dashed
 70
   64
  3
-------   -------------   ------
 72
   65
 73
    2
 40
7.5
 49
6
 49
-1.5
  0
LTYPE
  2
dashed_spaced
 70
   64
  3
----        --------        ----
 72
   65
 73
    2
 40
12
 49
6
 49
-6
  0
LTYPE
  2
long_dashed_dotted
 70
   64
  3
------------- --- --------------
 72
   65
 73
    4
 40
15.25
 49
12
 49
-1.5
 49
0.25
 49
-1.5
  0
LTYPE
  2
long_dashed_double-dotted
 70
   64
  3
----------- --- --- ------------
 72
   65
 73
    6
 40
17
 49
12
 49
-1.5
 49
0.25
 49
-1.5
 49
0.25
 49
-1.5
  0
LTYPE
  2
long_dashed_triplicate-dotted
 70
   64
  3
--------- --- --- --- ----------
 72
   65
 73
    8
 40
18.75
 49
12
 49
-1.5
 49
0.25
 49
-1.5
 49
0.25
 49
-1.5
 49
0.25
 49
-1.5
  0
LTYPE
  2
dotted
 70
   64
  3
   -       -       -       -    
 72
   65
 73
    2
 40
1.75
 49
0.25
 49
-1.5
  0
LTYPE
  2
chain
 70
   64
  3
-------------- -- --------------
 72
   65
 73
    4
 40
18.5
 49
12
 49
-1.5
 49
3.5
 49
-1.5
  0
LTYPE
  2
chain_double_dash
 70
   64
  3
------------ -- -- -------------
 72
   65
 73
    6
 40
23.5
 49
12
 49
-1.5
 49
3.5
 49
-1.5
 49
3.5
 49
-1.5
  0
LTYPE
  2
dashed_dotted
 70
   64
  3
-----------     -     ----------
 72
   65
 73
    4
 40
9.25
 49
6
 49
-1.5
 49
0.25
 49
-1.5
  0
LTYPE
  2
double-dashed_dotted
 70
   64
  3
------   -----------   -   -----
 72
   65
 73
    6
 40
16.75
 49
6
 49
-1.5
 49
6
 49
-1.5
 49
0.25
 49
-1.5
  0
LTYPE
  2
dashed_double-dotted
 70
   64
  3
---------    -    -    ---------
 72
   65
 73
    6
 40
11
 49
6
 49
-1.5
 49
0.25
 49
-1.5
 49
0.25
 49
-1.5
  0
LTYPE
  2
double-dashed_double-dotted
 70
   64
  3
-----   ---------   -   -   ----
 72
   65
 73
    8
 40
18.5
 49
6
 49
-1.5
 49
6
 49
-1.5
 49
0.25
 49
-1.5
 49
0.25
 49
-1.5
  0
LTYPE
  2
dashed_triplicate-dotted
 70
   64
  3
-------    -    -    -    ------
 72
   65
 73
    8
 40
12.75
 49
6
 49
-1.5
 49
0.25
 49
-1.5
 49
0.25
 49
-1.5
 49
0.25
 49
-1.5
  0
LTYPE
  2
double-dashed_triplicate-dotted
 70
   64
  3
-----  ---------  -  -  -  -----
 72
   65
 73
   10
 40
20.25
 49
6
 49
-1.5
 49
6
 49
-1.5
 49
0.25
 49
-1.5
 49
0.25
 49
-1.5
 49
0.25
 49
-1.5
  0
LTYPE
  2
undefined
 70
   64
  3
--------------------------------
 72
   65
 73
    0
 40
0
  0
LTYPE
  2
_
 70
   64
  3
                                
 72
   65
 73
    0
 40
0
  0
LTYPE
  2
__18
 70
   64
  3
                                
 72
   65
 73
    0
 40
0
  0
LTYPE
  2
__19
 70
   64
  3
                                
 72
   65
 73
    0
 40
0
  0
LTYPE
  2
__20
 70
   64
  3
                                
 72
   65
 73
    0
 40
0
  0
LTYPE
  2
__21
 70
   64
  3
                                
 72
   65
 73
    0
 40
0
  0
LTYPE
  2
__22
 70
   64
  3
                                
 72
   65
 73
    0
 40
0
  0
LTYPE
  2
__23
 70
   64
  3
                                
 72
   65
 73
    0
 40
0
  0
LTYPE
  2
__24
 70
   64
  3
                                
 72
   65
 73
    0
 40
0
  0
LTYPE
  2
__25
 70
   64
  3
                                
 72
   65
 73
    0
 40
0
  0
LTYPE
  2
__26
 70
   64
  3
                                
 72
   65
 73
    0
 40
0
  0
LTYPE
  2
__27
 70
   64
  3
                                
 72
   65
 73
    0
 40
0
  0
LTYPE
  2
__28
 70
   64
  3
                                
 72
   65
 73
    0
 40
0
  0
LTYPE
  2
__29
 70
   64
  3
                                
 72
   65
 73
    0
 40
0
  0
LTYPE
  2
__30
 70
   64
  3
                                
 72
   65
 73
    0
 40
0
  0
LTYPE
  2
__31
 70
   64
  3
                                
 72
   65
 73
    0
 40
0
  0
LTYPE
  2
__32
 70
   64
  3
                                
 72
   65
 73
    0
 40
0
  0
ENDTAB
  0
TABLE
  2
STYLE
  5
3
100
AcDbSymbolTable
 70
     1
  0
STYLE
  5
10
100
AcDbSymbolTableRecord
100
AcDbTextStyleTableRecord
  2
STANDARD
 70
     0
 40
0.0
 41
1.0
 50
0.0
 71
     0
 42
0.2
  3
txt
  4
bigfont.shx
  0
STYLE
  5
26
100
AcDbSymbolTableRecord
100
AcDbTextStyleTableRecord
  2
TATEGAKI
 70
    68
 40
0.0
 41
1.0
 50
0.0
 71
     0
 42
1.0
  3
txt
  4
bigfont.shx
  0
ENDTAB
  0
TABLE
  2
LAYER
 70
    4
  0
LAYER
  2
_0-0_フレ__ム
 70
   64
 62
    7
  6
CONTINUOUS
  0
LAYER
  2
_0-1_その他LF______
 70
   64
 62
    7
  6
CONTINUOUS
  0
LAYER
  2
_0-f_集計
 70
   64
 62
    7
  6
CONTINUOUS
  0
LAYER
  2
ADD_LINE
 70
   64
 62
    7
  6
CONTINUOUS
  0
ENDTAB
  0
ENDSEC
  0
SECTION
  2
BLOCKS
  0
ENDSEC
  0
SECTION
  2
ENTITIES
  0
ARC
  8
_0-0_フレ__ム
  6
CONTINUOUS
 62
    7
 10
29.087049341406342
 20
30.079192502154456
 40
0.2
 50
89.799999999999713
 51
177.99999999999983
  0
ARC
  8
_0-0_フレ__ム
  6
CONTINUOUS
 62
    7
 10
41.261884361459934
 20
30.730649334204941
 40
1.5
 50
29.99999999999994
 51
90.000000000000028
  0
LINE
  8
_0-0_フレ__ム
  6
CONTINUOUS
 62
    7
 10
42.967140249785658
 20
30.777059495718731
 11
42.560922467136621
 21
31.480649334204941
  0
LINE
  8
_0-0_フレ__ム
  6
CONTINUOUS
 62
    7
 10
42.993935169028774
 20
30.677059495718709
 11
42.993935169028774
 21
30.530649334185682
  0
ARC
  8
_0-0_フレ__ム
  6
CONTINUOUS
 62
    7
 10
42.793935169028842
 20
30.677059495718709
 40
0.2
 50
0
 51
30.000000000000398
  0
LINE
  8
_0-0_フレ__ム
  6
CONTINUOUS
 62
    7
 10
5.0207300882718755
 20
30.777059495718731
 11
5.4269478709210262
 21
31.480649334204941
  0
LINE
  8
_0-0_フレ__ム
  6
CONTINUOUS
 62
    7
 10
4.9939351690287594
 20
30.677059495718709
 11
4.9939351690287594
 21
30.530649334185682
  0
ARC
  8
_0-0_フレ__ム
  6
CONTINUOUS
 62
    7
 10
5.1939351690288049
 20
30.677059495718709
 40
0.2
 50
149.99999999999957
 51
179.99999999999997
  0
ARC
  8
_0-0_フレ__ム
  6
CONTINUOUS
 62
    7
 10
6.7259859765975989
 20
30.730649334204941
 40
1.5
 50
90
 51
150.00000000000006
  0
LINE
  8
_0-0_フレ__ム
  6
CONTINUOUS
 62
    7
 10
41.261884361459934
 20
32.230649334204941
 11
6.7259859765975989
 21
32.230649334204941
  0
ARC
  8
_0-0_フレ__ム
  6
CONTINUOUS
 62
    7
 10
5.2939351690288277
 20
30.530649334185682
 40
0.2999999999999998
 50
180
 51
265.40712428946557
  0
LINE
  8
_0-0_フレ__ム
  6
CONTINUOUS
 62
    7
 10
29.087747471689354
 20
30.279191283686032
 11
42.717957663605617
 21
30.231612681324691
  0
ARC
  8
_0-0_フレ__ム
  6
CONTINUOUS
 62
    7
 10
42.693935169028819
 20
30.530649334185682
 40
0.2999999999999998
 50
274.59287571052903
 51
0
  0
ARC
  8
_0-0_フレ__ム
  6
CONTINUOUS
 62
    7
 10
27.007659659105926
 20
29.83064933418575
 40
0.4
 50
1.999999999999901
 51
89.999999999999986
  0
LINE
  8
_0-0_フレ__ム
  6
CONTINUOUS
 62
    7
 10
20.980210678951735
 20
30.230649334185728
 11
27.007659659105926
 21
30.230649334185728
  0
LINE
  8
_0-0_フレ__ム
  6
CONTINUOUS
 62
    7
 10
27.477418550276198
 20
27.829998083868531
 11
27.407415989913503
 21
29.844609132866708
  0
ARC
  8
_0-0_フレ__ム
  6
CONTINUOUS
 62
    7
 10
29.00859982973715
 20
27.822692416073551
 40
0.2
 50
177.99999999999952
 51
218.00000000000276
  0
LINE
  8
_0-0_フレ__ム
  6
CONTINUOUS
 62
    7
 10
28.808721664333248
 20
27.829672315414086
 11
28.887171176002553
 21
30.086172401494991
  0
ARC
  8
_0-0_フレ__ム
  6
CONTINUOUS
 62
    7
 10
28.476809377295254
 20
27.864897580570982
 40
1
 50
181.99999999999906
 51
226.49193196194187
  0
LINE
  8
_0-0_フレ__ム
  6
CONTINUOUS
 62
    7
 10
29.945924856350771
 20
26.298117242517833
 11
28.850997679015805
 21
27.699560121008517
  0
ARC
  8
_0-0_フレ__ム
  6
CONTINUOUS
 62
    7
 10
29.867123780990156
 20
26.236551094985259
 40
0.1
 50
324.99999999999966
 51
38.000000000000306
  0
LINE
  8
_0-0_フレ__ム
  6
CONTINUOUS
 62
    7
 10
28.684085215221003
 20
26.289361946562167
 11
27.788352665684229
 21
27.139620146592961
  0
ARC
  8
_0-0_フレ__ム
  6
CONTINUOUS
 62
    7
 10
28.615239544059946
 20
26.216834203164353
 40
0.1
 50
335.00000000000028
 51
46.491931961938917
  0
LINE
  8
_0-0_フレ__ム
  6
CONTINUOUS
 62
    7
 10
18.900122866368179
 20
30.279191283686032
 11
5.2699126744519162
 21
30.231612681324691
  0
LINE
  8
_0-0_フレ__ム
  6
CONTINUOUS
 62
    7
 10
29.949038985419079
 20
26.179193451350159
 11
27.91171263618709
 21
23.177095943611675
  0
LINE
  8
_0-0_フレ__ム
  6
CONTINUOUS
 62
    7
 10
28.705870322763545
 20
26.174572376990284
 11
27.765866473051588
 21
24.07832148386143
  0
ARC
  8
_0-0_フレ__ム
  6
CONTINUOUS
 62
    7
 10
27.558159245593757
 20
23.530649334204952
 40
0.5
 50
78.807725027936485
 51
315
  0
ARC
  8
_0-0_フレ__ム
  6
CONTINUOUS
 62
    7
 10
27.674620499620929
 20
24.119238134905743
 40
0.1
 50
258.80772502792047
 51
335.84751296066247
  0
ARC
  8
_0-0_フレ__ム
  6
CONTINUOUS
 62
    7
 10
18.900820996651191
 20
30.079192502154456
 40
0.2
 50
2.0000000000001554
 51
90.200000000000259
  0
ARC
  8
_0-0_フレ__ム
  6
CONTINUOUS
 62
    7
 10
20.980210678951735
 20
29.83064933418575
 40
0.4
 50
90
 51
178.00000000000009
  0
LINE
  8
_0-0_フレ__ム
  6
CONTINUOUS
 62
    7
 10
20.510451787781463
 20
27.829998083868531
 11
20.580454348144045
 21
29.844609132866708
  0
ARC
  8
_0-0_フレ__ム
  6
CONTINUOUS
 62
    7
 10
18.979270508320383
 20
27.822692416073551
 40
0.2
 50
321.99999999999716
 51
2.0000000000004099
  0
LINE
  8
_0-0_フレ__ム
  6
CONTINUOUS
 62
    7
 10
19.179148673724285
 20
27.829672315414086
 11
19.10069916205498
 21
30.086172401494991
  0
ARC
  8
_0-0_フレ__ム
  6
CONTINUOUS
 62
    7
 10
19.511060960762279
 20
27.864897580570982
 40
1
 50
313.50806803805813
 51
358.00000000000091
  0
LINE
  8
_0-0_フレ__ム
  6
CONTINUOUS
 62
    7
 10
18.041945481706762
 20
26.298117242517833
 11
19.136872659041728
 21
27.699560121008517
  0
ARC
  8
_0-0_フレ__ム
  6
CONTINUOUS
 62
    7
 10
18.120746557067378
 20
26.236551094985259
 40
0.1
 50
141.99999999999966
 51
215.00000000000034
  0
LINE
  8
_0-0_フレ__ム
  6
CONTINUOUS
 62
    7
 10
19.30378512283653
 20
26.289361946562167
 11
20.199517672373304
 21
27.139620146592961
  0
ARC
  8
_0-0_フレ__ム
  6
CONTINUOUS
 62
    7
 10
19.372630793997587
 20
26.216834203164353
 40
0.1
 50
133.50806803806111
 51
204.99999999999972
  0
LINE
  8
_0-0_フレ__ム
  6
CONTINUOUS
 62
    7
 10
18.038831352638567
 20
26.179193451350159
 11
20.076157701870557
 21
23.177095943611675
  0
LINE
  8
_0-0_フレ__ム
  6
CONTINUOUS
 62
    7
 10
19.282000015293988
 20
26.174572376990284
 11
20.222003865005945
 21
24.07832148386143
  0
ARC
  8
_0-0_フレ__ム
  6
CONTINUOUS
 62
    7
 10
20.429711092463776
 20
23.530649334204952
 40
0.5
 50
225.00000000000006
 51
101.19227497206356
  0
ARC
  8
_0-0_フレ__ム
  6
CONTINUOUS
 62
    7
 10
20.313249838436718
 20
24.119238134905743
 40
0.1
 50
204.15248703933753
 51
281.19227497207953
  0
ARC
  8
_0-0_フレ__ム
  6
CONTINUOUS
 62
    7
 10
108.52825684335997
 20
30.079192502154456
 40
0.2
 50
89.799999999999713
 51
177.99999999999983
  0
ARC
  8
_0-0_フレ__ム
  6
CONTINUOUS
 62
    7
 10
120.70309186341356
 20
30.730649334204941
 40
1.5
 50
29.99999999999994
 51
90.000000000000028
  0
LINE
  8
_0-0_フレ__ム
  6
CONTINUOUS
 62
    7
 10
122.40834775173929
 20
30.777059495718731
 11
122.00212996909025
 21
31.480649334204941
  0
LINE
  8
_0-0_フレ__ム
  6
CONTINUOUS
 62
    7
 10
122.4351426709824
 20
30.677059495718709
 11
122.4351426709824
 21
30.530649334185682
  0
ARC
  8
_0-0_フレ__ム
  6
CONTINUOUS
 62
    7
 10
122.23514267098247
 20
30.677059495718709
 40
0.2
 50
0
 51
30.000000000000398
  0
LINE
  8
_0-0_フレ__ム
  6
CONTINUOUS
 62
    7
 10
84.461937590225517
 20
30.777059495718731
 11
84.868155372874668
 21
31.480649334204941
  0
LINE
  8
_0-0_フレ__ム
  6
CONTINUOUS
 62
    7
 10
84.435142670982401
 20
30.677059495718709
 11
84.435142670982401
 21
30.530649334185682
  0
ARC
  8
_0-0_フレ__ム
  6
CONTINUOUS
 62
    7
 10
84.635142670982447
 20
30.677059495718709
 40
0.2
 50
149.99999999999957
 51
179.99999999999997
  0
ARC
  8
_0-0_フレ__ム
  6
CONTINUOUS
 62
    7
 10
86.167193478551241
 20
30.730649334204941
 40
1.5
 50
90
 51
150.00000000000006
  0
LINE
  8
_0-0_フレ__ム
  6
CONTINUOUS
 62
    7
 10
120.70309186341356
 20
32.230649334204941
 11
86.167193478551241
 21
32.230649334204941
  0
ARC
  8
_0-0_フレ__ム
  6
CONTINUOUS
 62
    7
 10
84.735142670982469
 20
30.530649334185682
 40
0.2999999999999998
 50
180
 51
265.40712428946557
  0
LINE
  8
_0-0_フレ__ム
  6
CONTINUOUS
 62
    7
 10
108.52895497364298
 20
30.279191283686032
 11
122.15916516555924
 21
30.231612681324691
  0
ARC
  8
_0-0_フレ__ム
  6
CONTINUOUS
 62
    7
 10
122.13514267098245
 20
30.530649334185682
 40
0.2999999999999998
 50
274.59287571052903
 51
0
  0
ARC
  8
_0-0_フレ__ム
  6
CONTINUOUS
 62
    7
 10
106.44886716105955
 20
29.83064933418575
 40
0.4
 50
1.999999999999901
 51
89.999999999999986
  0
LINE
  8
_0-0_フレ__ム
  6
CONTINUOUS
 62
    7
 10
100.42141818090536
 20
30.230649334185728
 11
106.44886716105955
 21
30.230649334185728
  0
LINE
  8
_0-0_フレ__ム
  6
CONTINUOUS
 62
    7
 10
106.91862605222983
 20
27.829998083868531
 11
106.84862349186713
 21
29.844609132866708
  0
ARC
  8
_0-0_フレ__ム
  6
CONTINUOUS
 62
    7
 10
108.44980733169078
 20
27.822692416073551
 40
0.2
 50
177.99999999999952
 51
218.00000000000276
  0
LINE
  8
_0-0_フレ__ム
  6
CONTINUOUS
 62
    7
 10
108.24992916628688
 20
27.829672315414086
 11
108.32837867795618
 21
30.086172401494991
  0
ARC
  8
_0-0_フレ__ム
  6
CONTINUOUS
 62
    7
 10
107.91801687924888
 20
27.864897580570982
 40
1
 50
181.99999999999906
 51
226.49193196194187
  0
LINE
  8
_0-0_フレ__ム
  6
CONTINUOUS
 62
    7
 10
109.3871323583044
 20
26.298117242517833
 11
108.29220518096943
 21
27.699560121008517
  0
ARC
  8
_0-0_フレ__ム
  6
CONTINUOUS
 62
    7
 10
109.30833128294378
 20
26.236551094985259
 40
0.1
 50
324.99999999999966
 51
38.000000000000306
  0
LINE
  8
_0-0_フレ__ム
  6
CONTINUOUS
 62
    7
 10
108.12529271717463
 20
26.289361946562167
 11
107.22956016763786
 21
27.139620146592961
  0
ARC
  8
_0-0_フレ__ム
  6
CONTINUOUS
 62
    7
 10
108.05644704601357
 20
26.216834203164353
 40
0.1
 50
335.00000000000028
 51
46.491931961938917
  0
LINE
  8
_0-0_フレ__ム
  6
CONTINUOUS
 62
    7
 10
98.34133036832182
 20
30.279191283686032
 11
84.711120176405558
 21
30.231612681324691
  0
LINE
  8
_0-0_フレ__ム
  6
CONTINUOUS
 62
    7
 10
109.39024648737271
 20
26.179193451350159
 11
107.35292013814072
 21
23.177095943611675
  0
LINE
  8
_0-0_フレ__ム
  6
CONTINUOUS
 62
    7
 10
108.14707782471717
 20
26.174572376990284
 11
107.20707397500522
 21
24.07832148386143
  0
ARC
  8
_0-0_フレ__ム
  6
CONTINUOUS
 62
    7
 10
106.99936674754738
 20
23.530649334204952
 40
0.5
 50
78.807725027936485
 51
315
  0
ARC
  8
_0-0_フレ__ム
  6
CONTINUOUS
 62
    7
 10
107.11582800157456
 20
24.119238134905743
 40
0.1
 50
258.80772502792047
 51
335.84751296066247
  0
ARC
  8
_0-0_フレ__ム
  6
CONTINUOUS
 62
    7
 10
98.342028498604833
 20
30.079192502154456
 40
0.2
 50
2.0000000000001554
 51
90.200000000000259
  0
ARC
  8
_0-0_フレ__ム
  6
CONTINUOUS
 62
    7
 10
100.42141818090536
 20
29.83064933418575
 40
0.4
 50
90
 51
178.00000000000009
  0
LINE
  8
_0-0_フレ__ム
  6
CONTINUOUS
 62
    7
 10
99.95165928973509
 20
27.829998083868531
 11
100.02166185009767
 21
29.844609132866708
  0
ARC
  8
_0-0_フレ__ム
  6
CONTINUOUS
 62
    7
 10
98.420478010274024
 20
27.822692416073551
 40
0.2
 50
321.99999999999716
 51
2.0000000000004099
  0
LINE
  8
_0-0_フレ__ム
  6
CONTINUOUS
 62
    7
 10
98.620356175677927
 20
27.829672315414086
 11
98.541906664008621
 21
30.086172401494991
  0
ARC
  8
_0-0_フレ__ム
  6
CONTINUOUS
 62
    7
 10
98.952268462715921
 20
27.864897580570982
 40
1
 50
313.50806803805813
 51
358.00000000000091
  0
LINE
  8
_0-0_フレ__ム
  6
CONTINUOUS
 62
    7
 10
97.483152983660403
 20
26.298117242517833
 11
98.57808016099537
 21
27.699560121008517
  0
ARC
  8
_0-0_フレ__ム
  6
CONTINUOUS
 62
    7
 10
97.561954059021019
 20
26.236551094985259
 40
0.1
 50
141.99999999999966
 51
215.00000000000034
  0
LINE
  8
_0-0_フレ__ム
  6
CONTINUOUS
 62
    7
 10
98.744992624790171
 20
26.289361946562167
 11
99.640725174326946
 21
27.139620146592961
  0
ARC
  8
_0-0_フレ__ム
  6
CONTINUOUS
 62
    7
 10
98.813838295951228
 20
26.216834203164353
 40
0.1
 50
133.50806803806111
 51
204.99999999999972
  0
LINE
  8
_0-0_フレ__ム
  6
CONTINUOUS
 62
    7
 10
97.480038854592209
 20
26.179193451350159
 11
99.517365203824198
 21
23.177095943611675
  0
LINE
  8
_0-0_フレ__ム
  6
CONTINUOUS
 62
    7
 10
98.72320751724763
 20
26.174572376990284
 11
99.663211366959587
 21
24.07832148386143
  0
ARC
  8
_0-0_フレ__ム
  6
CONTINUOUS
 62
    7
 10
99.870918594417418
 20
23.530649334204952
 40
0.5
 50
225.00000000000006
 51
101.19227497206356
  0
ARC
  8
_0-0_フレ__ム
  6
CONTINUOUS
 62
    7
 10
99.75445734039036
 20
24.119238134905743
 40
0.1
 50
204.15248703933753
 51
281.19227497207953
  0
LINE
  8
_0-1_その他LF______
  6
CONTINUOUS
 62
  152
 10
93.581588899009745
 20
10.892272471363754
 11
93.888695870750468
 21
10.585166453297347
  0
LINE
  8
_0-1_その他LF______
  6
CONTINUOUS
 62
  152
 10
96.185142670982401
 20
16.050265788014144
 11
99.085142289512675
 21
14.375950335438461
  0
LINE
  8
_0-1_その他LF______
  6
CONTINUOUS
 62
  152
 10
110.4351426709824
 20
18.131612299854964
 11
96.435142670982401
 21
18.131612299854964
  0
LINE
  8
_0-1_その他LF______
  6
CONTINUOUS
 62
  152
 10
107.78514305245213
 20
14.375950335438461
 11
110.6851426709824
 21
16.050265788014144
  0
LINE
  8
_0-1_その他LF______
  6
CONTINUOUS
 62
  152
 10
110.08158889900974
 20
20.378058909352035
 11
111.28869644295506
 21
21.585166453297347
  0
LINE
  8
_0-1_その他LF______
  6
CONTINUOUS
 62
  152
 10
97.142249261253397
 20
20.231612681324691
 11
109.72803512703709
 21
20.231612681324691
  0
LINE
  8
_0-1_その他LF______
  6
CONTINUOUS
 62
  152
 10
93.435142670982401
 20
16.524506091053695
 11
93.435142670982401
 21
11.24582624333641
  0
ARC
  8
_0-1_その他LF______
  6
CONTINUOUS
 62
  152
 10
93.935142670982401
 20
11.24582624333641
 40
0.5
 50
180
 51
225
  0
ARC
  8
_0-1_その他LF______
  6
CONTINUOUS
 62
  152
 10
93.535143052452128
 20
10.231612681324691
 40
0.5
 50
314.99998474121088
 51
44.999984741210902
  0
ARC
  8
_0-1_その他LF______
  6
CONTINUOUS
 62
  152
 10
113.33514228951267
 20
10.231612681324691
 40
0.5
 50
134.99998474121097
 51
225
  0
ARC
  8
_0-1_その他LF______
  6
CONTINUOUS
 62
  152
 10
98.835142289512675
 20
13.942937373097152
 40
0.5
 50
0
 51
59.999999999999993
  0
ARC
  8
_0-1_その他LF______
  6
CONTINUOUS
 62
  152
 10
108.03514305245213
 20
13.942937373097152
 40
0.5
 50
119.99998474121097
 51
180.00000000000003
  0
ARC
  8
_0-1_その他LF______
  6
CONTINUOUS
 62
  152
 10
109.72803512703709
 20
20.731612681324691
 40
0.5
 50
270
 51
315
  0
LINE
  8
_0-1_その他LF______
  6
CONTINUOUS
 62
  152
 10
99.335142289512675
 20
13.942937373097152
 11
99.335142289512675
 21
9.8780592907314144
  0
LINE
  8
_0-1_その他LF______
  6
CONTINUOUS
 62
  152
 10
107.53514305245213
 20
9.8780592907314144
 11
107.53514305245213
 21
13.942937373097152
  0
LINE
  8
_0-1_その他LF______
  6
CONTINUOUS
 62
  152
 10
85.717108641975443
 20
15.331613062794418
 11
83.935142670982401
 21
15.331613062794418
  0
LINE
  8
_0-1_その他LF______
  6
CONTINUOUS
 62
  152
 10
85.940715466850321
 20
15.384398936207504
 11
86.758749400489847
 21
15.793416499073714
  0
ARC
  8
_0-1_その他LF______
  6
CONTINUOUS
 62
  152
 10
83.935142670982401
 20
15.831613062794418
 40
0.5
 50
180
 51
270
  0
ARC
  8
_0-1_その他LF______
  6
CONTINUOUS
 62
  152
 10
85.717108641975443
 20
15.831613062794418
 40
0.5
 50
270
 51
296.56504821777344
  0
LINE
  8
_0-1_その他LF______
  6
CONTINUOUS
 62
  152
 10
113.09544960152439
 20
27.289592503483505
 11
113.54309097420506
 21
26.059708594258041
  0
LINE
  8
_0-1_その他LF______
  6
CONTINUOUS
 62
  152
 10
114.37716308724217
 20
28.571305273945541
 11
115.60704818856053
 21
28.123664139683456
  0
LINE
  8
_0-1_その他LF______
  6
CONTINUOUS
 62
  152
 10
121.77483383309178
 20
27.289592503483505
 11
121.32719436775974
 21
26.059708594258041
  0
LINE
  8
_0-1_その他LF______
  6
CONTINUOUS
 62
  152
 10
120.49312225472264
 20
28.571305273945541
 11
119.26323715340428
 21
28.123664139683456
  0
ARC
  8
_0-1_その他LF______
  6
CONTINUOUS
 62
  152
 10
114.03514305245213
 20
27.631612776692123
 40
1
 50
69.99998474121098
 51
199.99998474121099
  0
ARC
  8
_0-1_その他LF______
  6
CONTINUOUS
 62
  152
 10
120.83514419686131
 20
27.631612776692123
 40
1
 50
340
 51
109.99999999999996
  0
ARC
  8
_0-1_その他LF______
  6
CONTINUOUS
 62
  152
 10
117.4351426709824
 20
24.231612681324691
 40
4.3000001907348633
 50
154.84056091308594
 51
205.159423828125
  0
ARC
  8
_0-1_その他LF______
  6
CONTINUOUS
 62
  152
 10
117.4351426709824
 20
24.231612681324691
 40
4.3000001907348633
 50
64.840560913085966
 51
115.15942382812504
  0
ARC
  8
_0-1_その他LF______
  6
CONTINUOUS
 62
  152
 10
117.4351426709824
 20
24.231612681324691
 40
4.3000001907348633
 50
334.84056091308594
 51
25.159423828124975
  0
LINE
  8
_0-1_その他LF______
  6
CONTINUOUS
 62
  152
 10
119.83514419686131
 20
17.731612681324691
 11
119.83514419686131
 21
16.240629671986312
  0
LINE
  8
_0-1_その他LF______
  6
CONTINUOUS
 62
  152
 10
120.92956939827732
 20
15.384398936207504
 11
120.1115342725449
 21
15.793416499073714
  0
LINE
  8
_0-1_その他LF______
  6
CONTINUOUS
 62
  152
 10
121.15317550789646
 20
15.331613062794418
 11
122.9351426709824
 21
15.331613062794418
  0
LINE
  8
_0-1_その他LF______
  6
CONTINUOUS
 62
  152
 10
113.09544960152439
 20
21.173633097584457
 11
113.54309097420506
 21
22.403516768391341
  0
LINE
  8
_0-1_その他LF______
  6
CONTINUOUS
 62
  152
 10
114.37716308724217
 20
19.891919611866683
 11
115.60704818856053
 21
20.339560984547347
  0
LINE
  8
_0-1_その他LF______
  6
CONTINUOUS
 62
  152
 10
121.77483383309178
 20
21.173633097584457
 11
121.32719436775974
 21
22.403516768391341
  0
LINE
  8
_0-1_その他LF______
  6
CONTINUOUS
 62
  152
 10
120.49312225472264
 20
19.891919611866683
 11
119.26323715340428
 21
20.339560984547347
  0
LINE
  8
_0-1_その他LF______
  6
CONTINUOUS
 62
  152
 10
113.28869644295506
 20
10.892272471363754
 11
112.98158851754002
 21
10.585166453297347
  0
LINE
  8
_0-1_その他LF______
  6
CONTINUOUS
 62
  152
 10
110.9351426709824
 20
16.483278750355453
 11
110.9351426709824
 21
17.631612299854964
  0
LINE
  8
_0-1_その他LF______
  6
CONTINUOUS
 62
  152
 10
113.4351426709824
 20
16.524506091053695
 11
113.4351426709824
 21
11.24582624333641
  0
LINE
  8
_0-1_その他LF______
  6
CONTINUOUS
 62
  152
 10
114.78869644295506
 20
18.085166453297347
 11
113.58158889900974
 21
16.878058909352035
  0
LINE
  8
_0-1_その他LF______
  6
CONTINUOUS
 62
  152
 10
115.14225021492771
 20
18.231612681324691
 11
119.33514419686131
 21
18.231612681324691
  0
ARC
  8
_0-1_その他LF______
  6
CONTINUOUS
 62
  152
 10
120.33514419686131
 20
16.240629671986312
 40
0.5
 50
180
 51
243.43493652343753
  0
ARC
  8
_0-1_その他LF______
  6
CONTINUOUS
 62
  152
 10
122.9351426709824
 20
15.831613062794418
 40
0.5
 50
270
 51
0
  0
ARC
  8
_0-1_その他LF______
  6
CONTINUOUS
 62
  152
 10
119.33514419686131
 20
17.731612681324691
 40
0.5
 50
0
 51
90
  0
ARC
  8
_0-1_その他LF______
  6
CONTINUOUS
 62
  152
 10
121.15317550789646
 20
15.831613062794418
 40
0.5
 50
243.43493652343753
 51
270
  0
ARC
  8
_0-1_その他LF______
  6
CONTINUOUS
 62
  152
 10
114.03514305245213
 20
20.831613062794418
 40
1
 50
160.00000000000003
 51
290
  0
ARC
  8
_0-1_その他LF______
  6
CONTINUOUS
 62
  152
 10
120.83514419686131
 20
20.831613062794418
 40
1
 50
249.99998474121094
 51
19.999984741210955
  0
ARC
  8
_0-1_その他LF______
  6
CONTINUOUS
 62
  152
 10
117.4351426709824
 20
24.231612681324691
 40
4.3000001907348633
 50
244.84056091308597
 51
295.15942382812506
  0
ARC
  8
_0-1_その他LF______
  6
CONTINUOUS
 62
  152
 10
112.9351426709824
 20
11.24582624333641
 40
0.5
 50
314.99998474121088
 51
359.99999999999994
  0
ARC
  8
_0-1_その他LF______
  6
CONTINUOUS
 62
  152
 10
110.4351426709824
 20
17.631612299854964
 40
0.5
 50
0
 51
90
  0
ARC
  8
_0-1_その他LF______
  6
CONTINUOUS
 62
  152
 10
110.4351426709824
 20
16.483278750355453
 40
0.5
 50
299.99998474121094
 51
0
  0
ARC
  8
_0-1_その他LF______
  6
CONTINUOUS
 62
  152
 10
113.9351426709824
 20
16.524506091053695
 40
0.5
 50
135
 51
180
  0
ARC
  8
_0-1_その他LF______
  6
CONTINUOUS
 62
  152
 10
115.14225021492771
 20
17.731612681324691
 40
0.5
 50
90
 51
135
  0
ARC
  8
_0-1_その他LF______
  6
CONTINUOUS
 62
  152
 10
110.9351426709824
 20
21.938719271595687
 40
0.5
 50
315
 51
0
  0
LINE
  8
_0-1_その他LF______
  6
CONTINUOUS
 62
  152
 10
110.9351426709824
 20
26.631612776692123
 11
109.44416061531834
 21
26.631612776692123
  0
LINE
  8
_0-1_その他LF______
  6
CONTINUOUS
 62
  152
 10
108.58792892586521
 20
27.726039885456771
 11
108.99694648873142
 21
26.908005951817245
  0
ARC
  8
_0-1_その他LF______
  6
CONTINUOUS
 62
  152
 10
109.44416061531834
 20
27.131612776692123
 40
0.5
 50
206.56504821777344
 51
270
  0
ARC
  8
_0-1_その他LF______
  6
CONTINUOUS
 62
  152
 10
109.03514305245213
 20
27.949646710331649
 40
0.5
 50
180
 51
206.56504821777344
  0
ARC
  8
_0-1_その他LF______
  6
CONTINUOUS
 62
  152
 10
110.9351426709824
 20
26.131612776692123
 40
0.5
 50
0
 51
90
  0
LINE
  8
_0-1_その他LF______
  6
CONTINUOUS
 62
  152
 10
111.4351426709824
 20
21.938719271595687
 11
111.4351426709824
 21
26.131612776692123
  0
LINE
  8
_0-1_その他LF______
  6
CONTINUOUS
 62
  152
 10
108.53514305245213
 20
27.949646710331649
 11
108.53514305245213
 21
29.731612681324691
  0
ARC
  8
_0-1_その他LF______
  6
CONTINUOUS
 62
  152
 10
109.03514305245213
 20
29.731612681324691
 40
0.5
 50
90
 51
180
  0
LINE
  8
_0-1_その他LF______
  6
CONTINUOUS
 62
  152
 10
109.03514305245213
 20
30.231612681324691
 11
121.9351426709824
 21
30.231612681324691
  0
ARC
  8
_0-1_その他LF______
  6
CONTINUOUS
 62
  152
 10
121.9351426709824
 20
28.731612681324691
 40
1.5
 50
0
 51
90
  0
LINE
  8
_0-1_その他LF______
  6
CONTINUOUS
 62
  152
 10
123.4351426709824
 20
15.831613062794418
 11
123.4351426709824
 21
28.731612681324691
  0
LINE
  8
_0-1_その他LF______
  6
CONTINUOUS
 62
  152
 10
85.095450078361552
 20
27.289592503483505
 11
85.543091212623636
 21
26.059708594258041
  0
LINE
  8
_0-1_その他LF______
  6
CONTINUOUS
 62
  152
 10
93.774835740440409
 20
27.289592503483505
 11
93.327194367759745
 21
26.059708594258041
  0
LINE
  8
_0-1_その他LF______
  6
CONTINUOUS
 62
  152
 10
95.435142670982401
 20
21.938719271595687
 11
95.435142670982401
 21
26.131612776692123
  0
ARC
  8
_0-1_その他LF______
  6
CONTINUOUS
 62
  152
 10
95.935142670982401
 20
26.131612776692123
 40
0.5
 50
90
 51
180
  0
ARC
  8
_0-1_その他LF______
  6
CONTINUOUS
 62
  152
 10
89.435142670982401
 20
24.231612681324691
 40
4.3000001907348633
 50
154.84056091308594
 51
205.159423828125
  0
ARC
  8
_0-1_その他LF______
  6
CONTINUOUS
 62
  152
 10
89.435142670982401
 20
24.231612681324691
 40
4.3000001907348633
 50
334.84056091308594
 51
25.159423828124975
  0
LINE
  8
_0-1_その他LF______
  6
CONTINUOUS
 62
  152
 10
87.035142575614969
 20
17.731612681324691
 11
87.035142575614969
 21
16.240629671986312
  0
LINE
  8
_0-1_その他LF______
  6
CONTINUOUS
 62
  152
 10
85.095450078361552
 20
21.173633097584457
 11
85.543091212623636
 21
22.403516768391341
  0
LINE
  8
_0-1_その他LF______
  6
CONTINUOUS
 62
  152
 10
86.377162848823588
 20
19.891919611866683
 11
87.607046758049052
 21
20.339560984547347
  0
LINE
  8
_0-1_その他LF______
  6
CONTINUOUS
 62
  152
 10
93.774835740440409
 20
21.173633097584457
 11
93.327194367759745
 21
22.403516768391341
  0
LINE
  8
_0-1_その他LF______
  6
CONTINUOUS
 62
  152
 10
92.493122254722635
 20
19.891919611866683
 11
91.263238583915751
 21
20.339560984547347
  0
LINE
  8
_0-1_その他LF______
  6
CONTINUOUS
 62
  152
 10
95.935142670982401
 20
17.631612299854964
 11
95.935142670982401
 21
16.483278750355453
  0
LINE
  8
_0-1_その他LF______
  6
CONTINUOUS
 62
  152
 10
95.581588899009745
 20
21.585166453297347
 11
96.788696442955057
 21
20.378058909352035
  0
LINE
  8
_0-1_その他LF______
  6
CONTINUOUS
 62
  152
 10
92.081588899009745
 20
18.085166453297347
 11
93.288696442955057
 21
16.878058909352035
  0
LINE
  8
_0-1_その他LF______
  6
CONTINUOUS
 62
  152
 10
91.728036080711405
 20
18.231612681324691
 11
87.535142575614969
 21
18.231612681324691
  0
ARC
  8
_0-1_その他LF______
  6
CONTINUOUS
 62
  152
 10
86.535142575614969
 20
16.240629671986312
 40
0.5
 50
296.56504821777344
 51
0
  0
ARC
  8
_0-1_その他LF______
  6
CONTINUOUS
 62
  152
 10
87.535142575614969
 20
17.731612681324691
 40
0.5
 50
90
 51
180
  0
ARC
  8
_0-1_その他LF______
  6
CONTINUOUS
 62
  152
 10
86.035142575614969
 20
20.831613062794418
 40
1
 50
160.00000000000003
 51
290
  0
ARC
  8
_0-1_その他LF______
  6
CONTINUOUS
 62
  152
 10
92.835142289512675
 20
20.831613062794418
 40
1
 50
249.99998474121094
 51
19.999984741210955
  0
ARC
  8
_0-1_その他LF______
  6
CONTINUOUS
 62
  152
 10
89.435142670982401
 20
24.231612681324691
 40
4.3000001907348633
 50
244.84056091308597
 51
295.15942382812506
  0
ARC
  8
_0-1_その他LF______
  6
CONTINUOUS
 62
  152
 10
96.435142670982401
 20
16.483278750355453
 40
0.5
 50
180
 51
239.99999999999997
  0
ARC
  8
_0-1_その他LF______
  6
CONTINUOUS
 62
  152
 10
96.435142670982401
 20
17.631612299854964
 40
0.5
 50
90
 51
180
  0
ARC
  8
_0-1_その他LF______
  6
CONTINUOUS
 62
  152
 10
97.142249261253397
 20
20.731612681324691
 40
0.5
 50
225
 51
270
  0
ARC
  8
_0-1_その他LF______
  6
CONTINUOUS
 62
  152
 10
95.935142670982401
 20
21.938719271595687
 40
0.5
 50
180
 51
225
  0
ARC
  8
_0-1_その他LF______
  6
CONTINUOUS
 62
  152
 10
92.935142670982401
 20
16.524506091053695
 40
0.5
 50
0
 51
45
  0
ARC
  8
_0-1_その他LF______
  6
CONTINUOUS
 62
  152
 10
91.728036080711405
 20
17.731612681324691
 40
0.5
 50
45.00000000000005
 51
90.000000000000057
  0
LINE
  8
_0-1_その他LF______
  6
CONTINUOUS
 62
  152
 10
98.335142289512675
 20
27.949646710331649
 11
98.335142289512675
 21
29.731612681324691
  0
ARC
  8
_0-1_その他LF______
  6
CONTINUOUS
 62
  152
 10
97.835142289512675
 20
29.731612681324691
 40
0.5
 50
0
 51
90
  0
ARC
  8
_0-1_その他LF______
  6
CONTINUOUS
 62
  152
 10
97.835142289512675
 20
27.949646710331649
 40
0.5
 50
333.4349365234375
 51
0.000000000000019
  0
LINE
  8
_0-1_その他LF______
  6
CONTINUOUS
 62
  152
 10
98.282356416099589
 20
27.726039885456771
 11
97.873338853233378
 21
26.908005951817245
  0
ARC
  8
_0-1_その他LF______
  6
CONTINUOUS
 62
  152
 10
97.42612568032078
 20
27.131612776692123
 40
0.5
 50
270
 51
333.4349365234375
  0
LINE
  8
_0-1_その他LF______
  6
CONTINUOUS
 62
  152
 10
95.935142670982401
 20
26.631612776692123
 11
97.42612568032078
 21
26.631612776692123
  0
LINE
  8
_0-1_その他LF______
  6
CONTINUOUS
 62
  152
 10
97.835142289512675
 20
30.231612681324691
 11
84.935142670982401
 21
30.231612681324691
  0
ARC
  8
_0-1_その他LF______
  6
CONTINUOUS
 62
  152
 10
84.935142670982401
 20
28.731612681324691
 40
1.5
 50
90
 51
180
  0
LINE
  8
_0-1_その他LF______
  6
CONTINUOUS
 62
  152
 10
83.435142670982401
 20
15.831613062794418
 11
83.435142670982401
 21
28.731612681324691
  0
ARC
  8
_0-1_その他LF______
  6
CONTINUOUS
 62
  152
 10
86.035142575614969
 20
27.631612776692123
 40
1
 50
69.99998474121098
 51
199.99998474121099
  0
LINE
  8
_0-1_その他LF______
  6
CONTINUOUS
 62
  152
 10
86.377162848823588
 20
28.571305273945541
 11
87.607046758049052
 21
28.123664139683456
  0
ARC
  8
_0-1_その他LF______
  6
CONTINUOUS
 62
  152
 10
89.435142670982401
 20
24.231612681324691
 40
4.3000001907348633
 50
64.840560913085966
 51
115.15942382812504
  0
LINE
  8
_0-1_その他LF______
  6
CONTINUOUS
 62
  152
 10
92.493122254722635
 20
28.571305273945541
 11
91.263238583915751
 21
28.123664139683456
  0
ARC
  8
_0-1_その他LF______
  6
CONTINUOUS
 62
  152
 10
92.835142289512675
 20
27.631612776692123
 40
1
 50
340
 51
109.99999999999996
  0
LINE
  8
ADD_LINE
  6
DOT
 62
  152
 10
117.4351426709824
 20
24.231612681324691
 11
123.4351426709824
 21
30.231612681324691
  0
LINE
  8
ADD_LINE
  6
DOT
 62
  152
 10
89.435142670982401
 20
24.231612681324691
 11
83.435142670982401
 21
30.231612681324691
  0
TEXT
  8
_0-f_集計
 62
    7
 10
1.8577867216604886
 20
2.2284459819053382
 40
4.2999999999999998
 41
0.744186046511628
 50
0
  1
KP4S,Y,B
  0
ENDSEC
  0
EOF
