  0
SECTION
  2
HEADER
  9
$ACADVER
  1
AC1009
  9
$INSBASE
 10
0
 20
0
 30
0
  9
$EXTMIN
 10
0
 20
0
  9
$EXTMAX
 10
297
 20
210
  9
$LIMMIN
 10
0
 20
0
  9
$LIMMAX
 10
297
 20
210
  9
$LTSCALE
 40
1
  0
ENDSEC
  0
SECTION
  2
TABLES
  0
TABLE
  2
LTYPE
 70
     9
  0
LTYPE
  2
CONTINUOUS
 70
    64
  3
実線
 72
    65
 73
     0
 40
0.0
  0
LTYPE
  2
DASHED1
 70
    64
  3
--  --  --  --  --  --  --  --  
 72
    65
 73
     2
 40
2.5
 49
1.25
 49
-1.25
  0
LTYPE
  2
DASHED2
 70
    64
  3
----    ----    ----    ----    
 72
    65
 73
     2
 40
5.0
 49
2.5
 49
-2.5
  0
LTYPE
  2
DASHED3
 70
    64
  3
------  ------  ------  ------  
 72
    65
 73
     2
 40
5.0
 49
3.75
 49
-1.25
  0
LTYPE
  2
CENTER1
 70
    64
  3
----- - ----- - ----- - ----- - 
 72
    65
 73
     4
 40
10.0
 49
6.25
 49
-1.25
 49
1.25
 49
-1.25
  0
LTYPE
  2
CENTER2
 70
    64
  3
----------  --  ----------  --  
 72
    65
 73
     4
 40
20.0
 49
12.5
 49
-2.5
 49
2.5
 49
-2.5
  0
LTYPE
  2
PHANTOM1
 70
    64
  3
--- - - --- - - --- - - --- - - 
 72
    65
 73
     6
 40
10.0
 49
3.25
 49
-1.25
 49
1.25
 49
-1.25
 49
1.25
 49
-1.25
  0
LTYPE
  2
PHANTOM2
 70
    64
  3
--------  -  -  --------  -  -  
 72
    65
 73
     6
 40
20.0
 49
10.0
 49
-2.5
 49
1.25
 49
-2.5
 49
1.25
 49
-2.5
  0
LTYPE
  2
DOT
 70
    64
  3
-   -   -   -   -   -   -   -   
 72
    65
 73
     2
 40
2.5
 49
0.625
 49
-1.875
  0
LTYPE
  2
DUMMY
 70
    64
  3
ダミー
 72
    65
 73
     0
 40
0.0
  0
LTYPE
  2
RAND1
 70
    64
  3
ランダム線1
 72
    65
 73
     4
 40
10.0
 49
1.0
 49
-2.0
 49
3.0
 49
-4.0
  0
LTYPE
  2
RAND2
 70
    64
  3
ランダム線2
 72
    65
 73
     4
 40
14.0
 49
2.0
 49
-3.0
 49
4.0
 49
-5.0
  0
LTYPE
  2
RAND3
 70
    64
  3
ランダム線3
 72
    65
 73
     4
 40
18.0
 49
3.0
 49
-4.0
 49
5.0
 49
-6.0
  0
LTYPE
  2
RAND4
 70
    64
  3
ランダム線4
 72
    65
 73
     4
 40
22.0
 49
4.0
 49
-5.0
 49
6.0
 49
-7.0
  0
LTYPE
  2
RAND5
 70
    64
  3
ランダム線5
 72
    65
 73
     4
 40
26.0
 49
5.0
 49
-6.0
 49
7.0
 49
-8.0
  0
LTYPE
  2
LONG1
 70
    64
  3
----------  --  ----------  --  
 72
    65
 73
     4
 40
40.0
 49
32.5
 49
-2.5
 49
2.5
 49
-2.5
  0
LTYPE
  2
LONG2
 70
    64
  3
--------  -  -  --------  -  -  
 72
    65
 73
     6
 40
40.0
 49
30.0
 49
-2.5
 49
1.25
 49
-2.5
 49
1.25
 49
-2.5
  0
LTYPE
  2
LONG3
 70
    64
  3
+++++++++++++++..+++++++++++++++
 72
    65
 73
     2
 40
40.0
 49
37.5
 49
-2.5
  0
LTYPE
  2
LONG4
 70
    64
  3
+++++++++++++++..+++++++++++++++
 72
    65
 73
     2
 40
80.0
 49
75.0
 49
-5.0
  0
LTYPE
  2
LONG5
 70
    64
  3
----------  --  ----------  --  
 72
    65
 73
     4
 40
60.0
 49
37.5
 49
-7.5
 49
7.5
 49
-7.5
  0
LTYPE
  2
dashed
 70
   64
  3
-------   -------------   ------
 72
   65
 73
    2
 40
7.5
 49
6
 49
-1.5
  0
LTYPE
  2
dashed_spaced
 70
   64
  3
----        --------        ----
 72
   65
 73
    2
 40
12
 49
6
 49
-6
  0
LTYPE
  2
long_dashed_dotted
 70
   64
  3
------------- --- --------------
 72
   65
 73
    4
 40
15.25
 49
12
 49
-1.5
 49
0.25
 49
-1.5
  0
LTYPE
  2
long_dashed_double-dotted
 70
   64
  3
----------- --- --- ------------
 72
   65
 73
    6
 40
17
 49
12
 49
-1.5
 49
0.25
 49
-1.5
 49
0.25
 49
-1.5
  0
LTYPE
  2
long_dashed_triplicate-dotted
 70
   64
  3
--------- --- --- --- ----------
 72
   65
 73
    8
 40
18.75
 49
12
 49
-1.5
 49
0.25
 49
-1.5
 49
0.25
 49
-1.5
 49
0.25
 49
-1.5
  0
LTYPE
  2
dotted
 70
   64
  3
   -       -       -       -    
 72
   65
 73
    2
 40
1.75
 49
0.25
 49
-1.5
  0
LTYPE
  2
chain
 70
   64
  3
-------------- -- --------------
 72
   65
 73
    4
 40
18.5
 49
12
 49
-1.5
 49
3.5
 49
-1.5
  0
LTYPE
  2
chain_double_dash
 70
   64
  3
------------ -- -- -------------
 72
   65
 73
    6
 40
23.5
 49
12
 49
-1.5
 49
3.5
 49
-1.5
 49
3.5
 49
-1.5
  0
LTYPE
  2
dashed_dotted
 70
   64
  3
-----------     -     ----------
 72
   65
 73
    4
 40
9.25
 49
6
 49
-1.5
 49
0.25
 49
-1.5
  0
LTYPE
  2
double-dashed_dotted
 70
   64
  3
------   -----------   -   -----
 72
   65
 73
    6
 40
16.75
 49
6
 49
-1.5
 49
6
 49
-1.5
 49
0.25
 49
-1.5
  0
LTYPE
  2
dashed_double-dotted
 70
   64
  3
---------    -    -    ---------
 72
   65
 73
    6
 40
11
 49
6
 49
-1.5
 49
0.25
 49
-1.5
 49
0.25
 49
-1.5
  0
LTYPE
  2
double-dashed_double-dotted
 70
   64
  3
-----   ---------   -   -   ----
 72
   65
 73
    8
 40
18.5
 49
6
 49
-1.5
 49
6
 49
-1.5
 49
0.25
 49
-1.5
 49
0.25
 49
-1.5
  0
LTYPE
  2
dashed_triplicate-dotted
 70
   64
  3
-------    -    -    -    ------
 72
   65
 73
    8
 40
12.75
 49
6
 49
-1.5
 49
0.25
 49
-1.5
 49
0.25
 49
-1.5
 49
0.25
 49
-1.5
  0
LTYPE
  2
double-dashed_triplicate-dotted
 70
   64
  3
-----  ---------  -  -  -  -----
 72
   65
 73
   10
 40
20.25
 49
6
 49
-1.5
 49
6
 49
-1.5
 49
0.25
 49
-1.5
 49
0.25
 49
-1.5
 49
0.25
 49
-1.5
  0
LTYPE
  2
undefined
 70
   64
  3
--------------------------------
 72
   65
 73
    0
 40
0
  0
LTYPE
  2
_
 70
   64
  3
                                
 72
   65
 73
    0
 40
0
  0
LTYPE
  2
__18
 70
   64
  3
                                
 72
   65
 73
    0
 40
0
  0
LTYPE
  2
__19
 70
   64
  3
                                
 72
   65
 73
    0
 40
0
  0
LTYPE
  2
__20
 70
   64
  3
                                
 72
   65
 73
    0
 40
0
  0
LTYPE
  2
__21
 70
   64
  3
                                
 72
   65
 73
    0
 40
0
  0
LTYPE
  2
__22
 70
   64
  3
                                
 72
   65
 73
    0
 40
0
  0
LTYPE
  2
__23
 70
   64
  3
                                
 72
   65
 73
    0
 40
0
  0
LTYPE
  2
__24
 70
   64
  3
                                
 72
   65
 73
    0
 40
0
  0
LTYPE
  2
__25
 70
   64
  3
                                
 72
   65
 73
    0
 40
0
  0
LTYPE
  2
__26
 70
   64
  3
                                
 72
   65
 73
    0
 40
0
  0
LTYPE
  2
__27
 70
   64
  3
                                
 72
   65
 73
    0
 40
0
  0
LTYPE
  2
__28
 70
   64
  3
                                
 72
   65
 73
    0
 40
0
  0
LTYPE
  2
__29
 70
   64
  3
                                
 72
   65
 73
    0
 40
0
  0
LTYPE
  2
__30
 70
   64
  3
                                
 72
   65
 73
    0
 40
0
  0
LTYPE
  2
__31
 70
   64
  3
                                
 72
   65
 73
    0
 40
0
  0
LTYPE
  2
__32
 70
   64
  3
                                
 72
   65
 73
    0
 40
0
  0
ENDTAB
  0
TABLE
  2
STYLE
  5
3
100
AcDbSymbolTable
 70
     1
  0
STYLE
  5
10
100
AcDbSymbolTableRecord
100
AcDbTextStyleTableRecord
  2
STANDARD
 70
     0
 40
0.0
 41
1.0
 50
0.0
 71
     0
 42
0.2
  3
txt
  4
bigfont.shx
  0
STYLE
  5
26
100
AcDbSymbolTableRecord
100
AcDbTextStyleTableRecord
  2
TATEGAKI
 70
    68
 40
0.0
 41
1.0
 50
0.0
 71
     0
 42
1.0
  3
txt
  4
bigfont.shx
  0
ENDTAB
  0
TABLE
  2
LAYER
 70
    4
  0
LAYER
  2
_0-0_フレ__ム
 70
   64
 62
    7
  6
CONTINUOUS
  0
LAYER
  2
_0-1_その他LF______
 70
   64
 62
    7
  6
CONTINUOUS
  0
LAYER
  2
_0-f_集計
 70
   64
 62
    7
  6
CONTINUOUS
  0
LAYER
  2
ADD_LINE
 70
   64
 62
    7
  6
CONTINUOUS
  0
ENDTAB
  0
ENDSEC
  0
SECTION
  2
BLOCKS
  0
ENDSEC
  0
SECTION
  2
ENTITIES
  0
ARC
  8
_0-0_フレ__ム
  6
CONTINUOUS
 62
    7
 10
25.830217629445144
 20
14.633766554496788
 40
0.2999999999999998
 50
274.59351300981291
 51
0
  0
LINE
  8
_0-0_フレ__ム
  6
CONTINUOUS
 62
    7
 10
26.130217629445099
 20
14.780176716010601
 11
26.130217629445099
 21
14.633766554496788
  0
ARC
  8
_0-0_フレ__ム
  6
CONTINUOUS
 62
    7
 10
25.930217629445053
 20
14.780176716010601
 40
0.2
 50
0
 51
29.999999999999996
  0
LINE
  8
_0-0_フレ__ム
  6
CONTINUOUS
 62
    7
 10
25.84154249485033
 20
15.333766554496833
 11
26.103422710201983
 21
14.880176716010737
  0
ARC
  8
_0-0_フレ__ム
  6
CONTINUOUS
 62
    7
 10
24.97551709106591
 20
14.833766554496833
 40
1
 50
30.000000000000423
 51
90
  0
LINE
  8
_0-0_フレ__ム
  6
CONTINUOUS
 62
    7
 10
2.1302176294066726
 20
14.780176716010601
 11
2.1302176294066726
 21
14.633766554496788
  0
ARC
  8
_0-0_フレ__ム
  6
CONTINUOUS
 62
    7
 10
2.3302176294067181
 20
14.780176716010601
 40
0.2
 50
149.99999999999994
 51
180
  0
LINE
  8
_0-0_フレ__ム
  6
CONTINUOUS
 62
    7
 10
2.4188927640014413
 20
15.333766554496833
 11
2.1570125486497886
 21
14.880176716010737
  0
ARC
  8
_0-0_フレ__ム
  6
CONTINUOUS
 62
    7
 10
2.4302176294066271
 20
14.633766554496788
 40
0.2999999999999998
 50
180
 51
265.40648698992635
  0
ARC
  8
_0-0_フレ__ム
  6
CONTINUOUS
 62
    7
 10
3.284918167785861
 20
14.833766554496833
 40
1
 50
90
 51
149.9999999999996
  0
LINE
  8
_0-0_フレ__ム
  6
CONTINUOUS
 62
    7
 10
24.97551709106591
 20
15.833766554496833
 11
3.284918167785861
 21
15.833766554496833
  0
ARC
  8
_0-0_フレ__ム
  6
CONTINUOUS
 62
    7
 10
17.585665199503921
 20
13.046037304966603
 40
0.1
 50
178.00000000000009
 51
219.69495068282708
  0
LINE
  8
_0-0_フレ__ム
  6
CONTINUOUS
 62
    7
 10
18.129198562377326
 20
12.234662771007834
 11
17.508719615015536
 21
12.982167303966662
  0
ARC
  8
_0-0_フレ__ム
  6
CONTINUOUS
 62
    7
 10
18.052252977888941
 20
12.170792770007893
 40
0.1
 50
324.99999999999983
 51
39.69495068282567
  0
ARC
  8
_0-0_フレ__ム
  6
CONTINUOUS
 62
    7
 10
17.254367358387015
 20
12.15620880320148
 40
0.1
 50
331.99999999999875
 51
49.316322355114373
  0
LINE
  8
_0-0_フレ__ム
  6
CONTINUOUS
 62
    7
 10
16.846918108168836
 20
12.638338985171913
 11
17.319555598481259
 21
12.232040810648186
  0
ARC
  8
_0-0_フレ__ム
  6
CONTINUOUS
 62
    7
 10
17.368424028923585
 20
13.244995044745792
 40
0.8
 50
181.98186455643975
 51
229.31632235511645
  0
LINE
  8
_0-0_フレ__ム
  6
CONTINUOUS
 62
    7
 10
18.134168182317865
 20
12.113435126372792
 11
16.532499545798203
 21
9.7362791810816134
  0
LINE
  8
_0-0_フレ__ム
  6
CONTINUOUS
 62
    7
 10
17.342662117672887
 20
12.109261646922846
 11
16.463663496596894
 21
10.379474249219015
  0
ARC
  8
_0-0_フレ__ム
  6
CONTINUOUS
 62
    7
 10
16.285012172382778
 20
9.9837665544968672
 40
0.3499999999999999
 50
78.527842883459925
 51
315.00000000000989
  0
ARC
  8
_0-0_フレ__ム
  6
CONTINUOUS
 62
    7
 10
16.374513444805928
 20
10.424776216788587
 40
0.1
 50
258.52784288345697
 51
333.0624111025013
  0
ARC
  8
_0-0_フレ__ム
  6
CONTINUOUS
 62
    7
 10
10.67477005934785
 20
13.046037304966603
 40
0.1
 50
320.30504931717292
 51
1.9999999999998883
  0
LINE
  8
_0-0_フレ__ム
  6
CONTINUOUS
 62
    7
 10
10.131236696474446
 20
12.234662771007834
 11
10.751715643836235
 21
12.982167303966662
  0
ARC
  8
_0-0_フレ__ム
  6
CONTINUOUS
 62
    7
 10
10.208182280962831
 20
12.170792770007893
 40
0.1
 50
140.30504931717439
 51
215.00000000000017
  0
ARC
  8
_0-0_フレ__ム
  6
CONTINUOUS
 62
    7
 10
11.006067900464757
 20
12.15620880320148
 40
0.1
 50
130.68367764488562
 51
208.00000000000125
  0
LINE
  8
_0-0_フレ__ム
  6
CONTINUOUS
 62
    7
 10
11.413517150682935
 20
12.638338985171913
 11
10.940879660370513
 21
12.232040810648186
  0
ARC
  8
_0-0_フレ__ム
  6
CONTINUOUS
 62
    7
 10
10.892011229928187
 20
13.244995044745792
 40
0.8
 50
310.68367764488346
 51
358.01813544356025
  0
LINE
  8
_0-0_フレ__ム
  6
CONTINUOUS
 62
    7
 10
10.126267076533907
 20
12.113435126372792
 11
11.727935713053569
 21
9.7362791810816134
  0
LINE
  8
_0-0_フレ__ム
  6
CONTINUOUS
 62
    7
 10
10.917773141178884
 20
12.109261646922846
 11
11.796771762254878
 21
10.379474249219015
  0
ARC
  8
_0-0_フレ__ム
  6
CONTINUOUS
 62
    7
 10
11.975423086468993
 20
9.9837665544968672
 40
0.3499999999999999
 50
224.99999999999008
 51
101.47215711654
  0
ARC
  8
_0-0_フレ__ム
  6
CONTINUOUS
 62
    7
 10
11.885921814045844
 20
10.424776216788587
 40
0.1
 50
206.93758889749881
 51
281.47215711654309
  0
ARC
  8
_0-0_フレ__ム
  6
CONTINUOUS
 62
    7
 10
16.24047109900431
 20
14.033766554496822
 40
0.2999999999999998
 50
1.98186455643964
 51
90.000000000000014
  0
LINE
  8
_0-0_フレ__ム
  6
CONTINUOUS
 62
    7
 10
16.540291646041339
 20
14.044141503869469
 11
16.5689025701584
 21
13.217328513085477
  0
LINE
  8
_0-0_フレ__ム
  6
CONTINUOUS
 62
    7
 10
17.676609715956886
 20
14.363275611532003
 11
25.85424345019652
 21
14.334730168855913
  0
LINE
  8
_0-0_フレ__ム
  6
CONTINUOUS
 62
    7
 10
17.526175844726197
 20
14.218464000069673
 11
17.485726116802027
 21
13.049527254636814
  0
ARC
  8
_0-0_フレ__ム
  6
CONTINUOUS
 62
    7
 10
17.676086118244541
 20
14.213276525383378
 40
0.1499999999999999
 50
89.800000000000566
 51
178.01813544356011
  0
LINE
  8
_0-0_フレ__ム
  6
CONTINUOUS
 62
    7
 10
10.583825542894886
 20
14.363275611532003
 11
2.406191808655251
 21
14.334730168855913
  0
LINE
  8
_0-0_フレ__ム
  6
CONTINUOUS
 62
    7
 10
10.734259414125574
 20
14.218464000069673
 11
10.774709142049744
 21
13.049527254636814
  0
ARC
  8
_0-0_フレ__ム
  6
CONTINUOUS
 62
    7
 10
10.58434914060723
 20
14.213276525383378
 40
0.1499999999999999
 50
1.9818645564395891
 51
90.199999999999463
  0
LINE
  8
_0-0_フレ__ム
  6
CONTINUOUS
 62
    7
 10
12.019964159847461
 20
14.333766554496833
 11
16.24047109900431
 21
14.333766554496833
  0
LINE
  8
_0-0_フレ__ム
  6
CONTINUOUS
 62
    7
 10
11.720143612810432
 20
14.044141503869469
 11
11.691532688693371
 21
13.217328513085477
  0
ARC
  8
_0-0_フレ__ム
  6
CONTINUOUS
 62
    7
 10
12.019964159847461
 20
14.033766554496822
 40
0.2999999999999998
 50
90
 51
178.01813544356037
  0
ARC
  8
_0-0_フレ__ム
  6
CONTINUOUS
 62
    7
 10
92.942599054271284
 20
14.633766554496788
 40
0.2999999999999998
 50
274.59351300981291
 51
0
  0
LINE
  8
_0-0_フレ__ム
  6
CONTINUOUS
 62
    7
 10
93.242599054271238
 20
14.780176716010601
 11
93.242599054271238
 21
14.633766554496788
  0
ARC
  8
_0-0_フレ__ム
  6
CONTINUOUS
 62
    7
 10
93.042599054271193
 20
14.780176716010601
 40
0.2
 50
0
 51
29.999999999999996
  0
LINE
  8
_0-0_フレ__ム
  6
CONTINUOUS
 62
    7
 10
92.95392391967647
 20
15.333766554496833
 11
93.215804135028122
 21
14.880176716010737
  0
ARC
  8
_0-0_フレ__ム
  6
CONTINUOUS
 62
    7
 10
92.08789851589205
 20
14.833766554496833
 40
1
 50
30.000000000000423
 51
90
  0
LINE
  8
_0-0_フレ__ム
  6
CONTINUOUS
 62
    7
 10
69.242599054232812
 20
14.780176716010601
 11
69.242599054232812
 21
14.633766554496788
  0
ARC
  8
_0-0_フレ__ム
  6
CONTINUOUS
 62
    7
 10
69.442599054232858
 20
14.780176716010601
 40
0.2
 50
149.99999999999994
 51
180
  0
LINE
  8
_0-0_フレ__ム
  6
CONTINUOUS
 62
    7
 10
69.531274188827581
 20
15.333766554496833
 11
69.269393973475928
 21
14.880176716010737
  0
ARC
  8
_0-0_フレ__ム
  6
CONTINUOUS
 62
    7
 10
69.542599054232767
 20
14.633766554496788
 40
0.2999999999999998
 50
180
 51
265.40648698992635
  0
ARC
  8
_0-0_フレ__ム
  6
CONTINUOUS
 62
    7
 10
70.397299592612001
 20
14.833766554496833
 40
1
 50
90
 51
149.9999999999996
  0
LINE
  8
_0-0_フレ__ム
  6
CONTINUOUS
 62
    7
 10
92.08789851589205
 20
15.833766554496833
 11
70.397299592612001
 21
15.833766554496833
  0
ARC
  8
_0-0_フレ__ム
  6
CONTINUOUS
 62
    7
 10
84.698046624330061
 20
13.046037304966603
 40
0.1
 50
178.00000000000009
 51
219.69495068282708
  0
LINE
  8
_0-0_フレ__ム
  6
CONTINUOUS
 62
    7
 10
85.241579987203465
 20
12.234662771007834
 11
84.621101039841676
 21
12.982167303966662
  0
ARC
  8
_0-0_フレ__ム
  6
CONTINUOUS
 62
    7
 10
85.16463440271508
 20
12.170792770007893
 40
0.1
 50
324.99999999999983
 51
39.69495068282567
  0
ARC
  8
_0-0_フレ__ム
  6
CONTINUOUS
 62
    7
 10
84.366748783213154
 20
12.15620880320148
 40
0.1
 50
331.99999999999875
 51
49.316322355114373
  0
LINE
  8
_0-0_フレ__ム
  6
CONTINUOUS
 62
    7
 10
83.959299532994976
 20
12.638338985171913
 11
84.431937023307398
 21
12.232040810648186
  0
ARC
  8
_0-0_フレ__ム
  6
CONTINUOUS
 62
    7
 10
84.480805453749724
 20
13.244995044745792
 40
0.8
 50
181.98186455643975
 51
229.31632235511645
  0
LINE
  8
_0-0_フレ__ム
  6
CONTINUOUS
 62
    7
 10
85.246549607144004
 20
12.113435126372792
 11
83.644880970624342
 21
9.7362791810816134
  0
LINE
  8
_0-0_フレ__ム
  6
CONTINUOUS
 62
    7
 10
84.455043542499027
 20
12.109261646922846
 11
83.576044921423033
 21
10.379474249219015
  0
ARC
  8
_0-0_フレ__ム
  6
CONTINUOUS
 62
    7
 10
83.397393597208918
 20
9.9837665544968672
 40
0.3499999999999999
 50
78.527842883459925
 51
315.00000000000989
  0
ARC
  8
_0-0_フレ__ム
  6
CONTINUOUS
 62
    7
 10
83.486894869632067
 20
10.424776216788587
 40
0.1
 50
258.52784288345697
 51
333.0624111025013
  0
ARC
  8
_0-0_フレ__ム
  6
CONTINUOUS
 62
    7
 10
77.78715148417399
 20
13.046037304966603
 40
0.1
 50
320.30504931717292
 51
1.9999999999998883
  0
LINE
  8
_0-0_フレ__ム
  6
CONTINUOUS
 62
    7
 10
77.243618121300585
 20
12.234662771007834
 11
77.864097068662375
 21
12.982167303966662
  0
ARC
  8
_0-0_フレ__ム
  6
CONTINUOUS
 62
    7
 10
77.32056370578897
 20
12.170792770007893
 40
0.1
 50
140.30504931717439
 51
215.00000000000017
  0
ARC
  8
_0-0_フレ__ム
  6
CONTINUOUS
 62
    7
 10
78.118449325290896
 20
12.15620880320148
 40
0.1
 50
130.68367764488562
 51
208.00000000000125
  0
LINE
  8
_0-0_フレ__ム
  6
CONTINUOUS
 62
    7
 10
78.525898575509075
 20
12.638338985171913
 11
78.053261085196652
 21
12.232040810648186
  0
ARC
  8
_0-0_フレ__ム
  6
CONTINUOUS
 62
    7
 10
78.004392654754326
 20
13.244995044745792
 40
0.8
 50
310.68367764488346
 51
358.01813544356025
  0
LINE
  8
_0-0_フレ__ム
  6
CONTINUOUS
 62
    7
 10
77.238648501360046
 20
12.113435126372792
 11
78.840317137879708
 21
9.7362791810816134
  0
LINE
  8
_0-0_フレ__ム
  6
CONTINUOUS
 62
    7
 10
78.030154566005024
 20
12.109261646922846
 11
78.909153187081017
 21
10.379474249219015
  0
ARC
  8
_0-0_フレ__ム
  6
CONTINUOUS
 62
    7
 10
79.087804511295133
 20
9.9837665544968672
 40
0.3499999999999999
 50
224.99999999999008
 51
101.47215711654
  0
ARC
  8
_0-0_フレ__ム
  6
CONTINUOUS
 62
    7
 10
78.998303238871983
 20
10.424776216788587
 40
0.1
 50
206.93758889749881
 51
281.47215711654309
  0
ARC
  8
_0-0_フレ__ム
  6
CONTINUOUS
 62
    7
 10
83.35285252383045
 20
14.033766554496822
 40
0.2999999999999998
 50
1.98186455643964
 51
90.000000000000014
  0
LINE
  8
_0-0_フレ__ム
  6
CONTINUOUS
 62
    7
 10
83.652673070867479
 20
14.044141503869469
 11
83.68128399498454
 21
13.217328513085477
  0
LINE
  8
_0-0_フレ__ム
  6
CONTINUOUS
 62
    7
 10
84.788991140783025
 20
14.363275611532003
 11
92.96662487502266
 21
14.334730168855913
  0
LINE
  8
_0-0_フレ__ム
  6
CONTINUOUS
 62
    7
 10
84.638557269552336
 20
14.218464000069673
 11
84.598107541628167
 21
13.049527254636814
  0
ARC
  8
_0-0_フレ__ム
  6
CONTINUOUS
 62
    7
 10
84.788467543070681
 20
14.213276525383378
 40
0.1499999999999999
 50
89.800000000000566
 51
178.01813544356011
  0
LINE
  8
_0-0_フレ__ム
  6
CONTINUOUS
 62
    7
 10
77.696206967721025
 20
14.363275611532003
 11
69.518573233481391
 21
14.334730168855913
  0
LINE
  8
_0-0_フレ__ム
  6
CONTINUOUS
 62
    7
 10
77.846640838951714
 20
14.218464000069673
 11
77.887090566875884
 21
13.049527254636814
  0
ARC
  8
_0-0_フレ__ム
  6
CONTINUOUS
 62
    7
 10
77.69673056543337
 20
14.213276525383378
 40
0.1499999999999999
 50
1.9818645564395891
 51
90.199999999999463
  0
LINE
  8
_0-0_フレ__ム
  6
CONTINUOUS
 62
    7
 10
79.132345584673601
 20
14.333766554496833
 11
83.35285252383045
 21
14.333766554496833
  0
LINE
  8
_0-0_フレ__ム
  6
CONTINUOUS
 62
    7
 10
78.832525037636572
 20
14.044141503869469
 11
78.803914113519511
 21
13.217328513085477
  0
ARC
  8
_0-0_フレ__ム
  6
CONTINUOUS
 62
    7
 10
79.132345584673601
 20
14.033766554496822
 40
0.2999999999999998
 50
90
 51
178.01813544356037
  0
LINE
  8
_0-1_その他LF______
  6
CONTINUOUS
 62
  152
 10
87.542599054252207
 20
6.5104661001437307
 11
87.542599054252207
 21
2.0347301688557309
  0
LINE
  8
_0-1_その他LF______
  6
CONTINUOUS
 62
  152
 10
87.542599054252207
 20
2.0347301688557309
 11
87.342599054252162
 21
1.8347301688559128
  0
LINE
  8
_0-1_その他LF______
  6
CONTINUOUS
 62
  152
 10
84.764953340721206
 20
4.3943098203485533
 11
85.820244767782754
 21
4.6770743060092173
  0
ARC
  8
_0-1_その他LF______
  6
CONTINUOUS
 62
  152
 10
85.742599054252025
 20
6.4347301688558218
 40
0.2999999999999998
 50
0
 51
90
  0
ARC
  8
_0-1_その他LF______
  6
CONTINUOUS
 62
  152
 10
85.742599054252025
 20
4.9668520538962184
 40
0.2999999999999998
 50
284.99999999999994
 51
0
  0
ARC
  8
_0-1_その他LF______
  6
CONTINUOUS
 62
  152
 10
84.842599054251934
 20
4.1045320724620069
 40
0.2999999999999998
 50
105.00000000000018
 51
180.00000000000006
  0
ARC
  8
_0-1_その他LF______
  6
CONTINUOUS
 62
  152
 10
85.918334985540071
 20
8.4347301688562766
 40
0.2999999999999998
 50
270
 51
315
  0
LINE
  8
_0-1_その他LF______
  6
CONTINUOUS
 62
  152
 10
84.542599054252207
 20
1.8347301688559128
 11
84.542599054252207
 21
4.1045320724620069
  0
LINE
  8
_0-1_その他LF______
  6
CONTINUOUS
 62
  152
 10
75.142599054251775
 20
1.8347301688559128
 11
74.942599054251843
 21
2.0347301688557309
  0
LINE
  8
_0-1_その他LF______
  6
CONTINUOUS
 62
  152
 10
74.942599054251843
 20
2.0347301688557309
 11
74.942599054251843
 21
6.5104661001437307
  0
LINE
  8
_0-1_その他LF______
  6
CONTINUOUS
 62
  152
 10
74.854731088607934
 20
6.7225981345000037
 11
73.830467019895934
 21
7.7468622032115491
  0
LINE
  8
_0-1_その他LF______
  6
CONTINUOUS
 62
  152
 10
73.618334985540116
 20
7.8347301688559128
 11
70.842599054251934
 21
7.8347301688559128
  0
LINE
  8
_0-1_その他LF______
  6
CONTINUOUS
 62
  152
 10
70.542599054251752
 20
7.5347301688557309
 11
70.542599054251752
 21
5.7347301688560037
  0
LINE
  8
_0-1_その他LF______
  6
CONTINUOUS
 62
  152
 10
70.242599054252025
 20
5.4347301688558218
 11
69.042599054252207
 21
5.4347301688558218
  0
LINE
  8
_0-1_その他LF______
  6
CONTINUOUS
 62
  152
 10
76.664953340721297
 20
4.6770743060092173
 11
77.720244767782845
 21
4.3943098203485533
  0
LINE
  8
_0-1_その他LF______
  6
CONTINUOUS
 62
  152
 10
76.442599054252071
 20
6.4347301688558218
 11
76.442599054252071
 21
4.9668520538962184
  0
ARC
  8
_0-1_その他LF______
  6
CONTINUOUS
 62
  152
 10
69.042599054252207
 20
5.734730168855549
 40
0.2999999999999998
 50
180
 51
270
  0
ARC
  8
_0-1_その他LF______
  6
CONTINUOUS
 62
  152
 10
77.642599054252116
 20
4.1045320724620069
 40
0.2999999999999998
 50
0
 51
75
  0
ARC
  8
_0-1_その他LF______
  6
CONTINUOUS
 62
  152
 10
76.742599054252025
 20
4.9668520538962184
 40
0.2999999999999998
 50
180
 51
254.9999999999998
  0
ARC
  8
_0-1_その他LF______
  6
CONTINUOUS
 62
  152
 10
76.742599054252025
 20
6.4347301688558218
 40
0.2999999999999998
 50
90
 51
180.00000000000003
  0
ARC
  8
_0-1_その他LF______
  6
CONTINUOUS
 62
  152
 10
73.618334985540116
 20
7.5347301688557309
 40
0.2999999999999998
 50
44.999999999999645
 51
89.999999999999972
  0
ARC
  8
_0-1_その他LF______
  6
CONTINUOUS
 62
  152
 10
70.842599054251934
 20
7.5347301688557309
 40
0.2999999999999998
 50
90
 51
180
  0
ARC
  8
_0-1_その他LF______
  6
CONTINUOUS
 62
  152
 10
70.242599054252025
 20
5.7347301688560037
 40
0.2999999999999998
 50
270
 51
0
  0
ARC
  8
_0-1_その他LF______
  6
CONTINUOUS
 62
  152
 10
74.642599054251662
 20
6.5104661001437307
 40
0.2999999999999998
 50
0
 51
45
  0
LINE
  8
_0-1_その他LF______
  6
CONTINUOUS
 62
  152
 10
77.942599054252071
 20
4.1045320724620069
 11
77.942599054252071
 21
1.8347301688559128
  0
LINE
  8
_0-1_その他LF______
  6
CONTINUOUS
 62
  152
 10
85.742599054252025
 20
6.734730168855549
 11
76.742599054252025
 21
6.734730168855549
  0
ARC
  8
_0-1_その他LF______
  6
CONTINUOUS
 62
  152
 10
86.942599054252071
 20
9.458994237567822
 40
0.2999999999999998
 50
314.99999999999966
 51
0
  0
LINE
  8
_0-1_その他LF______
  6
CONTINUOUS
 62
  152
 10
87.242599054252025
 20
9.458994237567822
 11
87.242599054252025
 21
12.234730168856004
  0
LINE
  8
_0-1_その他LF______
  6
CONTINUOUS
 62
  152
 10
86.130467019896116
 20
8.2225981345000037
 11
87.154731088607889
 21
9.2468622032120038
  0
LINE
  8
_0-1_その他LF______
  6
CONTINUOUS
 62
  152
 10
93.442599054252071
 20
5.4347301688558218
 11
92.242599054252025
 21
5.4347301688558218
  0
LINE
  8
_0-1_その他LF______
  6
CONTINUOUS
 62
  152
 10
91.942599054252298
 20
5.734730168855549
 11
91.942599054252298
 21
7.5347301688557309
  0
LINE
  8
_0-1_その他LF______
  6
CONTINUOUS
 62
  152
 10
88.654731088608116
 20
7.7468622032115491
 11
87.630467019896116
 21
6.7225981344995489
  0
LINE
  8
_0-1_その他LF______
  6
CONTINUOUS
 62
  152
 10
86.042599054252207
 20
4.9668520538962184
 11
86.042599054252207
 21
6.4347301688558218
  0
ARC
  8
_0-1_その他LF______
  6
CONTINUOUS
 62
  152
 10
93.442599054252071
 20
5.734730168855549
 40
0.2999999999999998
 50
270
 51
0
  0
ARC
  8
_0-1_その他LF______
  6
CONTINUOUS
 62
  152
 10
92.242599054252025
 20
5.734730168855549
 40
0.2999999999999998
 50
180
 51
270
  0
ARC
  8
_0-1_その他LF______
  6
CONTINUOUS
 62
  152
 10
91.642599054252116
 20
7.5347301688557309
 40
0.2999999999999998
 50
0
 51
90
  0
ARC
  8
_0-1_その他LF______
  6
CONTINUOUS
 62
  152
 10
88.866863122963935
 20
7.5347301688557309
 40
0.2999999999999998
 50
90
 51
135
  0
ARC
  8
_0-1_その他LF______
  6
CONTINUOUS
 62
  152
 10
87.842599054252389
 20
6.5104661001437307
 40
0.2999999999999998
 50
135.00000000000037
 51
180
  0
LINE
  8
_0-1_その他LF______
  6
CONTINUOUS
 62
  152
 10
91.642599054252116
 20
7.8347301688559128
 11
88.866863122963935
 21
7.8347301688559128
  0
ARC
  8
_0-1_その他LF______
  6
CONTINUOUS
 62
  152
 10
85.142599054252116
 20
14.034730168855731
 40
0.2999999999999998
 50
90
 51
180.00000000000003
  0
LINE
  8
_0-1_その他LF______
  6
CONTINUOUS
 62
  152
 10
84.842599054251934
 20
12.834730168855913
 11
84.842599054251934
 21
14.034730168855731
  0
ARC
  8
_0-1_その他LF______
  6
CONTINUOUS
 62
  152
 10
85.142599054252116
 20
12.834730168855913
 40
0.2999999999999998
 50
180
 51
270
  0
LINE
  8
_0-1_その他LF______
  6
CONTINUOUS
 62
  152
 10
86.942599054252071
 20
12.534730168856186
 11
85.142599054252116
 21
12.534730168856186
  0
ARC
  8
_0-1_その他LF______
  6
CONTINUOUS
 62
  152
 10
86.942599054252071
 20
12.234730168856004
 40
0.2999999999999998
 50
0
 51
90
  0
LINE
  8
_0-1_その他LF______
  6
CONTINUOUS
 62
  152
 10
85.142599054252116
 20
14.334730168855913
 11
92.742599054252025
 21
14.334730168855913
  0
ARC
  8
_0-1_その他LF______
  6
CONTINUOUS
 62
  152
 10
92.742599054252025
 20
13.334730168855913
 40
1
 50
0
 51
90
  0
CIRCLE
  8
_0-1_その他LF______
  6
CONTINUOUS
 62
  152
 10
90.492599054252025
 20
11.084730168855913
 40
2.1000000000000001
  0
LINE
  8
_0-1_その他LF______
  6
CONTINUOUS
 62
  152
 10
93.742599054252025
 20
13.334730168855913
 11
93.742599054252025
 21
5.734730168855549
  0
ARC
  8
_0-1_その他LF______
  6
CONTINUOUS
 62
  152
 10
75.54259905425198
 20
12.234730168856004
 40
0.2999999999999998
 50
90
 51
180
  0
CIRCLE
  8
_0-1_その他LF______
  6
CONTINUOUS
 62
  152
 10
71.992599054252025
 20
11.084730168855913
 40
2.1000000000000001
  0
ARC
  8
_0-1_その他LF______
  6
CONTINUOUS
 62
  152
 10
75.54259905425198
 20
9.458994237567822
 40
0.2999999999999998
 50
180
 51
225
  0
LINE
  8
_0-1_その他LF______
  6
CONTINUOUS
 62
  152
 10
75.242599054252025
 20
12.234730168856004
 11
75.242599054252025
 21
9.458994237567822
  0
LINE
  8
_0-1_その他LF______
  6
CONTINUOUS
 62
  152
 10
77.342599054252162
 20
12.534730168856186
 11
75.54259905425198
 21
12.534730168856186
  0
ARC
  8
_0-1_その他LF______
  6
CONTINUOUS
 62
  152
 10
77.342599054252162
 20
12.834730168855913
 40
0.2999999999999998
 50
270
 51
0
  0
LINE
  8
_0-1_その他LF______
  6
CONTINUOUS
 62
  152
 10
77.642599054252116
 20
14.034730168855731
 11
77.642599054252116
 21
12.834730168855913
  0
ARC
  8
_0-1_その他LF______
  6
CONTINUOUS
 62
  152
 10
77.342599054251934
 20
14.034730168855731
 40
0.2999999999999998
 50
0
 51
90
  0
LINE
  8
_0-1_その他LF______
  6
CONTINUOUS
 62
  152
 10
69.742599054252025
 20
14.334730168855913
 11
77.342599054251934
 21
14.334730168855913
  0
ARC
  8
_0-1_その他LF______
  6
CONTINUOUS
 62
  152
 10
69.742599054252025
 20
13.334730168855913
 40
1
 50
90
 51
180.00000000000003
  0
LINE
  8
_0-1_その他LF______
  6
CONTINUOUS
 62
  152
 10
68.742599054252025
 20
5.734730168855549
 11
68.742599054252025
 21
13.334730168855913
  0
LINE
  8
_0-1_その他LF______
  6
CONTINUOUS
 62
  152
 10
75.330467019896162
 20
9.2468622032120038
 11
76.354731088608162
 21
8.2225981345000037
  0
ARC
  8
_0-1_その他LF______
  6
CONTINUOUS
 62
  152
 10
76.56686312296398
 20
8.4347301688562766
 40
0.2999999999999998
 50
225.00000000000037
 51
270
  0
LINE
  8
_0-1_その他LF______
  6
CONTINUOUS
 62
  152
 10
76.56686312296398
 20
8.1347301688560947
 11
85.918334985540071
 21
8.1347301688560947
  0
LINE
  8
ADD_LINE
  6
DOT
 62
  152
 10
90.492599054252025
 20
11.084730168855913
 11
93.742599054252025
 21
14.334730168855913
  0
LINE
  8
ADD_LINE
  6
DOT
 62
  152
 10
71.992599054252025
 20
11.084730168855913
 11
68.742599054252025
 21
14.334730168855913
  0
TEXT
  8
_0-f_集計
 62
    7
 10
2.672249201703039
 20
2.5275578765300963
 40
4.2999999999999998
 41
0.744186046511628
 50
0
  1
KP2S,Y,B
  0
ENDSEC
  0
EOF
