  0
SECTION
  2
HEADER
  9
$ACADVER
  1
AC1009
  9
$INSBASE
 10
0
 20
0
 30
0
  9
$EXTMIN
 10
0
 20
0
  9
$EXTMAX
 10
1189
 20
841
  9
$LIMMIN
 10
0
 20
0
  9
$LIMMAX
 10
1189
 20
841
  9
$LTSCALE
 40
1
  0
ENDSEC
  0
SECTION
  2
TABLES
  0
TABLE
  2
LTYPE
 70
     9
  0
LTYPE
  2
CONTINUOUS
 70
    64
  3
実線
 72
    65
 73
     0
 40
0.0
  0
LTYPE
  2
DASHED1
 70
    64
  3
--  --  --  --  --  --  --  --  
 72
    65
 73
     2
 40
2.5
 49
1.25
 49
-1.25
  0
LTYPE
  2
DASHED2
 70
    64
  3
----    ----    ----    ----    
 72
    65
 73
     2
 40
5.0
 49
2.5
 49
-2.5
  0
LTYPE
  2
DASHED3
 70
    64
  3
------  ------  ------  ------  
 72
    65
 73
     2
 40
5.0
 49
3.75
 49
-1.25
  0
LTYPE
  2
CENTER1
 70
    64
  3
----- - ----- - ----- - ----- - 
 72
    65
 73
     4
 40
10.0
 49
6.25
 49
-1.25
 49
1.25
 49
-1.25
  0
LTYPE
  2
CENTER2
 70
    64
  3
----------  --  ----------  --  
 72
    65
 73
     4
 40
20.0
 49
12.5
 49
-2.5
 49
2.5
 49
-2.5
  0
LTYPE
  2
PHANTOM1
 70
    64
  3
--- - - --- - - --- - - --- - - 
 72
    65
 73
     6
 40
10.0
 49
3.25
 49
-1.25
 49
1.25
 49
-1.25
 49
1.25
 49
-1.25
  0
LTYPE
  2
PHANTOM2
 70
    64
  3
--------  -  -  --------  -  -  
 72
    65
 73
     6
 40
20.0
 49
10.0
 49
-2.5
 49
1.25
 49
-2.5
 49
1.25
 49
-2.5
  0
LTYPE
  2
DOT
 70
    64
  3
-   -   -   -   -   -   -   -   
 72
    65
 73
     2
 40
2.5
 49
0.625
 49
-1.875
  0
LTYPE
  2
DUMMY
 70
    64
  3
ダミー
 72
    65
 73
     0
 40
0.0
  0
LTYPE
  2
RAND1
 70
    64
  3
ランダム線1
 72
    65
 73
     4
 40
10.0
 49
1.0
 49
-2.0
 49
3.0
 49
-4.0
  0
LTYPE
  2
RAND2
 70
    64
  3
ランダム線2
 72
    65
 73
     4
 40
14.0
 49
2.0
 49
-3.0
 49
4.0
 49
-5.0
  0
LTYPE
  2
RAND3
 70
    64
  3
ランダム線3
 72
    65
 73
     4
 40
18.0
 49
3.0
 49
-4.0
 49
5.0
 49
-6.0
  0
LTYPE
  2
RAND4
 70
    64
  3
ランダム線4
 72
    65
 73
     4
 40
22.0
 49
4.0
 49
-5.0
 49
6.0
 49
-7.0
  0
LTYPE
  2
RAND5
 70
    64
  3
ランダム線5
 72
    65
 73
     4
 40
26.0
 49
5.0
 49
-6.0
 49
7.0
 49
-8.0
  0
LTYPE
  2
LONG1
 70
    64
  3
----------  --  ----------  --  
 72
    65
 73
     4
 40
40.0
 49
32.5
 49
-2.5
 49
2.5
 49
-2.5
  0
LTYPE
  2
LONG2
 70
    64
  3
--------  -  -  --------  -  -  
 72
    65
 73
     6
 40
40.0
 49
30.0
 49
-2.5
 49
1.25
 49
-2.5
 49
1.25
 49
-2.5
  0
LTYPE
  2
LONG3
 70
    64
  3
+++++++++++++++..+++++++++++++++
 72
    65
 73
     2
 40
40.0
 49
37.5
 49
-2.5
  0
LTYPE
  2
LONG4
 70
    64
  3
+++++++++++++++..+++++++++++++++
 72
    65
 73
     2
 40
80.0
 49
75.0
 49
-5.0
  0
LTYPE
  2
LONG5
 70
    64
  3
----------  --  ----------  --  
 72
    65
 73
     4
 40
60.0
 49
37.5
 49
-7.5
 49
7.5
 49
-7.5
  0
LTYPE
  2
dashed
 70
   64
  3
-------   -------------   ------
 72
   65
 73
    2
 40
7.5
 49
6
 49
-1.5
  0
LTYPE
  2
dashed_spaced
 70
   64
  3
----        --------        ----
 72
   65
 73
    2
 40
12
 49
6
 49
-6
  0
LTYPE
  2
long_dashed_dotted
 70
   64
  3
------------- --- --------------
 72
   65
 73
    4
 40
15.25
 49
12
 49
-1.5
 49
0.25
 49
-1.5
  0
LTYPE
  2
long_dashed_double-dotted
 70
   64
  3
----------- --- --- ------------
 72
   65
 73
    6
 40
17
 49
12
 49
-1.5
 49
0.25
 49
-1.5
 49
0.25
 49
-1.5
  0
LTYPE
  2
long_dashed_triplicate-dotted
 70
   64
  3
--------- --- --- --- ----------
 72
   65
 73
    8
 40
18.75
 49
12
 49
-1.5
 49
0.25
 49
-1.5
 49
0.25
 49
-1.5
 49
0.25
 49
-1.5
  0
LTYPE
  2
dotted
 70
   64
  3
   -       -       -       -    
 72
   65
 73
    2
 40
1.75
 49
0.25
 49
-1.5
  0
LTYPE
  2
chain
 70
   64
  3
-------------- -- --------------
 72
   65
 73
    4
 40
18.5
 49
12
 49
-1.5
 49
3.5
 49
-1.5
  0
LTYPE
  2
chain_double_dash
 70
   64
  3
------------ -- -- -------------
 72
   65
 73
    6
 40
23.5
 49
12
 49
-1.5
 49
3.5
 49
-1.5
 49
3.5
 49
-1.5
  0
LTYPE
  2
dashed_dotted
 70
   64
  3
-----------     -     ----------
 72
   65
 73
    4
 40
9.25
 49
6
 49
-1.5
 49
0.25
 49
-1.5
  0
LTYPE
  2
double-dashed_dotted
 70
   64
  3
------   -----------   -   -----
 72
   65
 73
    6
 40
16.75
 49
6
 49
-1.5
 49
6
 49
-1.5
 49
0.25
 49
-1.5
  0
LTYPE
  2
dashed_double-dotted
 70
   64
  3
---------    -    -    ---------
 72
   65
 73
    6
 40
11
 49
6
 49
-1.5
 49
0.25
 49
-1.5
 49
0.25
 49
-1.5
  0
LTYPE
  2
double-dashed_double-dotted
 70
   64
  3
-----   ---------   -   -   ----
 72
   65
 73
    8
 40
18.5
 49
6
 49
-1.5
 49
6
 49
-1.5
 49
0.25
 49
-1.5
 49
0.25
 49
-1.5
  0
LTYPE
  2
dashed_triplicate-dotted
 70
   64
  3
-------    -    -    -    ------
 72
   65
 73
    8
 40
12.75
 49
6
 49
-1.5
 49
0.25
 49
-1.5
 49
0.25
 49
-1.5
 49
0.25
 49
-1.5
  0
LTYPE
  2
double-dashed_triplicate-dotted
 70
   64
  3
-----  ---------  -  -  -  -----
 72
   65
 73
   10
 40
20.25
 49
6
 49
-1.5
 49
6
 49
-1.5
 49
0.25
 49
-1.5
 49
0.25
 49
-1.5
 49
0.25
 49
-1.5
  0
LTYPE
  2
undefined
 70
   64
  3
--------------------------------
 72
   65
 73
    0
 40
0
  0
LTYPE
  2
_
 70
   64
  3
                                
 72
   65
 73
    0
 40
0
  0
LTYPE
  2
__18
 70
   64
  3
                                
 72
   65
 73
    0
 40
0
  0
LTYPE
  2
__19
 70
   64
  3
                                
 72
   65
 73
    0
 40
0
  0
LTYPE
  2
__20
 70
   64
  3
                                
 72
   65
 73
    0
 40
0
  0
LTYPE
  2
__21
 70
   64
  3
                                
 72
   65
 73
    0
 40
0
  0
LTYPE
  2
__22
 70
   64
  3
                                
 72
   65
 73
    0
 40
0
  0
LTYPE
  2
__23
 70
   64
  3
                                
 72
   65
 73
    0
 40
0
  0
LTYPE
  2
__24
 70
   64
  3
                                
 72
   65
 73
    0
 40
0
  0
LTYPE
  2
__25
 70
   64
  3
                                
 72
   65
 73
    0
 40
0
  0
LTYPE
  2
__26
 70
   64
  3
                                
 72
   65
 73
    0
 40
0
  0
LTYPE
  2
__27
 70
   64
  3
                                
 72
   65
 73
    0
 40
0
  0
LTYPE
  2
__28
 70
   64
  3
                                
 72
   65
 73
    0
 40
0
  0
LTYPE
  2
__29
 70
   64
  3
                                
 72
   65
 73
    0
 40
0
  0
LTYPE
  2
__30
 70
   64
  3
                                
 72
   65
 73
    0
 40
0
  0
LTYPE
  2
__31
 70
   64
  3
                                
 72
   65
 73
    0
 40
0
  0
LTYPE
  2
__32
 70
   64
  3
                                
 72
   65
 73
    0
 40
0
  0
ENDTAB
  0
TABLE
  2
STYLE
  5
3
100
AcDbSymbolTable
 70
     1
  0
STYLE
  5
10
100
AcDbSymbolTableRecord
100
AcDbTextStyleTableRecord
  2
STANDARD
 70
     0
 40
0.0
 41
1.0
 50
0.0
 71
     0
 42
0.2
  3
txt
  4
bigfont.shx
  0
STYLE
  5
26
100
AcDbSymbolTableRecord
100
AcDbTextStyleTableRecord
  2
TATEGAKI
 70
    68
 40
0.0
 41
1.0
 50
0.0
 71
     0
 42
1.0
  3
txt
  4
bigfont.shx
  0
ENDTAB
  0
TABLE
  2
LAYER
 70
    4
  0
LAYER
  2
_0-0_
 70
   64
 62
    7
  6
CONTINUOUS
  0
LAYER
  2
_0-1_
 70
   64
 62
    7
  6
CONTINUOUS
  0
LAYER
  2
_0-f_
 70
   64
 62
    7
  6
CONTINUOUS
  0
LAYER
  2
ADD_LINE
 70
   64
 62
    7
  6
CONTINUOUS
  0
ENDTAB
  0
ENDSEC
  0
SECTION
  2
BLOCKS
  0
ENDSEC
  0
SECTION
  2
ENTITIES
  0
TEXT
  8
_0-f_
 62
    7
 10
2.9022102641935135
 20
1.7018389233281823
 40
4.2999999999999998
 41
0.744186046511628
 50
0
  1
IL40
  0
LINE
  8
_0-0_
  6
CONTINUOUS
 62
    7
 10
3.3339896239876907
 20
13.018530500266138
 11
4.3339896239876907
 21
12.018530500266138
  0
LINE
  8
_0-0_
  6
CONTINUOUS
 62
    7
 10
4.3339896239876907
 20
12.018530500266138
 11
52.333989623987691
 21
12.018530500266138
  0
LINE
  8
_0-0_
  6
CONTINUOUS
 62
    7
 10
52.333989623987691
 20
12.018530500266138
 11
53.333989623987691
 21
13.018530500266138
  0
LINE
  8
_0-0_
  6
CONTINUOUS
 62
    7
 10
53.333989623987691
 20
13.018530500266138
 11
53.333989623987691
 21
26.018530500266138
  0
LINE
  8
_0-0_
  6
CONTINUOUS
 62
    7
 10
53.333989623987691
 20
26.018530500266138
 11
52.333989623987691
 21
27.018530500266138
  0
LINE
  8
_0-0_
  6
CONTINUOUS
 62
    7
 10
52.333989623987691
 20
27.018530500266138
 11
4.3339896239876907
 21
27.018530500266138
  0
LINE
  8
_0-0_
  6
CONTINUOUS
 62
    7
 10
4.3339896239876907
 20
27.018530500266138
 11
3.3339896239876907
 21
26.018530500266138
  0
LINE
  8
_0-0_
  6
CONTINUOUS
 62
    7
 10
3.3339896239876907
 20
26.018530500266138
 11
3.3339896239876907
 21
13.018530500266138
  0
CIRCLE
  8
_0-0_
  6
CONTINUOUS
 62
    7
 10
42.533989623987509
 20
19.518530500266138
 40
4.1999999999999886
  0
CIRCLE
  8
_0-0_
  6
CONTINUOUS
 62
    7
 10
42.533989623987509
 20
19.518530500266138
 40
5.5856406459999883
  0
CIRCLE
  8
_0-0_
  6
CONTINUOUS
 62
    7
 10
14.133989623987418
 20
19.518530500266138
 40
4.1999999999999886
  0
CIRCLE
  8
_0-0_
  6
CONTINUOUS
 62
    7
 10
14.133989623987418
 20
19.518530500266138
 40
5.5856406459999883
  0
LINE
  8
_0-0_
  6
CONTINUOUS
 62
    7
 10
93.506744018575489
 20
12.018530500266138
 11
93.506744018575489
 21
27.018530500266138
  0
LINE
  8
_0-0_
  6
CONTINUOUS
 62
    7
 10
93.506744018575489
 20
27.018530500266138
 11
85.506744018575489
 21
27.018530500266138
  0
LINE
  8
_0-0_
  6
CONTINUOUS
 62
    7
 10
85.506744018575489
 20
27.018530500266138
 11
85.506744018575489
 21
12.018530500266138
  0
LINE
  8
_0-0_
  6
CONTINUOUS
 62
    7
 10
85.506744018575489
 20
12.018530500266138
 11
93.506744018575489
 21
12.018530500266138
  0
LINE
  8
_0-1_
  6
CENTER1
 62
  152
 10
53.333989623987691
 20
19.518530500266138
 11
3.3339896239876907
 21
19.518530500266138
  0
LINE
  8
_0-1_
  6
CENTER1
 62
  152
 10
14.133989623987418
 20
13.018530500266138
 11
14.133989623987418
 21
26.018530500266138
  0
LINE
  8
_0-1_
  6
CENTER1
 62
  152
 10
42.533989623987509
 20
26.118530500266047
 11
42.533989623987509
 21
13.018530500266138
  0
LINE
  8
_0-1_
  6
CENTER1
 62
  152
 10
97.134409941778074
 20
19.518530500266138
 11
82.215895172386581
 21
19.518530500266138
  0
LINE
  8
_0-1_
  6
DASHED2
 62
  152
 10
85.506744018575489
 20
13.932889854211112
 11
87.90674401857558
 21
15.318530500266093
  0
LINE
  8
_0-1_
  6
DASHED2
 62
  152
 10
87.90674401857558
 20
15.318530500266093
 11
87.90674401857558
 21
23.718530500266183
  0
LINE
  8
_0-1_
  6
DASHED2
 62
  152
 10
87.90674401857558
 20
23.718530500266183
 11
85.506744018575489
 21
25.104171146321164
  0
LINE
  8
_0-1_
  6
DASHED2
 62
  152
 10
93.506744018575489
 20
13.932889854211112
 11
91.106744018575398
 21
15.318530500266093
  0
LINE
  8
_0-1_
  6
DASHED2
 62
  152
 10
91.106744018575398
 20
23.718530500266183
 11
93.506744018575489
 21
25.104171146321164
  0
LINE
  8
_0-1_
  6
DASHED2
 62
  152
 10
87.90674401857558
 20
23.718530500266183
 11
91.106744018575398
 21
23.718530500266183
  0
LINE
  8
_0-1_
  6
DASHED2
 62
  152
 10
91.106744018575398
 20
15.318530500266093
 11
91.106744018575398
 21
23.718530500266183
  0
LINE
  8
_0-1_
  6
DASHED2
 62
  152
 10
87.90674401857558
 20
15.318530500266093
 11
91.106744018575398
 21
15.318530500266093
  0
ENDSEC
  0
EOF
