  0
SECTION
  2
HEADER
  9
$ACADVER
  1
AC1009
  9
$INSBASE
 10
0
 20
0
 30
0
  9
$EXTMIN
 10
0
 20
0
  9
$EXTMAX
 10
1189
 20
841
  9
$LIMMIN
 10
0
 20
0
  9
$LIMMAX
 10
1189
 20
841
  9
$LTSCALE
 40
1
  0
ENDSEC
  0
SECTION
  2
TABLES
  0
TABLE
  2
LTYPE
 70
     9
  0
LTYPE
  2
CONTINUOUS
 70
    64
  3
実線
 72
    65
 73
     0
 40
0.0
  0
LTYPE
  2
DASHED1
 70
    64
  3
--  --  --  --  --  --  --  --  
 72
    65
 73
     2
 40
2.5
 49
1.25
 49
-1.25
  0
LTYPE
  2
DASHED2
 70
    64
  3
----    ----    ----    ----    
 72
    65
 73
     2
 40
5.0
 49
2.5
 49
-2.5
  0
LTYPE
  2
DASHED3
 70
    64
  3
------  ------  ------  ------  
 72
    65
 73
     2
 40
5.0
 49
3.75
 49
-1.25
  0
LTYPE
  2
CENTER1
 70
    64
  3
----- - ----- - ----- - ----- - 
 72
    65
 73
     4
 40
10.0
 49
6.25
 49
-1.25
 49
1.25
 49
-1.25
  0
LTYPE
  2
CENTER2
 70
    64
  3
----------  --  ----------  --  
 72
    65
 73
     4
 40
20.0
 49
12.5
 49
-2.5
 49
2.5
 49
-2.5
  0
LTYPE
  2
PHANTOM1
 70
    64
  3
--- - - --- - - --- - - --- - - 
 72
    65
 73
     6
 40
10.0
 49
3.25
 49
-1.25
 49
1.25
 49
-1.25
 49
1.25
 49
-1.25
  0
LTYPE
  2
PHANTOM2
 70
    64
  3
--------  -  -  --------  -  -  
 72
    65
 73
     6
 40
20.0
 49
10.0
 49
-2.5
 49
1.25
 49
-2.5
 49
1.25
 49
-2.5
  0
LTYPE
  2
DOT
 70
    64
  3
-   -   -   -   -   -   -   -   
 72
    65
 73
     2
 40
2.5
 49
0.625
 49
-1.875
  0
LTYPE
  2
DUMMY
 70
    64
  3
ダミー
 72
    65
 73
     0
 40
0.0
  0
LTYPE
  2
RAND1
 70
    64
  3
ランダム線1
 72
    65
 73
     4
 40
10.0
 49
1.0
 49
-2.0
 49
3.0
 49
-4.0
  0
LTYPE
  2
RAND2
 70
    64
  3
ランダム線2
 72
    65
 73
     4
 40
14.0
 49
2.0
 49
-3.0
 49
4.0
 49
-5.0
  0
LTYPE
  2
RAND3
 70
    64
  3
ランダム線3
 72
    65
 73
     4
 40
18.0
 49
3.0
 49
-4.0
 49
5.0
 49
-6.0
  0
LTYPE
  2
RAND4
 70
    64
  3
ランダム線4
 72
    65
 73
     4
 40
22.0
 49
4.0
 49
-5.0
 49
6.0
 49
-7.0
  0
LTYPE
  2
RAND5
 70
    64
  3
ランダム線5
 72
    65
 73
     4
 40
26.0
 49
5.0
 49
-6.0
 49
7.0
 49
-8.0
  0
LTYPE
  2
LONG1
 70
    64
  3
----------  --  ----------  --  
 72
    65
 73
     4
 40
40.0
 49
32.5
 49
-2.5
 49
2.5
 49
-2.5
  0
LTYPE
  2
LONG2
 70
    64
  3
--------  -  -  --------  -  -  
 72
    65
 73
     6
 40
40.0
 49
30.0
 49
-2.5
 49
1.25
 49
-2.5
 49
1.25
 49
-2.5
  0
LTYPE
  2
LONG3
 70
    64
  3
+++++++++++++++..+++++++++++++++
 72
    65
 73
     2
 40
40.0
 49
37.5
 49
-2.5
  0
LTYPE
  2
LONG4
 70
    64
  3
+++++++++++++++..+++++++++++++++
 72
    65
 73
     2
 40
80.0
 49
75.0
 49
-5.0
  0
LTYPE
  2
LONG5
 70
    64
  3
----------  --  ----------  --  
 72
    65
 73
     4
 40
60.0
 49
37.5
 49
-7.5
 49
7.5
 49
-7.5
  0
LTYPE
  2
dashed
 70
   64
  3
-------   -------------   ------
 72
   65
 73
    2
 40
7.5
 49
6
 49
-1.5
  0
LTYPE
  2
dashed_spaced
 70
   64
  3
----        --------        ----
 72
   65
 73
    2
 40
12
 49
6
 49
-6
  0
LTYPE
  2
long_dashed_dotted
 70
   64
  3
------------- --- --------------
 72
   65
 73
    4
 40
15.25
 49
12
 49
-1.5
 49
0.25
 49
-1.5
  0
LTYPE
  2
long_dashed_double-dotted
 70
   64
  3
----------- --- --- ------------
 72
   65
 73
    6
 40
17
 49
12
 49
-1.5
 49
0.25
 49
-1.5
 49
0.25
 49
-1.5
  0
LTYPE
  2
long_dashed_triplicate-dotted
 70
   64
  3
--------- --- --- --- ----------
 72
   65
 73
    8
 40
18.75
 49
12
 49
-1.5
 49
0.25
 49
-1.5
 49
0.25
 49
-1.5
 49
0.25
 49
-1.5
  0
LTYPE
  2
dotted
 70
   64
  3
   -       -       -       -    
 72
   65
 73
    2
 40
1.75
 49
0.25
 49
-1.5
  0
LTYPE
  2
chain
 70
   64
  3
-------------- -- --------------
 72
   65
 73
    4
 40
18.5
 49
12
 49
-1.5
 49
3.5
 49
-1.5
  0
LTYPE
  2
chain_double_dash
 70
   64
  3
------------ -- -- -------------
 72
   65
 73
    6
 40
23.5
 49
12
 49
-1.5
 49
3.5
 49
-1.5
 49
3.5
 49
-1.5
  0
LTYPE
  2
dashed_dotted
 70
   64
  3
-----------     -     ----------
 72
   65
 73
    4
 40
9.25
 49
6
 49
-1.5
 49
0.25
 49
-1.5
  0
LTYPE
  2
double-dashed_dotted
 70
   64
  3
------   -----------   -   -----
 72
   65
 73
    6
 40
16.75
 49
6
 49
-1.5
 49
6
 49
-1.5
 49
0.25
 49
-1.5
  0
LTYPE
  2
dashed_double-dotted
 70
   64
  3
---------    -    -    ---------
 72
   65
 73
    6
 40
11
 49
6
 49
-1.5
 49
0.25
 49
-1.5
 49
0.25
 49
-1.5
  0
LTYPE
  2
double-dashed_double-dotted
 70
   64
  3
-----   ---------   -   -   ----
 72
   65
 73
    8
 40
18.5
 49
6
 49
-1.5
 49
6
 49
-1.5
 49
0.25
 49
-1.5
 49
0.25
 49
-1.5
  0
LTYPE
  2
dashed_triplicate-dotted
 70
   64
  3
-------    -    -    -    ------
 72
   65
 73
    8
 40
12.75
 49
6
 49
-1.5
 49
0.25
 49
-1.5
 49
0.25
 49
-1.5
 49
0.25
 49
-1.5
  0
LTYPE
  2
double-dashed_triplicate-dotted
 70
   64
  3
-----  ---------  -  -  -  -----
 72
   65
 73
   10
 40
20.25
 49
6
 49
-1.5
 49
6
 49
-1.5
 49
0.25
 49
-1.5
 49
0.25
 49
-1.5
 49
0.25
 49
-1.5
  0
LTYPE
  2
undefined
 70
   64
  3
--------------------------------
 72
   65
 73
    0
 40
0
  0
ENDTAB
  0
TABLE
  2
STYLE
  5
3
100
AcDbSymbolTable
 70
     1
  0
STYLE
  5
10
100
AcDbSymbolTableRecord
100
AcDbTextStyleTableRecord
  2
STANDARD
 70
     0
 40
0.0
 41
1.0
 50
0.0
 71
     0
 42
0.2
  3
txt
  4
bigfont.shx
  0
STYLE
  5
26
100
AcDbSymbolTableRecord
100
AcDbTextStyleTableRecord
  2
TATEGAKI
 70
    68
 40
0.0
 41
1.0
 50
0.0
 71
     0
 42
1.0
  3
txt
  4
bigfont.shx
  0
ENDTAB
  0
TABLE
  2
LAYER
 70
    4
  0
LAYER
  2
_0-0_
 70
   64
 62
    7
  6
CONTINUOUS
  0
LAYER
  2
_0-1_
 70
   64
 62
    7
  6
CONTINUOUS
  0
LAYER
  2
_0-f_
 70
   64
 62
    7
  6
CONTINUOUS
  0
LAYER
  2
ADD_LINE
 70
   64
 62
    7
  6
CONTINUOUS
  0
ENDTAB
  0
ENDSEC
  0
SECTION
  2
BLOCKS
  0
ENDSEC
  0
SECTION
  2
ENTITIES
  0
TEXT
  8
_0-f_
 62
    7
 10
2.4647710741091942
 20
1.6173294639473852
 40
4.2999999999999998
 41
0.744186046511628
 50
0
  1
HNBC
  0
LINE
  8
_0-0_
  6
CONTINUOUS
 62
    7
 10
54.638625867784185
 20
14.001934592772443
 11
54.288625867784276
 21
13.651934592772534
  0
LINE
  8
_0-0_
  6
CONTINUOUS
 62
    7
 10
54.288625867784276
 20
13.651934592772534
 11
44.638625867784185
 21
13.651934592772534
  0
LINE
  8
_0-0_
  6
CONTINUOUS
 62
    7
 10
54.638625867784185
 20
14.001934592772443
 11
54.638625867784185
 21
17.301934592772625
  0
LINE
  8
_0-0_
  6
CONTINUOUS
 62
    7
 10
54.638625867784185
 20
17.301934592772625
 11
54.288625867784276
 21
17.651934592772534
  0
LINE
  8
_0-0_
  6
CONTINUOUS
 62
    7
 10
54.288625867784276
 20
17.651934592772534
 11
44.638625867784185
 21
17.651934592772534
  0
LINE
  8
_0-0_
  6
CONTINUOUS
 62
    7
 10
44.638625867784185
 20
21.151934592772534
 11
44.638625867784185
 21
10.151934592772534
  0
LINE
  8
_0-0_
  6
CONTINUOUS
 62
    7
 10
44.638625867784185
 20
10.151934592772534
 11
41.638625867784185
 21
10.151934592772534
  0
LINE
  8
_0-0_
  6
CONTINUOUS
 62
    7
 10
41.638625867784185
 20
9.3519345927728068
 11
41.638625867784185
 21
21.951934592772716
  0
LINE
  8
_0-0_
  6
CONTINUOUS
 62
    7
 10
41.438625867784367
 20
22.151934592772534
 11
33.838625867784003
 21
22.151934592772534
  0
LINE
  8
_0-0_
  6
CONTINUOUS
 62
    7
 10
34.138625867784185
 20
22.151934592772534
 11
34.138625867784185
 21
22.451934592772716
  0
LINE
  8
_0-0_
  6
CONTINUOUS
 62
    7
 10
34.338625867784003
 20
22.651934592772534
 11
40.938625867784367
 21
22.651934592772534
  0
LINE
  8
_0-0_
  6
CONTINUOUS
 62
    7
 10
41.138625867784185
 20
22.451934592772716
 11
41.138625867784185
 21
22.151934592772534
  0
LINE
  8
_0-0_
  6
CONTINUOUS
 62
    7
 10
40.638625867784185
 20
21.951934592772716
 11
34.638625867784185
 21
21.951934592772716
  0
LINE
  8
_0-0_
  6
CONTINUOUS
 62
    7
 10
34.638625867784185
 20
21.251934592772443
 11
40.638625867784185
 21
21.251934592772443
  0
LINE
  8
_0-0_
  6
CONTINUOUS
 62
    7
 10
40.638625867784185
 20
20.151934592772534
 11
34.638625867784185
 21
20.151934592772534
  0
LINE
  8
_0-0_
  6
CONTINUOUS
 62
    7
 10
34.638625867784185
 20
19.151934592772534
 11
40.638625867784185
 21
19.151934592772534
  0
LINE
  8
_0-0_
  6
CONTINUOUS
 62
    7
 10
40.638625867784185
 20
17.651934592772534
 11
34.638625867784185
 21
17.651934592772534
  0
LINE
  8
_0-0_
  6
CONTINUOUS
 62
    7
 10
34.638625867784185
 20
16.651934592772534
 11
40.638625867784185
 21
16.651934592772534
  0
LINE
  8
_0-0_
  6
CONTINUOUS
 62
    7
 10
40.638625867784185
 20
14.651934592772534
 11
34.638625867784185
 21
14.651934592772534
  0
LINE
  8
_0-0_
  6
CONTINUOUS
 62
    7
 10
34.638625867784185
 20
13.651934592772534
 11
40.638625867784185
 21
13.651934592772534
  0
LINE
  8
_0-0_
  6
CONTINUOUS
 62
    7
 10
40.638625867784185
 20
12.151934592772534
 11
34.638625867784185
 21
12.151934592772534
  0
LINE
  8
_0-0_
  6
CONTINUOUS
 62
    7
 10
34.638625867784185
 20
11.151934592772534
 11
40.638625867784185
 21
11.151934592772534
  0
LINE
  8
_0-0_
  6
CONTINUOUS
 62
    7
 10
40.638625867784185
 20
10.051934592772625
 11
34.638625867784185
 21
10.051934592772625
  0
LINE
  8
_0-0_
  6
CONTINUOUS
 62
    7
 10
34.638625867784185
 20
9.3519345927728068
 11
40.638625867784185
 21
9.3519345927728068
  0
LINE
  8
_0-0_
  6
CONTINUOUS
 62
    7
 10
41.138625867784185
 20
9.151934592772534
 11
41.138625867784185
 21
8.8519345927728068
  0
LINE
  8
_0-0_
  6
CONTINUOUS
 62
    7
 10
40.938625867784367
 20
8.651934592772534
 11
34.338625867784003
 21
8.651934592772534
  0
LINE
  8
_0-0_
  6
CONTINUOUS
 62
    7
 10
34.138625867784185
 20
8.8519345927728068
 11
34.138625867784185
 21
9.151934592772534
  0
LINE
  8
_0-0_
  6
CONTINUOUS
 62
    7
 10
33.838625867784003
 20
9.151934592772534
 11
41.438625867784367
 21
9.151934592772534
  0
LINE
  8
_0-0_
  6
CONTINUOUS
 62
    7
 10
33.638625867784185
 20
9.3519345927728068
 11
33.638625867784185
 21
21.951934592772716
  0
LINE
  8
_0-0_
  6
CONTINUOUS
 62
    7
 10
33.638625867784185
 20
21.651934592772534
 11
32.838625867784003
 21
21.651934592772534
  0
LINE
  8
_0-0_
  6
CONTINUOUS
 62
    7
 10
32.638625867784185
 20
21.451934592772716
 11
32.638625867784185
 21
9.8519345927728068
  0
LINE
  8
_0-0_
  6
CONTINUOUS
 62
    7
 10
32.838625867784003
 20
9.651934592772534
 11
33.638625867784185
 21
9.651934592772534
  0
LINE
  8
_0-0_
  6
CONTINUOUS
 62
    7
 10
41.638625867784185
 20
21.151934592772534
 11
44.638625867784185
 21
21.151934592772534
  0
ARC
  8
_0-0_
  6
CONTINUOUS
 62
    7
 10
40.638625867784185
 20
19.651934592772534
 40
0.5
 50
270
 51
90
  0
ARC
  8
_0-0_
  6
CONTINUOUS
 62
    7
 10
34.638625867784185
 20
19.651934592772534
 40
0.5
 50
90
 51
270
  0
ARC
  8
_0-0_
  6
CONTINUOUS
 62
    7
 10
34.638625867784185
 20
17.151934592772534
 40
0.5
 50
90
 51
270
  0
ARC
  8
_0-0_
  6
CONTINUOUS
 62
    7
 10
40.638625867784185
 20
17.151934592772534
 40
0.5
 50
270
 51
90
  0
LINE
  8
_0-0_
  6
CONTINUOUS
 62
    7
 10
41.138625867784185
 20
21.601934592772807
 11
41.131029744290345
 21
21.541157730589362
  0
LINE
  8
_0-0_
  6
CONTINUOUS
 62
    7
 10
41.131029744290345
 20
21.541157730589362
 11
41.10847217817718
 21
21.482227542608825
  0
LINE
  8
_0-0_
  6
CONTINUOUS
 62
    7
 10
41.10847217817718
 20
21.482227542608825
 11
41.071638569676452
 21
21.426934592772795
  0
LINE
  8
_0-0_
  6
CONTINUOUS
 62
    7
 10
41.071638569676452
 20
21.426934592772795
 11
41.021648089343671
 21
21.376958929382511
  0
LINE
  8
_0-0_
  6
CONTINUOUS
 62
    7
 10
41.021648089343671
 20
21.376958929382511
 11
40.960019672627482
 21
21.333819037681167
  0
LINE
  8
_0-0_
  6
CONTINUOUS
 62
    7
 10
40.960019672627482
 20
21.333819037681167
 11
40.888625867784185
 21
21.298825701448266
  0
LINE
  8
_0-0_
  6
CONTINUOUS
 62
    7
 10
40.888625867784185
 20
21.298825701448266
 11
40.809635939447048
 21
21.273042175497721
  0
LINE
  8
_0-0_
  6
CONTINUOUS
 62
    7
 10
40.809635939447048
 20
21.273042175497721
 11
40.725449956617695
 21
21.257251879218529
  0
LINE
  8
_0-0_
  6
CONTINUOUS
 62
    7
 10
40.725449956617695
 20
21.257251879218529
 11
40.640914620866397
 21
21.251938259665508
  0
LINE
  8
_0-0_
  6
CONTINUOUS
 62
    7
 10
40.640914620866397
 20
21.951930925880106
 11
40.727703028755968
 21
21.946335488681484
  0
LINE
  8
_0-0_
  6
CONTINUOUS
 62
    7
 10
40.727703028755968
 20
21.946335488681484
 11
40.811784872184603
 21
21.930275604535836
  0
LINE
  8
_0-0_
  6
CONTINUOUS
 62
    7
 10
40.811784872184603
 20
21.930275604535836
 11
40.890605366887257
 21
21.904239244896416
  0
LINE
  8
_0-0_
  6
CONTINUOUS
 62
    7
 10
40.890605366887257
 20
21.904239244896416
 11
40.961769592017504
 21
21.86901751137566
  0
LINE
  8
_0-0_
  6
CONTINUOUS
 62
    7
 10
40.961769592017504
 20
21.86901751137566
 11
41.023115258605458
 21
21.825680598523718
  0
LINE
  8
_0-0_
  6
CONTINUOUS
 62
    7
 10
41.023115258605458
 20
21.825680598523718
 11
41.07277840961433
 21
21.775545276507955
  0
LINE
  8
_0-0_
  6
CONTINUOUS
 62
    7
 10
41.07277840961433
 20
21.775545276507955
 11
41.109250055331472
 21
21.720134881718195
  0
LINE
  8
_0-0_
  6
CONTINUOUS
 62
    7
 10
41.109250055331472
 20
21.720134881718195
 11
41.131422023257301
 21
21.661133030960968
  0
LINE
  8
_0-0_
  6
CONTINUOUS
 62
    7
 10
41.131422023257301
 20
21.661133030960968
 11
41.138625867784185
 21
21.601934592772807
  0
LINE
  8
_0-0_
  6
CONTINUOUS
 62
    7
 10
34.636337114701973
 20
21.251938259665508
 11
34.549548706812402
 21
21.25753369686413
  0
LINE
  8
_0-0_
  6
CONTINUOUS
 62
    7
 10
34.549548706812402
 20
21.25753369686413
 11
34.465466863383767
 21
21.273593581009777
  0
LINE
  8
_0-0_
  6
CONTINUOUS
 62
    7
 10
34.465466863383767
 20
21.273593581009777
 11
34.386646368681113
 21
21.299629940649197
  0
LINE
  8
_0-0_
  6
CONTINUOUS
 62
    7
 10
34.386646368681113
 20
21.299629940649197
 11
34.315482143550867
 21
21.334851674169954
  0
LINE
  8
_0-0_
  6
CONTINUOUS
 62
    7
 10
34.315482143550867
 20
21.334851674169954
 11
34.254136476962913
 21
21.378188587021896
  0
LINE
  8
_0-0_
  6
CONTINUOUS
 62
    7
 10
34.254136476962913
 20
21.378188587021896
 11
34.204473325954041
 21
21.428323909037658
  0
LINE
  8
_0-0_
  6
CONTINUOUS
 62
    7
 10
34.204473325954041
 20
21.428323909037658
 11
34.168001680236898
 21
21.483734303827418
  0
LINE
  8
_0-0_
  6
CONTINUOUS
 62
    7
 10
34.168001680236898
 20
21.483734303827418
 11
34.14582971231107
 21
21.542736154584645
  0
LINE
  8
_0-0_
  6
CONTINUOUS
 62
    7
 10
34.14582971231107
 20
21.542736154584645
 11
34.138625867784185
 21
21.601934592772807
  0
LINE
  8
_0-0_
  6
CONTINUOUS
 62
    7
 10
34.138625867784185
 20
21.601934592772807
 11
34.146221991278026
 21
21.662711454956252
  0
LINE
  8
_0-0_
  6
CONTINUOUS
 62
    7
 10
34.146221991278026
 20
21.662711454956252
 11
34.16877955739119
 21
21.721641642936788
  0
LINE
  8
_0-0_
  6
CONTINUOUS
 62
    7
 10
34.16877955739119
 20
21.721641642936788
 11
34.205613165891918
 21
21.776934592772818
  0
LINE
  8
_0-0_
  6
CONTINUOUS
 62
    7
 10
34.205613165891918
 20
21.776934592772818
 11
34.255603646224699
 21
21.826910256163103
  0
LINE
  8
_0-0_
  6
CONTINUOUS
 62
    7
 10
34.255603646224699
 20
21.826910256163103
 11
34.317232062940889
 21
21.870050147864447
  0
LINE
  8
_0-0_
  6
CONTINUOUS
 62
    7
 10
34.317232062940889
 20
21.870050147864447
 11
34.388625867784185
 21
21.905043484097348
  0
LINE
  8
_0-0_
  6
CONTINUOUS
 62
    7
 10
34.388625867784185
 20
21.905043484097348
 11
34.467615796121322
 21
21.930827010047892
  0
LINE
  8
_0-0_
  6
CONTINUOUS
 62
    7
 10
34.467615796121322
 20
21.930827010047892
 11
34.551801778950676
 21
21.946617306327084
  0
LINE
  8
_0-0_
  6
CONTINUOUS
 62
    7
 10
34.551801778950676
 20
21.946617306327084
 11
34.636337114701973
 21
21.951930925880106
  0
ARC
  8
_0-0_
  6
CONTINUOUS
 62
    7
 10
32.838625867784003
 20
21.451934592772716
 40
0.2
 50
90
 51
180
  0
ARC
  8
_0-0_
  6
CONTINUOUS
 62
    7
 10
33.838625867784003
 20
21.951934592772716
 40
0.2
 50
90
 51
180
  0
ARC
  8
_0-0_
  6
CONTINUOUS
 62
    7
 10
34.338625867784003
 20
22.451934592772716
 40
0.2
 50
90
 51
180
  0
ARC
  8
_0-0_
  6
CONTINUOUS
 62
    7
 10
40.938625867784367
 20
22.451934592772716
 40
0.2
 50
0
 51
90
  0
ARC
  8
_0-0_
  6
CONTINUOUS
 62
    7
 10
32.838625867784003
 20
9.8519345927728068
 40
0.2
 50
180
 51
270
  0
ARC
  8
_0-0_
  6
CONTINUOUS
 62
    7
 10
40.638625867784185
 20
11.651934592772534
 40
0.5
 50
270
 51
90
  0
ARC
  8
_0-0_
  6
CONTINUOUS
 62
    7
 10
34.638625867784185
 20
11.651934592772534
 40
0.5
 50
90
 51
270
  0
ARC
  8
_0-0_
  6
CONTINUOUS
 62
    7
 10
34.638625867784185
 20
14.151934592772534
 40
0.5
 50
90
 51
270
  0
ARC
  8
_0-0_
  6
CONTINUOUS
 62
    7
 10
40.638625867784185
 20
14.151934592772534
 40
0.5
 50
270
 51
90
  0
LINE
  8
_0-0_
  6
CONTINUOUS
 62
    7
 10
40.640914620866397
 20
10.051930925880072
 11
40.727703028755968
 21
10.046335488681336
  0
LINE
  8
_0-0_
  6
CONTINUOUS
 62
    7
 10
40.727703028755968
 20
10.046335488681336
 11
40.811784872184603
 21
10.030275604535746
  0
LINE
  8
_0-0_
  6
CONTINUOUS
 62
    7
 10
40.811784872184603
 20
10.030275604535746
 11
40.890605366887257
 21
10.004239244896269
  0
LINE
  8
_0-0_
  6
CONTINUOUS
 62
    7
 10
40.890605366887257
 20
10.004239244896269
 11
40.961769592017504
 21
9.9690175113756254
  0
LINE
  8
_0-0_
  6
CONTINUOUS
 62
    7
 10
40.961769592017504
 20
9.9690175113756254
 11
41.023115258605458
 21
9.9256805985236269
  0
LINE
  8
_0-0_
  6
CONTINUOUS
 62
    7
 10
41.023115258605458
 20
9.9256805985236269
 11
41.07277840961433
 21
9.8755452765078644
  0
LINE
  8
_0-0_
  6
CONTINUOUS
 62
    7
 10
41.07277840961433
 20
9.8755452765078644
 11
41.109250055331472
 21
9.8201348817180474
  0
LINE
  8
_0-0_
  6
CONTINUOUS
 62
    7
 10
41.109250055331472
 20
9.8201348817180474
 11
41.131422023257301
 21
9.7611330309608775
  0
LINE
  8
_0-0_
  6
CONTINUOUS
 62
    7
 10
41.131422023257301
 20
9.7611330309608775
 11
41.138625867784185
 21
9.7019345927727159
  0
LINE
  8
_0-0_
  6
CONTINUOUS
 62
    7
 10
41.138625867784185
 20
9.7019345927727159
 11
41.131029744290345
 21
9.6411577305893275
  0
LINE
  8
_0-0_
  6
CONTINUOUS
 62
    7
 10
41.131029744290345
 20
9.6411577305893275
 11
41.10847217817718
 21
9.5822275426087344
  0
LINE
  8
_0-0_
  6
CONTINUOUS
 62
    7
 10
41.10847217817718
 20
9.5822275426087344
 11
41.071638569676452
 21
9.5269345927727045
  0
LINE
  8
_0-0_
  6
CONTINUOUS
 62
    7
 10
41.071638569676452
 20
9.5269345927727045
 11
41.021648089343671
 21
9.4769589293824197
  0
LINE
  8
_0-0_
  6
CONTINUOUS
 62
    7
 10
41.021648089343671
 20
9.4769589293824197
 11
40.960019672627482
 21
9.4338190376810758
  0
LINE
  8
_0-0_
  6
CONTINUOUS
 62
    7
 10
40.960019672627482
 20
9.4338190376810758
 11
40.888625867784185
 21
9.3988257014481746
  0
LINE
  8
_0-0_
  6
CONTINUOUS
 62
    7
 10
40.888625867784185
 20
9.3988257014481746
 11
40.809635939447048
 21
9.3730421754976874
  0
LINE
  8
_0-0_
  6
CONTINUOUS
 62
    7
 10
40.809635939447048
 20
9.3730421754976874
 11
40.725449956617695
 21
9.3572518792184383
  0
LINE
  8
_0-0_
  6
CONTINUOUS
 62
    7
 10
40.725449956617695
 20
9.3572518792184383
 11
40.640914620866397
 21
9.35193825966536
  0
LINE
  8
_0-0_
  6
CONTINUOUS
 62
    7
 10
34.138625867784185
 20
9.7019345927727159
 11
34.146221991278026
 21
9.7627114549561043
  0
LINE
  8
_0-0_
  6
CONTINUOUS
 62
    7
 10
34.146221991278026
 20
9.7627114549561043
 11
34.16877955739119
 21
9.8216416429366973
  0
LINE
  8
_0-0_
  6
CONTINUOUS
 62
    7
 10
34.16877955739119
 20
9.8216416429366973
 11
34.205613165891918
 21
9.8769345927727272
  0
LINE
  8
_0-0_
  6
CONTINUOUS
 62
    7
 10
34.205613165891918
 20
9.8769345927727272
 11
34.255603646224699
 21
9.926910256163012
  0
LINE
  8
_0-0_
  6
CONTINUOUS
 62
    7
 10
34.255603646224699
 20
9.926910256163012
 11
34.317232062940889
 21
9.9700501478643559
  0
LINE
  8
_0-0_
  6
CONTINUOUS
 62
    7
 10
34.317232062940889
 20
9.9700501478643559
 11
34.388625867784185
 21
10.005043484097257
  0
LINE
  8
_0-0_
  6
CONTINUOUS
 62
    7
 10
34.388625867784185
 20
10.005043484097257
 11
34.467615796121322
 21
10.030827010047744
  0
LINE
  8
_0-0_
  6
CONTINUOUS
 62
    7
 10
34.467615796121322
 20
10.030827010047744
 11
34.551801778950676
 21
10.046617306326993
  0
LINE
  8
_0-0_
  6
CONTINUOUS
 62
    7
 10
34.551801778950676
 20
10.046617306326993
 11
34.636337114701973
 21
10.051930925880072
  0
LINE
  8
_0-0_
  6
CONTINUOUS
 62
    7
 10
34.636337114701973
 20
9.35193825966536
 11
34.549548706812402
 21
9.3575336968640954
  0
LINE
  8
_0-0_
  6
CONTINUOUS
 62
    7
 10
34.549548706812402
 20
9.3575336968640954
 11
34.465466863383767
 21
9.3735935810096862
  0
LINE
  8
_0-0_
  6
CONTINUOUS
 62
    7
 10
34.465466863383767
 20
9.3735935810096862
 11
34.386646368681113
 21
9.399629940649163
  0
LINE
  8
_0-0_
  6
CONTINUOUS
 62
    7
 10
34.386646368681113
 20
9.399629940649163
 11
34.315482143550867
 21
9.4348516741698063
  0
LINE
  8
_0-0_
  6
CONTINUOUS
 62
    7
 10
34.315482143550867
 20
9.4348516741698063
 11
34.254136476962913
 21
9.4781885870218048
  0
LINE
  8
_0-0_
  6
CONTINUOUS
 62
    7
 10
34.254136476962913
 20
9.4781885870218048
 11
34.204473325954041
 21
9.5283239090375673
  0
LINE
  8
_0-0_
  6
CONTINUOUS
 62
    7
 10
34.204473325954041
 20
9.5283239090375673
 11
34.168001680236898
 21
9.5837343038273843
  0
LINE
  8
_0-0_
  6
CONTINUOUS
 62
    7
 10
34.168001680236898
 20
9.5837343038273843
 11
34.14582971231107
 21
9.6427361545845542
  0
LINE
  8
_0-0_
  6
CONTINUOUS
 62
    7
 10
34.14582971231107
 20
9.6427361545845542
 11
34.138625867784185
 21
9.7019345927727159
  0
ARC
  8
_0-0_
  6
CONTINUOUS
 62
    7
 10
34.338625867784003
 20
8.8519345927728068
 40
0.2
 50
180
 51
270
  0
ARC
  8
_0-0_
  6
CONTINUOUS
 62
    7
 10
40.938625867784367
 20
8.8519345927728068
 40
0.2
 50
270
 51
0
  0
ARC
  8
_0-0_
  6
CONTINUOUS
 62
    7
 10
33.838625867784003
 20
9.3519345927728068
 40
0.2
 50
180
 51
270
  0
ARC
  8
_0-0_
  6
CONTINUOUS
 62
    7
 10
41.438625867784367
 20
21.951934592772716
 40
0.2
 50
0
 51
90
  0
ARC
  8
_0-0_
  6
CONTINUOUS
 62
    7
 10
41.438625867784367
 20
9.3519345927728068
 40
0.2
 50
270
 51
0
  0
CIRCLE
  8
_0-0_
  6
CONTINUOUS
 62
    7
 10
11.734251299353446
 20
15.651934592772534
 40
7
  0
CIRCLE
  8
_0-0_
  6
CONTINUOUS
 62
    7
 10
11.734251299353446
 20
15.651934592772534
 40
6
  0
CIRCLE
  8
_0-0_
  6
CONTINUOUS
 62
    7
 10
11.734251299353446
 20
15.651934592772534
 40
6.5
  0
LINE
  8
_0-1_
  6
CONTINUOUS
 62
  152
 10
44.638625867784185
 20
17.301934592772625
 11
54.638625867784185
 21
17.301934592772625
  0
LINE
  8
_0-1_
  6
CONTINUOUS
 62
  152
 10
54.288625867784276
 20
17.651934592772534
 11
54.288625867784276
 21
13.651934592772534
  0
LINE
  8
_0-1_
  6
CONTINUOUS
 62
  152
 10
44.638625867784185
 20
14.001934592772443
 11
54.638625867784185
 21
14.001934592772443
  0
LINE
  8
_0-1_
  6
CENTER1
 62
  152
 10
32.638625867784185
 20
15.651934592772534
 11
54.638625867784185
 21
15.651934592772534
  0
LINE
  8
_0-1_
  6
CENTER1
 62
  152
 10
11.734251299353446
 20
23.651934592772534
 11
11.734251299353446
 21
7.651934592772534
  0
LINE
  8
_0-1_
  6
CENTER1
 62
  152
 10
3.7342512993534456
 20
15.651934592772534
 11
19.734251299353446
 21
15.651934592772534
  0
ENDSEC
  0
EOF
