  0
SECTION
  2
HEADER
  9
$ACADVER
  1
AC1009
  9
$DWGCODEPAGE
  3
ansi_932
  9
$INSBASE
 10
0.0
 20
0.0
 30
0.0
  9
$EXTMIN
 10
0.3455691926584805
 20
0.0
 30
0.0
  9
$EXTMAX
 10
20.51424389145366
 20
9.0
 30
0.0
  9
$LIMMIN
 10
0.0
 20
0.0
  9
$LIMMAX
 10
1189.0
 20
841.0
  9
$ORTHOMODE
 70
     0
  9
$REGENMODE
 70
     1
  9
$FILLMODE
 70
     1
  9
$QTEXTMODE
 70
     0
  9
$MIRRTEXT
 70
     1
  9
$DRAGMODE
 70
     2
  9
$LTSCALE
 40
1.0
  9
$OSMODE
 70
    37
  9
$ATTMODE
 70
     1
  9
$TEXTSIZE
 40
0.2
  9
$TRACEWID
 40
0.05
  9
$TEXTSTYLE
  7
STANDARD
  9
$CLAYER
  8
0
  9
$CELTYPE
  6
BYBLOCK
  9
$CECOLOR
 62
   256
  9
$DIMSCALE
 40
1.0
  9
$DIMASZ
 40
0.18
  9
$DIMEXO
 40
0.0625
  9
$DIMDLI
 40
0.38
  9
$DIMRND
 40
0.0
  9
$DIMDLE
 40
0.36
  9
$DIMEXE
 40
0.18
  9
$DIMTP
 40
0.0
  9
$DIMTM
 40
0.0
  9
$DIMTXT
 40
0.18
  9
$DIMCEN
 40
0.09
  9
$DIMTSZ
 40
0.0
  9
$DIMTOL
 70
     0
  9
$DIMLIM
 70
     0
  9
$DIMTIH
 70
     1
  9
$DIMTOH
 70
     1
  9
$DIMSE1
 70
     0
  9
$DIMSE2
 70
     0
  9
$DIMTAD
 70
     0
  9
$DIMZIN
 70
     0
  9
$DIMBLK
  1

  9
$DIMASO
 70
     1
  9
$DIMSHO
 70
     1
  9
$DIMPOST
  1

  9
$DIMAPOST
  1

  9
$DIMALT
 70
     0
  9
$DIMALTD
 70
     2
  9
$DIMALTF
 40
25.4
  9
$DIMLFAC
 40
1.0
  9
$DIMTOFL
 70
     0
  9
$DIMTVP
 40
0.0
  9
$DIMTIX
 70
     0
  9
$DIMSOXD
 70
     0
  9
$DIMSAH
 70
     0
  9
$DIMBLK1
  1

  9
$DIMBLK2
  1

  9
$DIMSTYLE
  2
STANDARD
  9
$DIMCLRD
 70
     0
  9
$DIMCLRE
 70
     0
  9
$DIMCLRT
 70
     0
  9
$DIMTFAC
 40
1.0
  9
$DIMGAP
 40
0.09
  9
$LUNITS
 70
     2
  9
$LUPREC
 70
     4
  9
$SKETCHINC
 40
0.1
  9
$FILLETRAD
 40
0.5
  9
$AUNITS
 70
     0
  9
$AUPREC
 70
     0
  9
$MENU
  1
.
  9
$ELEVATION
 40
0.0
  9
$PELEVATION
 40
0.0
  9
$THICKNESS
 40
0.0
  9
$LIMCHECK
 70
     0
  9
$CHAMFERA
 40
0.0
  9
$CHAMFERB
 40
0.0
  9
$SKPOLY
 70
     0
  9
$TDCREATE
 40
2459506.751830185
  9
$TDUPDATE
 40
2459506.751831192
  9
$TDINDWG
 40
0.0000000116
  9
$TDUSRTIMER
 40
0.0000000116
  9
$USRTIMER
 70
     1
  9
$ANGBASE
 50
0.0
  9
$ANGDIR
 70
     0
  9
$PDMODE
 70
     0
  9
$PDSIZE
 40
-5.0
  9
$PLINEWID
 40
0.0
  9
$COORDS
 70
     1
  9
$SPLFRAME
 70
     0
  9
$SPLINETYPE
 70
     6
  9
$SPLINESEGS
 70
     8
  9
$ATTDIA
 70
     0
  9
$ATTREQ
 70
     1
  9
$HANDLING
 70
     1
  9
$HANDSEED
  5
241
  9
$SURFTAB1
 70
     6
  9
$SURFTAB2
 70
     6
  9
$SURFTYPE
 70
     6
  9
$SURFU
 70
     6
  9
$SURFV
 70
     6
  9
$UCSNAME
  2

  9
$UCSORG
 10
0.0
 20
0.0
 30
0.0
  9
$UCSXDIR
 10
1.0
 20
0.0
 30
0.0
  9
$UCSYDIR
 10
0.0
 20
1.0
 30
0.0
  9
$PUCSNAME
  2

  9
$PUCSORG
 10
0.0
 20
0.0
 30
0.0
  9
$PUCSXDIR
 10
1.0
 20
0.0
 30
0.0
  9
$PUCSYDIR
 10
0.0
 20
1.0
 30
0.0
  9
$USERI1
 70
     0
  9
$USERI2
 70
     0
  9
$USERI3
 70
     0
  9
$USERI4
 70
     0
  9
$USERI5
 70
     0
  9
$USERR1
 40
0.0
  9
$USERR2
 40
0.0
  9
$USERR3
 40
0.0
  9
$USERR4
 40
0.0
  9
$USERR5
 40
0.0
  9
$WORLDVIEW
 70
     1
  9
$SHADEDGE
 70
     3
  9
$SHADEDIF
 70
    70
  9
$TILEMODE
 70
     1
  9
$MAXACTVP
 70
    64
  9
$PLIMCHECK
 70
     0
  9
$PEXTMIN
 10
1.000000000000000E+20
 20
1.000000000000000E+20
 30
1.000000000000000E+20
  9
$PEXTMAX
 10
-1.000000000000000E+20
 20
-1.000000000000000E+20
 30
-1.000000000000000E+20
  9
$PLIMMIN
 10
0.0
 20
0.0
  9
$PLIMMAX
 10
12.0
 20
9.0
  9
$UNITMODE
 70
     0
  9
$VISRETAIN
 70
     1
  9
$PLINEGEN
 70
     0
  9
$PSLTSCALE
 70
     1
  0
ENDSEC
  0
SECTION
  2
TABLES
  0
TABLE
  2
VPORT
 70
     1
  0
VPORT
  2
*ACTIVE
 70
     0
 10
0.0
 20
0.0
 11
1.0
 21
1.0
 12
10.42990654205607
 22
4.5
 13
0.0
 23
0.0
 14
0.5
 24
0.5
 15
0.5
 25
0.5
 16
0.0
 26
0.0
 36
1.0
 17
0.0
 27
0.0
 37
0.0
 40
9.0
 41
2.240963855421687
 42
50.0
 43
0.0
 44
0.0
 50
0.0
 51
0.0
 71
     0
 72
   100
 73
     1
 74
     3
 75
     0
 76
     0
 77
     0
 78
     0
  0
ENDTAB
  0
TABLE
  2
LTYPE
 70
    36
  0
LTYPE
  2
CONTINUOUS
 70
     0
  3
Solid line
 72
    65
 73
     0
 40
0.0
  0
LTYPE
  2
破線
 70
     0
  3
破線: __ __ __ __ __ __ __ __ __ __ __ __ __
 72
    65
 73
     2
 40
2.0
 49
1.0
 49
-1.0
  0
LTYPE
  2
一点鎖線
 70
     0
  3
一点鎖線: ____ . ____ . ____ . ____ . ____ . ____
 72
    65
 73
     4
 40
18.0
 49
12.0
 49
-2.0
 49
2.0
 49
-2.0
  0
LTYPE
  2
二点鎖線
 70
     0
  3
二点鎖線: ____ . . ____ . . ____ . . ____ . . ____ 
 72
    65
 73
     6
 40
22.0
 49
12.0
 49
-2.0
 49
2.0
 49
-2.0
 49
2.0
 49
-2.0
  0
LTYPE
  2
DASHED1
 70
     0
  3
--  --  --  --  --  --  --  --  
 72
    65
 73
     2
 40
2.5
 49
1.25
 49
-1.25
  0
LTYPE
  2
DASHED2
 70
     0
  3
----    ----    ----    ----    
 72
    65
 73
     2
 40
5.0
 49
2.5
 49
-2.5
  0
LTYPE
  2
DASHED3
 70
     0
  3
------  ------  ------  ------  
 72
    65
 73
     2
 40
5.0
 49
3.75
 49
-1.25
  0
LTYPE
  2
CENTER1
 70
     0
  3
----- - ----- - ----- - ----- - 
 72
    65
 73
     4
 40
10.0
 49
6.25
 49
-1.25
 49
1.25
 49
-1.25
  0
LTYPE
  2
CENTER2
 70
     0
  3
----------  --  ----------  --  
 72
    65
 73
     4
 40
20.0
 49
12.5
 49
-2.5
 49
2.5
 49
-2.5
  0
LTYPE
  2
PHANTOM1
 70
     0
  3
--- - - --- - - --- - - --- - - 
 72
    65
 73
     6
 40
9.5
 49
3.25
 49
-1.25
 49
1.25
 49
-1.25
 49
1.25
 49
-1.25
  0
LTYPE
  2
PHANTOM2
 70
     0
  3
--------  -  -  --------  -  -  
 72
    65
 73
     6
 40
20.0
 49
10.0
 49
-2.5
 49
1.25
 49
-2.5
 49
1.25
 49
-2.5
  0
LTYPE
  2
DOT
 70
     0
  3
-   -   -   -   -   -   -   -   
 72
    65
 73
     2
 40
2.5
 49
0.625
 49
-1.875
  0
LTYPE
  2
RAND1
 70
     0
  3
ランダム線1
 72
    65
 73
     4
 40
10.0
 49
1.0
 49
-2.0
 49
3.0
 49
-4.0
  0
LTYPE
  2
RAND2
 70
     0
  3
ランダム線2
 72
    65
 73
     4
 40
14.0
 49
2.0
 49
-3.0
 49
4.0
 49
-5.0
  0
LTYPE
  2
RAND3
 70
     0
  3
ランダム線3
 72
    65
 73
     4
 40
18.0
 49
3.0
 49
-4.0
 49
5.0
 49
-6.0
  0
LTYPE
  2
RAND4
 70
     0
  3
ランダム線4
 72
    65
 73
     4
 40
22.0
 49
4.0
 49
-5.0
 49
6.0
 49
-7.0
  0
LTYPE
  2
RAND5
 70
     0
  3
ランダム線5
 72
    65
 73
     4
 40
26.0
 49
5.0
 49
-6.0
 49
7.0
 49
-8.0
  0
LTYPE
  2
LONG1
 70
     0
  3
----------  --  ----------  --  
 72
    65
 73
     4
 40
40.0
 49
32.5
 49
-2.5
 49
2.5
 49
-2.5
  0
LTYPE
  2
LONG2
 70
     0
  3
--------  -  -  --------  -  -  
 72
    65
 73
     6
 40
40.0
 49
30.0
 49
-2.5
 49
1.25
 49
-2.5
 49
1.25
 49
-2.5
  0
LTYPE
  2
LONG3
 70
     0
  3
+++++++++++++++..+++++++++++++++
 72
    65
 73
     2
 40
40.0
 49
37.5
 49
-2.5
  0
LTYPE
  2
LONG4
 70
     0
  3
+++++++++++++++..+++++++++++++++
 72
    65
 73
     2
 40
80.0
 49
75.0
 49
-5.0
  0
LTYPE
  2
LONG5
 70
     0
  3
----------  --  ----------  --  
 72
    65
 73
     4
 40
60.0
 49
37.5
 49
-7.5
 49
7.5
 49
-7.5
  0
LTYPE
  2
DASHED
 70
     0
  3
-------   -------------   ------
 72
    65
 73
     2
 40
7.5
 49
6.0
 49
-1.5
  0
LTYPE
  2
DASHED_SPACED
 70
     0
  3
----        --------        ----
 72
    65
 73
     2
 40
12.0
 49
6.0
 49
-6.0
  0
LTYPE
  2
LONG_DASHED_DOTTED
 70
     0
  3
------------- --- --------------
 72
    65
 73
     4
 40
15.25
 49
12.0
 49
-1.5
 49
0.25
 49
-1.5
  0
LTYPE
  2
LONG_DASHED_DOUBLE-DOTTED
 70
     0
  3
----------- --- --- ------------
 72
    65
 73
     6
 40
17.0
 49
12.0
 49
-1.5
 49
0.25
 49
-1.5
 49
0.25
 49
-1.5
  0
LTYPE
  2
LONG_DASHED_TRIPLICATE-DOT
 70
     0
  3
--------- --- --- --- ----------
 72
    65
 73
     8
 40
18.75
 49
12.0
 49
-1.5
 49
0.25
 49
-1.5
 49
0.25
 49
-1.5
 49
0.25
 49
-1.5
  0
LTYPE
  2
DOTTED
 70
     0
  3
   -       -       -       -    
 72
    65
 73
     2
 40
1.75
 49
0.25
 49
-1.5
  0
LTYPE
  2
CHAIN
 70
     0
  3
-------------- -- --------------
 72
    65
 73
     4
 40
18.5
 49
12.0
 49
-1.5
 49
3.5
 49
-1.5
  0
LTYPE
  2
CHAIN_DOUBLE_DASH
 70
     0
  3
------------ -- -- -------------
 72
    65
 73
     6
 40
23.5
 49
12.0
 49
-1.5
 49
3.5
 49
-1.5
 49
3.5
 49
-1.5
  0
LTYPE
  2
DASHED_DOTTED
 70
     0
  3
-----------     -     ----------
 72
    65
 73
     4
 40
9.25
 49
6.0
 49
-1.5
 49
0.25
 49
-1.5
  0
LTYPE
  2
DOUBLE-DASHED_DOTTED
 70
     0
  3
------   -----------   -   -----
 72
    65
 73
     6
 40
16.75
 49
6.0
 49
-1.5
 49
6.0
 49
-1.5
 49
0.25
 49
-1.5
  0
LTYPE
  2
DASHED_DOUBLE-DOTTED
 70
     0
  3
---------    -    -    ---------
 72
    65
 73
     6
 40
11.0
 49
6.0
 49
-1.5
 49
0.25
 49
-1.5
 49
0.25
 49
-1.5
  0
LTYPE
  2
DOUBLE-DASHED_DOUBLE-DOTTE
 70
     0
  3
-----   ---------   -   -   ----
 72
    65
 73
     8
 40
18.5
 49
6.0
 49
-1.5
 49
6.0
 49
-1.5
 49
0.25
 49
-1.5
 49
0.25
 49
-1.5
  0
LTYPE
  2
DASHED_TRIPLICATE-DOTTED
 70
     0
  3
-------    -    -    -    ------
 72
    65
 73
     8
 40
12.75
 49
6.0
 49
-1.5
 49
0.25
 49
-1.5
 49
0.25
 49
-1.5
 49
0.25
 49
-1.5
  0
LTYPE
  2
DOUBLE-DASHED_TRIPLICATE-D
 70
     0
  3
-----  ---------  -  -  -  -----
 72
    65
 73
    10
 40
20.25
 49
6.0
 49
-1.5
 49
6.0
 49
-1.5
 49
0.25
 49
-1.5
 49
0.25
 49
-1.5
 49
0.25
 49
-1.5
  0
ENDTAB
  0
TABLE
  2
LAYER
 70
    12
  0
LAYER
  2
0
 70
     0
 62
     7
  6
CONTINUOUS
  0
LAYER
  2
CENTERLINE_LAYER
 70
     0
 62
     1
  6
一点鎖線
  0
LAYER
  2
DASH_LAYER
 70
     0
 62
     6
  6
破線
  0
LAYER
  2
SOLID_LAYER
 70
     0
 62
     7
  6
CONTINUOUS
  0
LAYER
  2
THICK_SOLID_LAYER
 70
     0
 62
     7
  6
CONTINUOUS
  0
LAYER
  2
DIMENSION_LAYER
 70
     0
 62
     3
  6
CONTINUOUS
  0
LAYER
  2
HATCH_LAYER
 70
     0
 62
     4
  6
CONTINUOUS
  0
LAYER
  2
HIDDEN_LAYER
 70
     0
 62
    -7
  6
CONTINUOUS
  0
LAYER
  2
_0-0_
 70
     0
 62
     7
  6
CONTINUOUS
  0
LAYER
  2
_0-1_
 70
     0
 62
     7
  6
CONTINUOUS
  0
LAYER
  2
_0-E_
 70
     0
 62
     7
  6
CONTINUOUS
  0
LAYER
  2
ADD_LINE
 70
     0
 62
     7
  6
CONTINUOUS
  0
ENDTAB
  0
TABLE
  2
STYLE
 70
     3
  0
STYLE
  2
STANDARD
 70
     0
 40
0.0
 41
1.0
 50
0.0
 71
     0
 42
3.5
  3
txt
  4

  0
STYLE
  2
標準
 70
     0
 40
0.0
 41
0.667
 50
0.0
 71
     0
 42
0.2
  3

  4

  0
STYLE
  2
TATEGAKI
 70
     0
 40
0.0
 41
1.0
 50
0.0
 71
     0
 42
0.2
  3

  4

  0
ENDTAB
  0
TABLE
  2
VIEW
 70
     0
  0
ENDTAB
  0
TABLE
  2
UCS
 70
     0
  0
ENDTAB
  0
TABLE
  2
APPID
 70
   115
  0
APPID
  2
ACAD
 70
     0
  0
APPID
  2
CAXA_DRAFT_PAPERORDER
 70
     0
  0
APPID
  2
CAXA_DRAFT_ROUGH
 70
     0
  0
APPID
  2
CAXA_DRAFT_ROUGH_STD
 70
     0
  0
APPID
  2
CAXA_DRAFT_FORMATED_TXT
 70
     0
  0
APPID
  2
CAXA_DRAFT_DATUM
 70
     0
  0
APPID
  2
CAXA_DRAFT_WELD
 70
     0
  0
APPID
  2
CAXA_DRAFT_GEOTOL
 70
     0
  0
APPID
  2
CAXA_DRAFT_CUTS
 70
     0
  0
APPID
  2
CAXA_DRAFT_DIMHALF
 70
     0
  0
APPID
  2
CAXA_DRAFT_DIMRAY
 70
     0
  0
APPID
  2
CAXA_DRAFT_DIMARCLEN
 70
     0
  0
APPID
  2
CAXA_DRAFT_DIMTAPER
 70
     0
  0
APPID
  2
CAXA_DRAFT_DIMPITCH
 70
     0
  0
APPID
  2
CAXA_DRAFT_DIMCOORD
 70
     0
  0
APPID
  2
CAXA_DRAFT_DIMORIALIGN
 70
     0
  0
APPID
  2
CAXA_DRAFT_DIMHOLEPOS
 70
     0
  0
APPID
  2
CAXA_DRAFT_DIMCRDLEADER
 70
     0
  0
APPID
  2
CAXA_DRAFT_DIMCHAMFER
 70
     0
  0
APPID
  2
CAXA_DRAFT_DIMCENTERHOLE
 70
     0
  0
APPID
  2
CAXA_DRAFT_DIMLEADER
 70
     0
  0
APPID
  2
CAXA_DRAFT_DIMCRDLIST
 70
     0
  0
APPID
  2
CAXA_DRAFT_PAPERSCALE
 70
     0
  0
APPID
  2
CAXA_DRAFT_FILEVERSION
 70
     0
  0
APPID
  2
CAXA_DRAFT_PRODUCTVERSION
 70
     0
  0
APPID
  2
CAXA_DRAFT_DATATABLE
 70
     0
  0
APPID
  2
CAXA_DRAFT_PAPERINFO
 70
     0
  0
APPID
  2
CAXA_DRAFT_PAPERFRAME
 70
     0
  0
APPID
  2
CAXA_DRAFT_PAPERTITLE
 70
     0
  0
APPID
  2
CAXA_DRAFT_PAPERPAREATABLE
 70
     0
  0
APPID
  2
CAXA_DRAFT_PARTNO
 70
     0
  0
APPID
  2
CAXA_DRAFT_BOMTABLE
 70
     0
  0
APPID
  2
CAXA_DRAFT_BLKREF_EXTATT
 70
     0
  0
APPID
  2
CAXA_DRAFT_DBVIEWDATA
 70
     0
  0
APPID
  2
CAXA_DRAFT_DIMSYMTOL
 70
     0
  0
APPID
  2
CAXA_DRAFT_DIMASSEMTOL
 70
     0
  0
APPID
  2
CAXA_DRAFT_DIMANGLETOL
 70
     0
  0
APPID
  2
CAXA_DRAFT_DRAFTDATA
 70
     0
  0
APPID
  2
CAXA_DRAFT_DIMORIGIN
 70
     0
  0
APPID
  2
CAXA_DRAFT_ENLARGE_EDGE
 70
     0
  0
APPID
  2
CAXA_DRAFT_DIMSTY_T_VPOS
 70
     0
  0
APPID
  2
CAXA_DRAFT_DIMSTY_AT_VPOS
 70
     0
  0
APPID
  2
CAXA_DRAFT_BLKHIDE
 70
     0
  0
APPID
  2
CAXA_DRAFT_DIMARROWREVERSE
 70
     0
  0
APPID
  2
CAXA_DRAFT_TXTSTYLE
 70
     0
  0
APPID
  2
CAXA_DRAFT_ATTRIBUTE_2PT
 70
     0
  0
APPID
  2
CAXA_DRAFT_ATTDEF_2PT
 70
     0
  0
APPID
  2
CAXA_DRAFT_DIMBIGARC
 70
     0
  0
APPID
  2
CAXA_DRAFT_ISNEB09R3
 70
     0
  0
APPID
  2
CAXA_DRAFT_WIPEOUT_B_HIDE
 70
     0
  0
APPID
  2
CAXA_DRAFT_BLKREF_SYMBOL
 70
     0
  0
APPID
  2
CAXA_DRAFT_ENL_COMMENTS
 70
     0
  0
APPID
  2
CAXA_DRAFT_ENL_TSCALE
 70
     0
  0
APPID
  2
CAXA_DRAFT_TXTSCALE
 70
     0
  0
APPID
  2
CAXA_DRAFT_KEEPLTSEG_ZOOM
 70
     0
  0
APPID
  2
CAXA_DRAFT_SPECLIB
 70
     0
  0
APPID
  2
CAXA_DRAFT_DATUM_2011R2
 70
     0
  0
APPID
  2
CAXA_DRAFT_ROUGH_2011R2
 70
     0
  0
APPID
  2
CAXA_DRAFT_GEOTOL_2011R2
 70
     0
  0
APPID
  2
CAXA_DRAFT_DMOVMAP_2011R3
 70
     0
  0
APPID
  2
CAXA_DRAFT_DDTSTY_2011R3
 70
     0
  0
APPID
  2
CAXA_DRAFT_SDTSTY_2011R3
 70
     0
  0
APPID
  2
CDRAFT_TXTROT_2011R3
 70
     0
  0
APPID
  2
CDRAFT_TOLOUT_2011R3
 70
     0
  0
APPID
  2
CAXA_DRAFT_DIMARCLENSTYLE
 70
     0
  0
APPID
  2
CAXA_DRAFT_DMOVMAP_2013
 70
     0
  0
APPID
  2
CAXA_DRAFT_DS_DLLNTYPE
 70
     0
  0
APPID
  2
CAXA_DRAFT_DS_LBLLNTYPE
 70
     0
  0
APPID
  2
CAXA_DRAFT_DS_RBLLNTYPE
 70
     0
  0
APPID
  2
CAXA_DRAFT_DS_ISFILLDFM
 70
     0
  0
APPID
  2
CAXA_DRAFT_DS_DISPZTOOL
 70
     0
  0
APPID
  2
CAXA_DRAFT_DS_SYMCOLOR
 70
     0
  0
APPID
  2
CAXA_DRAFT_HATCH_SCALE_ANG
 70
     0
  0
APPID
  2
CAXA_DRAFT_GEOTOL_ISFROMDW
 70
     0
  0
APPID
  2
CXDRAGDIADIMLNSTYLE
 70
     0
  0
APPID
  2
CXDRAGRADDIMLNSTYLE
 70
     0
  0
APPID
  2
CX_DBANNOTATE_SIMDIMORITXT
 70
     0
  0
APPID
  2
CX_DBANNOTATE_TXTLOCPARA
 70
     0
  0
APPID
  2
CX_DBANNOTATE_DRAGTXTLOC
 70
     0
  0
APPID
  2
USERSETTXTLOC
 70
     0
  0
APPID
  2
USERSETTXTLOCTYPE
 70
     0
  0
APPID
  2
USERSETTXTLOCPT
 70
     0
  0
APPID
  2
CAXA_DRAFT_IMAGE_BINARY
 70
     0
  0
APPID
  2
DIMTXTFRMSTYLE_2015R1
 70
     0
  0
APPID
  2
CAXA_DRAFT_GEOTOL_ISSHX
 70
     0
  0
APPID
  2
CAXA_SUPGRAPHICDIM
 70
     0
  0
APPID
  2
CAXA_GRAPHICARCLEN_HASLN
 70
     0
  0
APPID
  2
CAXA_GRAPHICDIM_OUT
 70
     0
  0
APPID
  2
CAXA_DATUM_LEADLNBKMODE
 70
     0
  0
APPID
  2
CX_DBDIM_CRDDIMLINEANDARRO
 70
     0
  0
APPID
  2
CX_DBDIM_TAPERANGLESTD
 70
     0
  0
APPID
  2
CX_DBATTRIBDEF_OPTIONALVAL
 70
     0
  0
APPID
  2
CAXA_DRAFT_LEADER_MLEADERL
 70
     0
  0
APPID
  2
CAXA_DRAFT_WELD_MLEADERLIN
 70
     0
  0
APPID
  2
CAXA_DRAFT_GEOTOL_MLEADERL
 70
     0
  0
APPID
  2
CAXA_DRAFT_ROUGH_MLEADERLI
 70
     0
  0
APPID
  2
CAXA_DRAFT_DATUM_MLEADERLI
 70
     0
  0
APPID
  2
CAXA_DRAFT_ROUGH_STDSPTDAT
 70
     0
  0
APPID
  2
CAXA_DRAFT_CUTS_LABLEDATA
 70
     0
  0
APPID
  2
CAXA_DRAFT_LEADER_DISPREFL
 70
     0
  0
APPID
  2
CAXA_DRAFT_TAPER_TEXTTYPE
 70
     0
  0
APPID
  2
CAXA_DRAFT_TAPER_RATEFORMA
 70
     0
  0
APPID
  2
CAXA_DRAFT_TAPER_RATESEPAR
 70
     0
  0
APPID
  2
CX_DIMSTYLE_TXTFRAME
 70
     0
  0
APPID
  2
CX_DBDIM_TXTFRAME
 70
     0
  0
APPID
  2
CAXA_DRAFT_TABLEENT
 70
     0
  0
APPID
  2
CDRAFT_DIM_STD_REV_NAME
 70
     0
  0
APPID
  2
CAXA_DRAFT_BOM_STDSPTDATA
 70
     0
  0
APPID
  2
CAXA_DRAFT_PARTNO_STDSPTDA
 70
     0
  0
APPID
  2
CAXA_DRAFT_DATUM_LOCPTEDIT
 70
     0
  0
APPID
  2
CAXA_DRAFT_INFO_WMFLAG
 70
     0
  0
APPID
  2
CX_DBDIM_CRDDIMTYPEANDDATA
 70
     0
  0
APPID
  2
CX_DBDIM_DIMORIGINBITEXT
 70
     0
  0
APPID
  2
CX_DBDIM_DIMCRDLEADERPTS
 70
     0
  0
APPID
  2
ACAECLAYERSTANDARD
 70
     0
  0
ENDTAB
  0
TABLE
  2
DIMSTYLE
 70
     5
  0
DIMSTYLE
  2
STANDARD
 70
     0
  3

  4

  5

  6

  7

 40
1.0
 41
0.18
 42
0.0625
 43
0.38
 44
0.18
 45
0.0
 46
0.36
 47
0.0
 48
0.0
140
0.18
141
0.09
142
0.0
143
25.4
144
1.0
145
0.0
146
1.0
147
0.09
 71
     0
 72
     0
 73
     1
 74
     1
 75
     0
 76
     0
 77
     0
 78
     0
170
     0
171
     2
172
     0
173
     0
174
     0
175
     0
176
     0
177
     0
178
     0
  0
DIMSTYLE
  2
標準
 70
     0
  3

  4

  5
CAXARROW
  6

  7

 40
1.0
 41
4.0
 42
0.0
 43
10.0
 44
2.0
 45
0.0
 46
6.0
 47
0.0
 48
0.0
140
3.5
141
0.0
142
0.0
143
1.0
144
1.0
145
0.0
146
0.7071067811865475
147
0.625
 71
     0
 72
     0
 73
     0
 74
     0
 75
     0
 76
     0
 77
     1
 78
     8
170
     0
171
     2
172
     1
173
     0
174
     0
175
     0
176
     0
177
     0
178
     0
  0
DIMSTYLE
  2
ANSI_DIM
 70
     0
  3

  4

  5
CAXARROW
  6

  7

 40
1.0
 41
4.0
 42
0.0
 43
10.0
 44
2.0
 45
0.0
 46
6.0
 47
0.0
 48
0.0
140
3.5
141
0.0
142
0.0
143
1.0
144
1.0
145
0.0
146
0.7071067811865475
147
0.625
 71
     0
 72
     0
 73
     0
 74
     0
 75
     0
 76
     0
 77
     1
 78
     8
170
     0
171
     2
172
     1
173
     0
174
     0
175
     0
176
     0
177
     0
178
     0
  0
DIMSTYLE
  2
ANSI_DIMLEADER_1994_
 70
     0
  3

  4

  5
CAXARROW
  6

  7

 40
1.0
 41
4.0
 42
0.0
 43
10.0
 44
2.0
 45
0.0
 46
6.0
 47
0.0
 48
0.0
140
3.5
141
0.0
142
0.0
143
1.0
144
1.0
145
0.0
146
0.7071067811865475
147
0.625
 71
     0
 72
     0
 73
     0
 74
     0
 75
     0
 76
     0
 77
     1
 78
     8
170
     0
171
     2
172
     1
173
     0
174
     0
175
     0
176
     0
177
     0
178
     0
  0
DIMSTYLE
  2
ANSI_TAPER_1994_
 70
     0
  3

  4

  5
CAXARROW
  6

  7

 40
1.0
 41
4.0
 42
0.0
 43
10.0
 44
2.0
 45
0.0
 46
6.0
 47
0.0
 48
0.0
140
3.5
141
0.0
142
0.0
143
1.0
144
1.0
145
0.0
146
0.7071067811865475
147
0.625
 71
     0
 72
     0
 73
     0
 74
     0
 75
     0
 76
     0
 77
     1
 78
     8
170
     0
171
     2
172
     1
173
     0
174
     0
175
     0
176
     0
177
     0
178
     0
  0
ENDTAB
  0
ENDSEC
  0
SECTION
  2
BLOCKS
  0
BLOCK
  8
0
  2
$MODEL_SPACE
 70
     0
 10
0.0
 20
0.0
 30
0.0
  3
$MODEL_SPACE
  1

  0
ENDBLK
  5
21
  8
0
  0
BLOCK
 67
     1
  8
0
  2
$PAPER_SPACE
 70
     0
 10
0.0
 20
0.0
 30
0.0
  3
$PAPER_SPACE
  1

  0
ENDBLK
  5
1D
 67
     1
  8
0
  0
BLOCK
  8
0
  2
_CAXARROW
 70
     0
 10
0.0
 20
0.0
 30
0.0
  3
_CAXARROW
  1

  0
INSERT
  5
114
  8
0
 62
     0
  2
*U2
 10
0.0
 20
0.0
 30
0.0
1001
ACAD
1002
{
1000
R14_HATCH_DATA
1000
114
1011
1.0
1021
0.0
1031
0.0
1021
0.0
1031
0.0
1011
0.0
1021
1.0
1031
0.0
1021
1.0
1031
0.0
1011
0.0
1021
0.0
1031
1.0
1021
0.0
1031
1.0
1040
0.0
1010
0.0
1020
0.0
1030
1.0
1000
SOLID
1070
     1
1070
     1
1071
        1
1071
        0
1071
        3
1070
     1
1040
0.0
1040
0.0
1040
-1.0
1040
0.125
1070
     1
1040
-1.0
1040
0.125
1040
-1.0
1040
-0.125
1070
     1
1040
-1.0
1040
-0.125
1040
0.0
1040
0.0
1071
        0
1070
     0
1070
     1
1071
        1
1040
0.0
1040
0.0
1040
0.0
1002
}
  0
ENDBLK
  5
116
  8
0
  0
BLOCK
  8
0
  2
*U2
 70
     1
 10
0.0
 20
0.0
 30
0.0
  3
*U2
  1

  0
SOLID
  5
23E
  8
0
  6
CONTINUOUS
 62
     0
 10
-1.0
 20
-0.125
 30
0.0
 11
-1.0
 21
0.125
 31
0.0
 12
0.0
 22
0.0
 32
0.0
 13
0.0
 23
0.0
 33
0.0
  0
ENDBLK
  5
240
  8
0
  0
ENDSEC
  0
SECTION
  2
ENTITIES
  0
LINE
  5
149
  8
_0-1_
  6
CENTER1
 62
   152
 10
59.1494139745696
 20
97.50545887669813
 30
0.0
 11
59.1494139745696
 21
69.40826829203604
 31
0.0
  0
LINE
  5
14A
  8
_0-1_
  6
CENTER1
 62
   152
 10
113.6494139745695
 20
83.94839266014992
 30
0.0
 11
4.64941397456937
 21
83.94839266014992
 31
0.0
  0
LINE
  5
14B
  8
_0-0_
  6
CONTINUOUS
 62
     7
 10
111.8869717488922
 20
73.94839266014992
 30
0.0
 11
6.411856200246802
 21
73.94839266014992
 31
0.0
  0
LINE
  5
14C
  8
_0-0_
  6
CONTINUOUS
 62
     7
 10
111.8869717488922
 20
93.94839266014992
 30
0.0
 11
6.411856200246802
 21
93.94839266014992
 31
0.0
  0
ARC
  5
14D
  8
_0-0_
  6
CONTINUOUS
 62
     7
 10
112.1211045271659
 20
91.44839266014992
 30
0.0
 40
1.0
 50
270.0
 51
8.05866240468973
  0
ARC
  5
14E
  8
_0-0_
  6
CONTINUOUS
 62
     7
 10
111.8869717488922
 20
74.94839266014992
 30
0.0
 40
1.0
 50
270.0
 51
350.3154079248472
  0
ARC
  5
14F
  8
_0-0_
  6
CONTINUOUS
 62
     7
 10
112.1211045271659
 20
76.44839266014992
 30
0.0
 40
0.9999999999999959
 50
351.9413375953092
 51
90.0
  0
ARC
  5
150
  8
_0-0_
  6
CONTINUOUS
 62
     7
 10
59.1494139745696
 20
83.94839266014992
 30
0.0
 40
54.50000000000023
 50
350.3154079248477
 51
9.684592075152233
  0
ARC
  5
151
  8
_0-0_
  6
CONTINUOUS
 62
     7
 10
111.8869717488922
 20
92.94839266014992
 30
0.0
 40
1.000000000000006
 50
9.684592075152754
 51
90.0
  0
LINE
  5
152
  8
_0-0_
  6
CONTINUOUS
 62
     7
 10
97.64941397456954
 20
90.44839266014992
 30
0.0
 11
112.1211045271659
 21
90.44839266014992
 31
0.0
  0
ARC
  5
153
  8
_0-0_
  6
CONTINUOUS
 62
     7
 10
97.64941397456954
 20
89.44839266014992
 30
0.0
 40
1.0
 50
90.0
 51
180.0
  0
LINE
  5
154
  8
_0-0_
  6
CONTINUOUS
 62
     7
 10
96.64941397456954
 20
78.44839266014992
 30
0.0
 11
96.64941397456954
 21
89.44839266014992
 31
0.0
  0
LINE
  5
155
  8
_0-0_
  6
CONTINUOUS
 62
     7
 10
97.64941397456954
 20
77.44839266014992
 30
0.0
 11
112.1211045271659
 21
77.44839266014992
 31
0.0
  0
ARC
  5
156
  8
_0-0_
  6
CONTINUOUS
 62
     7
 10
97.64941397456954
 20
78.44839266014992
 30
0.0
 40
1.0
 50
180.0
 51
270.0
  0
LINE
  5
157
  8
_0-1_
  6
CENTER1
 62
   152
 10
103.6494139745695
 20
91.63065251273031
 30
0.0
 11
103.6494139745695
 21
76.08453921942032
 31
0.0
  0
CIRCLE
  5
158
  8
_0-1_
  6
CONTINUOUS
 62
     7
 10
103.6494139745695
 20
83.94839266014992
 30
0.0
 40
3.299999952316284
  0
CIRCLE
  5
159
  8
_0-1_
  6
CONTINUOUS
 62
     7
 10
103.6494139745695
 20
83.94839266014992
 30
0.0
 40
5.5
  0
ARC
  5
15A
  8
_0-0_
  6
CONTINUOUS
 62
     7
 10
6.177723421973269
 20
91.44839266014992
 30
0.0
 40
0.9999999999999994
 50
171.9413375953085
 51
270.0
  0
ARC
  5
15B
  8
_0-0_
  6
CONTINUOUS
 62
     7
 10
6.411856200246802
 20
74.94839266014992
 30
0.0
 40
1.0
 50
189.6845920751528
 51
270.0
  0
ARC
  5
15C
  8
_0-0_
  6
CONTINUOUS
 62
     7
 10
6.177723421973269
 20
76.44839266014992
 30
0.0
 40
1.0
 50
90.0
 51
188.0586624046898
  0
ARC
  5
15D
  8
_0-0_
  6
CONTINUOUS
 62
     7
 10
59.1494139745696
 20
83.94839266014992
 30
0.0
 40
54.50000000000023
 50
170.3154079248477
 51
189.6845920751523
  0
ARC
  5
15E
  8
_0-0_
  6
CONTINUOUS
 62
     7
 10
6.411856200246802
 20
92.94839266014992
 30
0.0
 40
1.0
 50
90.0
 51
170.3154079248472
  0
LINE
  5
15F
  8
_0-0_
  6
CONTINUOUS
 62
     7
 10
20.6494139745696
 20
90.44839266014992
 30
0.0
 11
6.177723421973269
 21
90.44839266014992
 31
0.0
  0
ARC
  5
160
  8
_0-0_
  6
CONTINUOUS
 62
     7
 10
20.6494139745696
 20
89.44839266014992
 30
0.0
 40
1.0
 50
0.0
 51
90.0
  0
LINE
  5
161
  8
_0-0_
  6
CONTINUOUS
 62
     7
 10
21.6494139745696
 20
78.44839266014992
 30
0.0
 11
21.6494139745696
 21
89.44839266014992
 31
0.0
  0
LINE
  5
162
  8
_0-0_
  6
CONTINUOUS
 62
     7
 10
20.6494139745696
 20
77.44839266014992
 30
0.0
 11
6.177723421973269
 21
77.44839266014992
 31
0.0
  0
ARC
  5
163
  8
_0-0_
  6
CONTINUOUS
 62
     7
 10
20.6494139745696
 20
78.44839266014992
 30
0.0
 40
1.0
 50
270.0
 51
0.0
  0
LINE
  5
164
  8
_0-1_
  6
CENTER1
 62
   152
 10
14.6494139745696
 20
91.63065251273031
 30
0.0
 11
14.6494139745696
 21
76.08453921942032
 31
0.0
  0
CIRCLE
  5
165
  8
_0-1_
  6
CONTINUOUS
 62
     7
 10
14.6494139745696
 20
83.94839266014992
 30
0.0
 40
3.299999952316284
  0
CIRCLE
  5
166
  8
_0-1_
  6
CONTINUOUS
 62
     7
 10
14.6494139745696
 20
83.94839266014992
 30
0.0
 40
5.5
  0
ARC
  5
167
  8
_0-0_
  6
CONTINUOUS
 62
     7
 10
90.14941397456977
 20
36.63404082449051
 30
0.0
 40
3.5
 50
0.0
 51
90.0
  0
LINE
  5
168
  8
_0-0_
  6
CONTINUOUS
 62
     7
 10
112.6494139745698
 20
26.13404082449051
 30
0.0
 11
96.64941397456954
 21
47.13404082449051
 31
0.0
  0
LINE
  5
169
  8
_0-0_
  6
CONTINUOUS
 62
     7
 10
113.6494139745698
 20
22.13404082449051
 30
0.0
 11
113.6494139745698
 21
10.13404082449051
 31
0.0
  0
LINE
  5
16A
  8
_0-0_
  6
CONTINUOUS
 62
     7
 10
113.6494139745698
 20
22.13404082449051
 30
0.0
 11
112.6494139745698
 21
22.13404082449051
 31
0.0
  0
LINE
  5
16B
  8
_0-0_
  6
CONTINUOUS
 62
     7
 10
112.6494139745698
 20
26.13404082449051
 30
0.0
 11
112.6494139745698
 21
22.13404082449051
 31
0.0
  0
LINE
  5
16C
  8
_0-1_
  6
DASHED2
 62
   152
 10
96.64941397456954
 20
47.13404082449051
 30
0.0
 11
96.64941397456954
 21
22.13404082449051
 31
0.0
  0
LINE
  5
16D
  8
_0-1_
  6
DASHED2
 62
   152
 10
112.6494139745698
 20
22.13404082449051
 30
0.0
 11
96.64941397456954
 21
22.13404082449051
 31
0.0
  0
LINE
  5
16E
  8
_0-1_
  6
DASHED2
 62
   152
 10
98.14941397456954
 20
22.13404082449051
 30
0.0
 11
98.14941397456954
 21
15.13404082449051
 31
0.0
  0
LINE
  5
16F
  8
_0-1_
  6
DASHED2
 62
   152
 10
109.1494139745695
 20
22.13404082449051
 30
0.0
 11
109.1494139745695
 21
15.13404082449051
 31
0.0
  0
LINE
  5
170
  8
_0-1_
  6
DASHED2
 62
   152
 10
109.1494139745695
 20
15.13404082449051
 30
0.0
 11
98.14941397456954
 21
15.13404082449051
 31
0.0
  0
LINE
  5
171
  8
_0-1_
  6
DASHED2
 62
   152
 10
106.9494139268858
 20
15.13404082449051
 30
0.0
 11
106.9494139268858
 21
10.13404082449051
 31
0.0
  0
LINE
  5
172
  8
_0-1_
  6
DASHED2
 62
   152
 10
100.3494140222533
 20
15.13404082449051
 30
0.0
 11
100.3494140222533
 21
10.13404082449051
 31
0.0
  0
LINE
  5
173
  8
_0-1_
  6
CENTER1
 62
   152
 10
103.6494139745698
 20
27.48704947899802
 30
0.0
 11
103.6494139745698
 21
5.80584871174517
 31
0.0
  0
LINE
  5
174
  8
_0-0_
  6
CONTINUOUS
 62
     7
 10
113.6494139745698
 20
10.13404082449051
 30
0.0
 11
93.64941397456977
 21
10.13404082449051
 31
0.0
  0
LINE
  5
175
  8
_0-0_
  6
CONTINUOUS
 62
     7
 10
93.64941397456977
 20
36.63404082449051
 30
0.0
 11
93.64941397456977
 21
10.13404082449051
 31
0.0
  0
LINE
  5
176
  8
_0-0_
  6
CONTINUOUS
 62
     7
 10
4.64941397456937
 20
22.13404082449051
 30
0.0
 11
4.64941397456937
 21
10.13404082449051
 31
0.0
  0
LINE
  5
177
  8
_0-0_
  6
CONTINUOUS
 62
     7
 10
4.64941397456937
 20
22.13404082449051
 30
0.0
 11
5.64941397456937
 21
22.13404082449051
 31
0.0
  0
LINE
  5
178
  8
_0-0_
  6
CONTINUOUS
 62
     7
 10
5.64941397456937
 20
26.13404082449051
 30
0.0
 11
5.64941397456937
 21
22.13404082449051
 31
0.0
  0
LINE
  5
179
  8
_0-1_
  6
DASHED2
 62
   152
 10
21.6494139745696
 20
47.13404082449051
 30
0.0
 11
21.6494139745696
 21
22.13404082449051
 31
0.0
  0
LINE
  5
17A
  8
_0-1_
  6
DASHED2
 62
   152
 10
5.64941397456937
 20
22.13404082449051
 30
0.0
 11
21.6494139745696
 21
22.13404082449051
 31
0.0
  0
LINE
  5
17B
  8
_0-1_
  6
DASHED2
 62
   152
 10
20.1494139745696
 20
22.13404082449051
 30
0.0
 11
20.1494139745696
 21
15.13404082449051
 31
0.0
  0
LINE
  5
17C
  8
_0-1_
  6
DASHED2
 62
   152
 10
9.149413974569597
 20
22.13404082449051
 30
0.0
 11
9.149413974569597
 21
15.13404082449051
 31
0.0
  0
LINE
  5
17D
  8
_0-1_
  6
DASHED2
 62
   152
 10
9.149413974569597
 20
15.13404082449051
 30
0.0
 11
20.1494139745696
 21
15.13404082449051
 31
0.0
  0
LINE
  5
17E
  8
_0-1_
  6
DASHED2
 62
   152
 10
11.34941402225331
 20
15.13404082449051
 30
0.0
 11
11.34941402225331
 21
10.13404082449051
 31
0.0
  0
LINE
  5
17F
  8
_0-1_
  6
DASHED2
 62
   152
 10
17.94941392688588
 20
15.13404082449051
 30
0.0
 11
17.94941392688588
 21
10.13404082449051
 31
0.0
  0
LINE
  5
180
  8
_0-1_
  6
CENTER1
 62
   152
 10
14.64941397456937
 20
27.48704947899802
 30
0.0
 11
14.64941397456937
 21
5.80584871174517
 31
0.0
  0
LINE
  5
181
  8
_0-0_
  6
CONTINUOUS
 62
     7
 10
4.64941397456937
 20
10.13404082449051
 30
0.0
 11
24.64941397456937
 21
10.13404082449051
 31
0.0
  0
LINE
  5
182
  8
_0-0_
  6
CONTINUOUS
 62
     7
 10
24.64941397456937
 20
36.63404082449051
 30
0.0
 11
24.64941397456937
 21
10.13404082449051
 31
0.0
  0
LINE
  5
183
  8
_0-0_
  6
CONTINUOUS
 62
     7
 10
5.64941397456937
 20
26.13404082449051
 30
0.0
 11
21.6494139745696
 21
47.13404082449051
 31
0.0
  0
LINE
  5
184
  8
_0-0_
  6
CONTINUOUS
 62
     7
 10
96.64941397456954
 20
47.13404082449051
 30
0.0
 11
21.6494139745696
 21
47.13404082449051
 31
0.0
  0
ARC
  5
185
  8
_0-0_
  6
CONTINUOUS
 62
     7
 10
28.14941397456937
 20
36.63404082449051
 30
0.0
 40
3.5
 50
90.0
 51
180.0000000000001
  0
LINE
  5
186
  8
_0-0_
  6
CONTINUOUS
 62
     7
 10
90.14941397456977
 20
40.13404082449051
 30
0.0
 11
28.14941397456937
 21
40.13404082449051
 31
0.0
  0
LINE
  5
187
  8
_0-1_
  6
DASHED2
 62
   152
 10
100.3994139745698
 20
9.134040824490512
 30
0.0
 11
100.3994139745698
 21
15.13404082449051
 31
0.0
  0
LINE
  5
188
  8
_0-1_
  6
DASHED2
 62
   152
 10
106.8994139745698
 20
9.134040824490512
 30
0.0
 11
106.8994139745698
 21
15.13404082449051
 31
0.0
  0
LINE
  5
189
  8
_0-1_
  6
DASHED2
 62
   152
 10
103.6494139745698
 20
15.13404082449051
 30
0.0
 11
104.3565207557564
 21
14.42693404330396
 31
0.0
  0
LINE
  5
18A
  8
_0-1_
  6
DASHED2
 62
   152
 10
103.6494139745698
 20
15.13404082449051
 30
0.0
 11
102.9423071933831
 21
14.42693404330396
 31
0.0
  0
LINE
  5
18B
  8
_0-1_
  6
DASHED2
 62
   152
 10
105.5244139745698
 20
20.53404091985794
 30
0.0
 11
105.5244139745698
 21
15.13404082449051
 31
0.0
  0
LINE
  5
18C
  8
_0-1_
  6
DASHED2
 62
   152
 10
106.1494139745698
 20
20.53404091985794
 30
0.0
 11
106.1494139745698
 21
15.13404082449051
 31
0.0
  0
LINE
  5
18D
  8
_0-1_
  6
DASHED2
 62
   152
 10
106.7744139745698
 20
20.53404091985794
 30
0.0
 11
106.7744139745698
 21
15.13404082449051
 31
0.0
  0
LINE
  5
18E
  8
_0-1_
  6
DASHED2
 62
   152
 10
107.3994139745698
 20
20.53404091985794
 30
0.0
 11
107.3994139745698
 21
15.13404082449051
 31
0.0
  0
LINE
  5
18F
  8
_0-1_
  6
DASHED2
 62
   152
 10
108.0244139745698
 20
20.53404091985794
 30
0.0
 11
108.0244139745698
 21
15.13404082449051
 31
0.0
  0
LINE
  5
190
  8
_0-1_
  6
DASHED2
 62
   152
 10
98.64941397456977
 20
20.53404091985794
 30
0.0
 11
98.64941397456977
 21
15.13404082449051
 31
0.0
  0
LINE
  5
191
  8
_0-1_
  6
DASHED2
 62
   152
 10
98.64941397456977
 20
20.53404091985794
 30
0.0
 11
99.24941387920234
 21
21.13404082449051
 31
0.0
  0
LINE
  5
192
  8
_0-1_
  6
DASHED2
 62
   152
 10
108.0494140699372
 20
21.13404082449051
 30
0.0
 11
99.24941387920234
 21
21.13404082449051
 31
0.0
  0
LINE
  5
193
  8
_0-1_
  6
DASHED2
 62
   152
 10
108.6494139745698
 20
20.53404091985794
 30
0.0
 11
108.6494139745698
 21
15.13404082449051
 31
0.0
  0
LINE
  5
194
  8
_0-1_
  6
DASHED2
 62
   152
 10
108.0494140699372
 20
21.13404082449051
 30
0.0
 11
108.6494139745698
 21
20.53404091985794
 31
0.0
  0
LINE
  5
195
  8
_0-1_
  6
DASHED2
 62
   152
 10
98.64941397456977
 20
20.53404091985794
 30
0.0
 11
108.6494139745698
 21
20.53404091985794
 31
0.0
  0
LINE
  5
196
  8
_0-1_
  6
DASHED2
 62
   152
 10
100.6494139745698
 20
1.584040633755649
 30
0.0
 11
101.0994140222535
 21
1.134040824490512
 31
0.0
  0
LINE
  5
197
  8
_0-1_
  6
DASHED2
 62
   152
 10
106.1994139268861
 20
1.134040824490512
 30
0.0
 11
101.0994140222535
 21
1.134040824490512
 31
0.0
  0
LINE
  5
198
  8
_0-1_
  6
DASHED2
 62
   152
 10
106.1994139268861
 20
1.134040824490512
 30
0.0
 11
106.6494139745698
 21
1.584040633755649
 31
0.0
  0
LINE
  5
199
  8
_0-1_
  6
DASHED2
 62
   152
 10
100.6494139745698
 20
1.584040633755649
 30
0.0
 11
106.6494139745698
 21
1.584040633755649
 31
0.0
  0
LINE
  5
19A
  8
_0-1_
  6
DASHED2
 62
   152
 10
100.1494496756104
 20
1.934043901025689
 30
0.0
 11
107.1492844713502
 21
1.934017938883699
 31
0.0
  0
LINE
  5
19B
  8
_0-1_
  6
DASHED2
 62
   152
 10
108.7368225141813
 20
5.534040919877043
 30
0.0
 11
108.4743918250956
 21
8.534029346084935
 31
0.0
  0
LINE
  5
19C
  8
_0-1_
  6
DASHED2
 62
   152
 10
107.1492844713502
 20
1.934017938883699
 30
0.0
 11
110.3281294528701
 21
3.769282904052943
 31
0.0
  0
LINE
  5
19D
  8
_0-1_
  6
DASHED2
 62
   152
 10
110.6493679464951
 20
5.534040919877043
 30
0.0
 11
108.7368225141813
 21
5.534040919877043
 31
0.0
  0
LINE
  5
19E
  8
_0-1_
  6
DASHED2
 62
   152
 10
110.3281294528701
 20
3.769282904052943
 30
0.0
 11
110.6493679464951
 21
5.534040919877043
 31
0.0
  0
LINE
  5
19F
  8
_0-1_
  6
DASHED2
 62
   152
 10
98.56193216673631
 20
5.534040919877043
 30
0.0
 11
98.82443612408218
 21
8.534062493662532
 31
0.0
  0
LINE
  5
1A0
  8
_0-1_
  6
DASHED2
 62
   152
 10
108.4743918250956
 20
8.534029346084935
 30
0.0
 11
98.82443612408218
 21
8.534062493662532
 31
0.0
  0
LINE
  5
1A1
  8
_0-1_
  6
DASHED2
 62
   152
 10
100.1495316216405
 20
1.934017938883699
 30
0.0
 11
96.97068664012062
 21
3.769282904052943
 31
0.0
  0
LINE
  5
1A2
  8
_0-1_
  6
DASHED2
 62
   152
 10
96.64944814649556
 20
5.534040919877043
 30
0.0
 11
98.56199357880945
 21
5.534040919877043
 31
0.0
  0
LINE
  5
1A3
  8
_0-1_
  6
DASHED2
 62
   152
 10
96.97068664012062
 20
3.769282904052943
 30
0.0
 11
96.64944814649556
 21
5.534040919877043
 31
0.0
  0
LINE
  5
1A4
  8
_0-1_
  6
DASHED2
 62
   152
 10
100.6494139745698
 20
1.584040633755649
 30
0.0
 11
100.6494139745698
 21
1.934042046675643
 31
0.0
  0
LINE
  5
1A5
  8
_0-1_
  6
DASHED2
 62
   152
 10
100.6494139745698
 20
8.53405622486747
 30
0.0
 11
100.6494139745698
 21
15.13404082449051
 31
0.0
  0
LINE
  5
1A6
  8
_0-1_
  6
DASHED2
 62
   152
 10
101.0994140222535
 20
15.13404082449051
 30
0.0
 11
101.0994140222535
 21
8.534054679118242
 31
0.0
  0
LINE
  5
1A7
  8
_0-1_
  6
DASHED2
 62
   152
 10
101.0994140222535
 20
1.934040377641224
 30
0.0
 11
101.0994140222535
 21
1.134040824490512
 31
0.0
  0
LINE
  5
1A8
  8
_0-1_
  6
DASHED2
 62
   152
 10
106.1994139268861
 20
15.13404082449051
 30
0.0
 11
106.1994139268861
 21
8.534037160629225
 31
0.0
  0
LINE
  5
1A9
  8
_0-1_
  6
DASHED2
 62
   152
 10
106.1994139268861
 20
1.934021461920281
 30
0.0
 11
106.1994139268861
 21
1.134040824490512
 31
0.0
  0
LINE
  5
1AA
  8
_0-1_
  6
DASHED2
 62
   152
 10
106.6494139745698
 20
1.584040633755649
 30
0.0
 11
106.6494139745698
 21
1.934019792885863
 31
0.0
  0
LINE
  5
1AB
  8
_0-1_
  6
DASHED2
 62
   152
 10
106.6494139745698
 20
8.534035614880054
 30
0.0
 11
106.6494139745698
 21
15.13404082449051
 31
0.0
  0
LINE
  5
1AC
  8
_0-0_
  6
CONTINUOUS
 62
     7
 10
135.208142481553
 20
10.13404082449051
 30
0.0
 11
155.208142481553
 21
10.13404082449051
 31
0.0
  0
LINE
  5
1AD
  8
_0-0_
  6
CONTINUOUS
 62
     7
 10
135.208142481553
 20
46.36249938314609
 30
0.0
 11
135.208142481553
 21
10.13404082449051
 31
0.0
  0
ARC
  5
1AE
  8
_0-0_
  6
CONTINUOUS
 62
     7
 10
135.708142481553
 20
46.36249938314609
 30
0.0
 40
0.4999999999999977
 50
93.27451443960169
 51
180.0000000000008
  0
LINE
  5
1AF
  8
_0-0_
  6
CONTINUOUS
 62
     7
 10
155.208142481553
 20
46.36249938314609
 30
0.0
 11
155.208142481553
 21
10.13404082449051
 31
0.0
  0
ARC
  5
1B0
  8
_0-0_
  6
CONTINUOUS
 62
     7
 10
145.208142481553
 20
-119.6826258087367
 30
0.0
 40
166.8166666332273
 50
86.72548556039473
 51
93.27451443960533
  0
ARC
  5
1B1
  8
_0-0_
  6
CONTINUOUS
 62
     7
 10
154.708142481553
 20
46.36249938314609
 30
0.0
 40
0.5
 50
0.0
 51
86.72548556039837
  0
LINE
  5
1B2
  8
_0-0_
  6
CONTINUOUS
 62
     7
 10
138.708142481553
 20
22.13404082449051
 30
0.0
 11
151.708142481553
 21
22.13404082449051
 31
0.0
  0
LINE
  5
1B3
  8
_0-0_
  6
CONTINUOUS
 62
     7
 10
151.708142481553
 20
47.00735669357584
 30
0.0
 11
151.708142481553
 21
22.13404082449051
 31
0.0
  0
LINE
  5
1B4
  8
_0-0_
  6
CONTINUOUS
 62
     7
 10
138.708142481553
 20
47.00735669357584
 30
0.0
 11
138.708142481553
 21
22.13404082449051
 31
0.0
  0
ARC
  5
1B5
  8
_0-0_
  6
CONTINUOUS
 62
     7
 10
301.2218989481221
 20
91.94839266014992
 30
0.0
 40
0.5
 50
90.0
 51
180.0
  0
LINE
  5
1B6
  8
_0-0_
  6
CONTINUOUS
 62
     7
 10
300.7218989481221
 20
75.94839266014992
 30
0.0
 11
300.7218989481221
 21
91.94839266014992
 31
0.0
  0
ARC
  5
1B7
  8
_0-0_
  6
CONTINUOUS
 62
     7
 10
301.2218989481221
 20
75.94839266014992
 30
0.0
 40
0.5
 50
180.0
 51
270.0
  0
LINE
  5
1B8
  8
_0-0_
  6
CONTINUOUS
 62
     7
 10
301.2218989481221
 20
75.44839266014992
 30
0.0
 11
316.6280842334111
 21
75.44839266014992
 31
0.0
  0
ARC
  5
1B9
  8
_0-0_
  6
CONTINUOUS
 62
     7
 10
316.6280842334111
 20
74.94839266014992
 30
0.0
 40
0.5000000000000122
 50
352.4502589271746
 51
90.0
  0
ARC
  5
1BA
  8
_0-0_
  6
CONTINUOUS
 62
     7
 10
316.1626136537063
 20
95.94839266014992
 30
0.0
 40
0.4999999999999745
 50
10.08927758953041
 51
90.0
  0
LINE
  5
1BB
  8
_0-0_
  6
CONTINUOUS
 62
     7
 10
301.2218989481221
 20
92.44839266014992
 30
0.0
 11
316.6280842334111
 21
92.44839266014992
 31
0.0
  0
ARC
  5
1BC
  8
_0-0_
  6
CONTINUOUS
 62
     7
 10
316.6280842334111
 20
92.94839266014992
 30
0.0
 40
0.5
 50
270.0
 51
7.549741072825441
  0
ARC
  5
1BD
  8
_0-0_
  6
CONTINUOUS
 62
     7
 10
248.7218989481221
 20
83.94839266014992
 30
0.0
 40
69.00000000000001
 50
349.9107224104714
 51
10.08927758952865
  0
ARC
  5
1BE
  8
_0-0_
  6
CONTINUOUS
 62
     7
 10
316.1626136537063
 20
71.94839266014992
 30
0.0
 40
0.5
 50
270.0
 51
349.91072241047
  0
LINE
  5
1BF
  8
_0-1_
  6
CENTER1
 62
   152
 10
307.7218989481221
 20
94.00139094303972
 30
0.0
 11
307.7218989481221
 21
74.0194484381858
 31
0.0
  0
CIRCLE
  5
1C0
  8
_0-1_
  6
CONTINUOUS
 62
     7
 10
307.7218989481221
 20
83.94839266014992
 30
0.0
 40
4.5
  0
CIRCLE
  5
1C1
  8
_0-1_
  6
CONTINUOUS
 62
     7
 10
307.7218989481221
 20
83.94839266014992
 30
0.0
 40
7.0
  0
ARC
  5
1C2
  8
_0-0_
  6
CONTINUOUS
 62
     7
 10
196.2218989481221
 20
91.94839266014992
 30
0.0
 40
0.5
 50
0.0
 51
90.0
  0
LINE
  5
1C3
  8
_0-0_
  6
CONTINUOUS
 62
     7
 10
196.7218989481221
 20
75.94839266014992
 30
0.0
 11
196.7218989481221
 21
91.94839266014992
 31
0.0
  0
ARC
  5
1C4
  8
_0-0_
  6
CONTINUOUS
 62
     7
 10
196.2218989481221
 20
75.94839266014992
 30
0.0
 40
0.5
 50
270.0
 51
359.9999999999984
  0
LINE
  5
1C5
  8
_0-0_
  6
CONTINUOUS
 62
     7
 10
196.2218989481221
 20
75.44839266014992
 30
0.0
 11
180.8157136628332
 21
75.44839266014992
 31
0.0
  0
ARC
  5
1C6
  8
_0-0_
  6
CONTINUOUS
 62
     7
 10
180.8157136628332
 20
74.94839266014992
 30
0.0
 40
0.5
 50
90.0
 51
187.5497410728246
  0
LINE
  5
1C7
  8
_0-0_
  6
CONTINUOUS
 62
     7
 10
196.2218989481221
 20
92.44839266014992
 30
0.0
 11
180.8157136628332
 21
92.44839266014992
 31
0.0
  0
ARC
  5
1C8
  8
_0-0_
  6
CONTINUOUS
 62
     7
 10
180.8157136628332
 20
92.94839266014992
 30
0.0
 40
0.5000000000000122
 50
172.4502589271729
 51
270.0
  0
ARC
  5
1C9
  8
_0-0_
  6
CONTINUOUS
 62
     7
 10
248.7218989481221
 20
83.94839266014992
 30
0.0
 40
69.0
 50
169.9107224104714
 51
190.0892775895287
  0
LINE
  5
1CA
  8
_0-1_
  6
CENTER1
 62
   152
 10
189.7218989481221
 20
94.00139094303972
 30
0.0
 11
189.7218989481221
 21
74.0194484381858
 31
0.0
  0
CIRCLE
  5
1CB
  8
_0-1_
  6
CONTINUOUS
 62
     7
 10
189.7218989481221
 20
83.94839266014992
 30
0.0
 40
4.5
  0
CIRCLE
  5
1CC
  8
_0-1_
  6
CONTINUOUS
 62
     7
 10
189.7218989481221
 20
83.94839266014992
 30
0.0
 40
7.0
  0
ARC
  5
1CD
  8
_0-0_
  6
CONTINUOUS
 62
     7
 10
181.281184242538
 20
95.94839266014992
 30
0.0
 40
0.5
 50
90.0
 51
169.9107224104707
  0
LINE
  5
1CE
  8
_0-0_
  6
CONTINUOUS
 62
     7
 10
181.281184242538
 20
96.44839266014992
 30
0.0
 11
316.1626136537063
 21
96.44839266014992
 31
0.0
  0
ARC
  5
1CF
  8
_0-0_
  6
CONTINUOUS
 62
     7
 10
181.281184242538
 20
71.94839266014992
 30
0.0
 40
0.5000000000000024
 50
190.0892775895282
 51
270.0
  0
LINE
  5
1D0
  8
_0-0_
  6
CONTINUOUS
 62
     7
 10
181.281184242538
 20
71.44839266014992
 30
0.0
 11
316.1626136537063
 21
71.44839266014992
 31
0.0
  0
LINE
  5
1D1
  8
_0-1_
  6
CENTER1
 62
   152
 10
59.1494139745696
 20
51.48963867646705
 30
0.0
 11
59.1494139745696
 21
10.13404082449051
 31
0.0
  0
LINE
  5
1D2
  8
_0-0_
  6
CONTINUOUS
 62
     7
 10
316.7218989481221
 20
25.13404082014995
 30
0.0
 11
317.7218989481221
 21
25.13404082014995
 31
0.0
  0
LINE
  5
1D3
  8
_0-0_
  6
CONTINUOUS
 62
     7
 10
317.7218989481221
 20
25.13404082014995
 30
0.0
 11
317.7218989481221
 21
10.13404082014995
 31
0.0
  0
LINE
  5
1D4
  8
_0-0_
  6
CONTINUOUS
 62
     7
 10
316.7218989481221
 20
27.13404082014995
 30
0.0
 11
316.7218989481221
 21
25.13404082014995
 31
0.0
  0
LINE
  5
1D5
  8
_0-0_
  6
CONTINUOUS
 62
     7
 10
300.7218989481221
 20
51.13404082014995
 30
0.0
 11
316.7218989481221
 21
27.13404082014995
 31
0.0
  0
LINE
  5
1D6
  8
_0-0_
  6
CONTINUOUS
 62
     7
 10
298.2218989481221
 20
10.13404082014995
 30
0.0
 11
317.7218989481221
 21
10.13404082014995
 31
0.0
  0
LINE
  5
1D7
  8
_0-0_
  6
CONTINUOUS
 62
     7
 10
298.2218989481221
 20
40.13404082014995
 30
0.0
 11
298.2218989481221
 21
10.13404082014995
 31
0.0
  0
ARC
  5
1D8
  8
_0-0_
  6
CONTINUOUS
 62
     7
 10
294.7218989481221
 20
40.13404082014995
 30
0.0
 40
3.5
 50
0.0
 51
90.0
  0
LINE
  5
1D9
  8
_0-1_
  6
DASHED2
 62
   152
 10
300.7218989481221
 20
25.13404082014995
 30
0.0
 11
317.7218989481221
 21
25.13404082014995
 31
0.0
  0
LINE
  5
1DA
  8
_0-1_
  6
DASHED2
 62
   152
 10
314.7218989481221
 20
25.13404082014995
 30
0.0
 11
314.7218989481221
 21
16.63404082014995
 31
0.0
  0
LINE
  5
1DB
  8
_0-1_
  6
DASHED2
 62
   152
 10
300.7218989481221
 20
16.63404082014995
 30
0.0
 11
314.7218989481221
 21
16.63404082014995
 31
0.0
  0
LINE
  5
1DC
  8
_0-1_
  6
DASHED2
 62
   152
 10
303.2218989481221
 20
16.63404082014995
 30
0.0
 11
303.2218989481221
 21
10.13404082014995
 31
0.0
  0
LINE
  5
1DD
  8
_0-1_
  6
DASHED2
 62
   152
 10
312.2218989481221
 20
16.63404082014995
 30
0.0
 11
312.2218989481221
 21
10.13404082014995
 31
0.0
  0
LINE
  5
1DE
  8
_0-1_
  6
DASHED2
 62
   152
 10
300.7218989481221
 20
51.13404082014995
 30
0.0
 11
300.7218989481221
 21
16.63404082014995
 31
0.0
  0
LINE
  5
1DF
  8
_0-1_
  6
CENTER1
 62
   152
 10
307.7218989481221
 20
29.54204016147639
 30
0.0
 11
307.7218989481221
 21
4.810001737228617
 31
0.0
  0
LINE
  5
1E0
  8
_0-1_
  6
CENTER1
 62
   152
 10
248.7218989481221
 20
53.97203501301419
 30
0.0
 11
248.7218989481221
 21
10.13404082014995
 31
0.0
  0
LINE
  5
1E1
  8
_0-0_
  6
CONTINUOUS
 62
     7
 10
180.7218989481221
 20
25.13404082014995
 30
0.0
 11
179.7218989481221
 21
25.13404082014995
 31
0.0
  0
LINE
  5
1E2
  8
_0-0_
  6
CONTINUOUS
 62
     7
 10
179.7218989481221
 20
25.13404082014995
 30
0.0
 11
179.7218989481221
 21
10.13404082014995
 31
0.0
  0
LINE
  5
1E3
  8
_0-0_
  6
CONTINUOUS
 62
     7
 10
180.7218989481221
 20
27.13404082014995
 30
0.0
 11
180.7218989481221
 21
25.13404082014995
 31
0.0
  0
LINE
  5
1E4
  8
_0-0_
  6
CONTINUOUS
 62
     7
 10
199.2218989481221
 20
10.13404082014995
 30
0.0
 11
179.7218989481221
 21
10.13404082014995
 31
0.0
  0
LINE
  5
1E5
  8
_0-0_
  6
CONTINUOUS
 62
     7
 10
199.2218989481221
 20
40.13404082014995
 30
0.0
 11
199.2218989481221
 21
10.13404082014995
 31
0.0
  0
LINE
  5
1E6
  8
_0-1_
  6
DASHED2
 62
   152
 10
196.7218989481221
 20
25.13404082014995
 30
0.0
 11
179.7218989481221
 21
25.13404082014995
 31
0.0
  0
LINE
  5
1E7
  8
_0-1_
  6
DASHED2
 62
   152
 10
182.7218989481221
 20
25.13404082014995
 30
0.0
 11
182.7218989481221
 21
16.63404082014995
 31
0.0
  0
LINE
  5
1E8
  8
_0-1_
  6
DASHED2
 62
   152
 10
196.7218989481221
 20
16.63404082014995
 30
0.0
 11
182.7218989481221
 21
16.63404082014995
 31
0.0
  0
LINE
  5
1E9
  8
_0-1_
  6
DASHED2
 62
   152
 10
194.2218989481221
 20
16.63404082014995
 30
0.0
 11
194.2218989481221
 21
10.13404082014995
 31
0.0
  0
LINE
  5
1EA
  8
_0-1_
  6
DASHED2
 62
   152
 10
185.2218989481221
 20
16.63404082014995
 30
0.0
 11
185.2218989481221
 21
10.13404082014995
 31
0.0
  0
LINE
  5
1EB
  8
_0-1_
  6
DASHED2
 62
   152
 10
196.7218989481221
 20
51.13404082014995
 30
0.0
 11
196.7218989481221
 21
16.63404082014995
 31
0.0
  0
LINE
  5
1EC
  8
_0-1_
  6
CENTER1
 62
   152
 10
189.7218989481221
 20
29.54204016147639
 30
0.0
 11
189.7218989481221
 21
4.810001737228617
 31
0.0
  0
ARC
  5
1ED
  8
_0-0_
  6
CONTINUOUS
 62
     7
 10
202.7218989481221
 20
40.13404082014995
 30
0.0
 40
3.5
 50
90.0
 51
180.0000000000001
  0
LINE
  5
1EE
  8
_0-0_
  6
CONTINUOUS
 62
     7
 10
294.7218989481221
 20
43.63404082014995
 30
0.0
 11
202.7218989481221
 21
43.63404082014995
 31
0.0
  0
LINE
  5
1EF
  8
_0-0_
  6
CONTINUOUS
 62
     7
 10
196.7218989481221
 20
51.13404082014995
 30
0.0
 11
180.7218989481221
 21
27.13404082014995
 31
0.0
  0
LINE
  5
1F0
  8
_0-0_
  6
CONTINUOUS
 62
     7
 10
196.7218989481221
 20
51.13404082014995
 30
0.0
 11
300.7218989481221
 21
51.13404082014995
 31
0.0
  0
LINE
  5
1F1
  8
_0-1_
  6
CENTER1
 62
   152
 10
248.7218989481221
 20
102.2496531216491
 30
0.0
 11
248.7218989481221
 21
68.18585019936347
 31
0.0
  0
LINE
  5
1F2
  8
_0-1_
  6
DASHED2
 62
   152
 10
301.2218989481221
 20
16.63404082014995
 30
0.0
 11
301.2218989481221
 21
23.63404082014995
 31
0.0
  0
LINE
  5
1F3
  8
_0-1_
  6
DASHED2
 62
   152
 10
313.2218989481221
 20
24.63404082014995
 30
0.0
 11
302.2218989481221
 21
24.63404082014995
 31
0.0
  0
LINE
  5
1F4
  8
_0-1_
  6
DASHED2
 62
   152
 10
303.7218989481221
 20
10.63404082014995
 30
0.0
 11
303.7218989481221
 21
16.63404082014995
 31
0.0
  0
LINE
  5
1F5
  8
_0-1_
  6
DASHED2
 62
   152
 10
311.7218989481221
 20
10.63404082014995
 30
0.0
 11
311.7218989481221
 21
16.63404082014995
 31
0.0
  0
LINE
  5
1F6
  8
_0-1_
  6
DASHED2
 62
   152
 10
307.7218989481221
 20
16.63404082014995
 30
0.0
 11
308.4290057293088
 21
15.9269340389634
 31
0.0
  0
LINE
  5
1F7
  8
_0-1_
  6
DASHED2
 62
   152
 10
307.7218989481221
 20
16.63404082014995
 30
0.0
 11
307.0147921669355
 21
15.9269340389634
 31
0.0
  0
LINE
  5
1F8
  8
_0-1_
  6
DASHED2
 62
   152
 10
309.3468989481221
 20
23.63404082014995
 30
0.0
 11
309.3468989481221
 21
16.63404082014995
 31
0.0
  0
LINE
  5
1F9
  8
_0-1_
  6
DASHED2
 62
   152
 10
310.1593989481221
 20
23.63404082014995
 30
0.0
 11
310.1593989481221
 21
16.63404082014995
 31
0.0
  0
LINE
  5
1FA
  8
_0-1_
  6
DASHED2
 62
   152
 10
313.4093989481221
 20
23.63404082014995
 30
0.0
 11
313.4093989481221
 21
16.63404082014995
 31
0.0
  0
LINE
  5
1FB
  8
_0-1_
  6
DASHED2
 62
   152
 10
312.5968989481221
 20
23.63404082014995
 30
0.0
 11
312.5968989481221
 21
16.63404082014995
 31
0.0
  0
LINE
  5
1FC
  8
_0-1_
  6
DASHED2
 62
   152
 10
311.7843989481221
 20
23.63404082014995
 30
0.0
 11
311.7843989481221
 21
16.63404082014995
 31
0.0
  0
LINE
  5
1FD
  8
_0-1_
  6
DASHED2
 62
   152
 10
310.9718989481221
 20
23.63404082014995
 30
0.0
 11
310.9718989481221
 21
16.63404082014995
 31
0.0
  0
LINE
  5
1FE
  8
_0-1_
  6
DASHED2
 62
   152
 10
301.2218989481221
 20
23.63404082014995
 30
0.0
 11
314.2218989481221
 21
23.63404082014995
 31
0.0
  0
LINE
  5
1FF
  8
_0-1_
  6
DASHED2
 62
   152
 10
311.1718989958059
 20
2.634040820149949
 30
0.0
 11
304.2718989004384
 21
2.634040820149949
 31
0.0
  0
LINE
  5
200
  8
_0-1_
  6
DASHED2
 62
   152
 10
303.7218989481221
 20
3.184040057210495
 30
0.0
 11
304.2718989004384
 21
2.634040820149949
 31
0.0
  0
LINE
  5
201
  8
_0-1_
  6
DASHED2
 62
   152
 10
311.1718989958059
 20
2.634040820149949
 30
0.0
 11
311.7218989481221
 21
3.184040057210495
 31
0.0
  0
LINE
  5
202
  8
_0-1_
  6
DASHED2
 62
   152
 10
303.7218989481221
 20
3.184040057210495
 30
0.0
 11
311.7218989481221
 21
3.184040057210495
 31
0.0
  0
LINE
  5
203
  8
_0-1_
  6
DASHED2
 62
   152
 10
301.2218989481221
 20
23.63404082014995
 30
0.0
 11
302.2218989481221
 21
24.63404082014995
 31
0.0
  0
LINE
  5
204
  8
_0-1_
  6
DASHED2
 62
   152
 10
313.2218989481221
 20
24.63404082014995
 30
0.0
 11
314.2218989481221
 21
23.63404082014995
 31
0.0
  0
LINE
  5
205
  8
_0-1_
  6
DASHED2
 62
   152
 10
314.2218989481221
 20
16.63404082014995
 30
0.0
 11
314.2218989481221
 21
23.63404082014995
 31
0.0
  0
LINE
  5
206
  8
_0-1_
  6
DASHED2
 62
   152
 10
304.2219346491627
 20
3.434043896685125
 30
0.0
 11
311.2217694449026
 21
3.434017934543135
 31
0.0
  0
LINE
  5
207
  8
_0-1_
  6
DASHED2
 62
   152
 10
312.8093074877336
 20
7.03404091553648
 30
0.0
 11
312.5468767986479
 21
10.03402934174437
 31
0.0
  0
LINE
  5
208
  8
_0-1_
  6
DASHED2
 62
   152
 10
311.2217694449026
 20
3.434017934543135
 30
0.0
 11
314.4006144264225
 21
5.26928289971238
 31
0.0
  0
LINE
  5
209
  8
_0-1_
  6
DASHED2
 62
   152
 10
314.7218529200475
 20
7.03404091553648
 30
0.0
 11
312.8093074877336
 21
7.03404091553648
 31
0.0
  0
LINE
  5
20A
  8
_0-1_
  6
DASHED2
 62
   152
 10
314.4006144264225
 20
5.26928289971238
 30
0.0
 11
314.7218529200475
 21
7.03404091553648
 31
0.0
  0
LINE
  5
20B
  8
_0-1_
  6
DASHED2
 62
   152
 10
302.6344171402887
 20
7.03404091553648
 30
0.0
 11
302.8969210976346
 21
10.03406248932197
 31
0.0
  0
LINE
  5
20C
  8
_0-1_
  6
DASHED2
 62
   152
 10
312.5468767986479
 20
10.03402934174437
 30
0.0
 11
302.8969210976346
 21
10.03406248932197
 31
0.0
  0
LINE
  5
20D
  8
_0-1_
  6
DASHED2
 62
   152
 10
304.2220165951929
 20
3.434017934543135
 30
0.0
 11
301.043171613673
 21
5.26928289971238
 31
0.0
  0
LINE
  5
20E
  8
_0-1_
  6
DASHED2
 62
   152
 10
300.7219331200479
 20
7.03404091553648
 30
0.0
 11
302.6344785523618
 21
7.03404091553648
 31
0.0
  0
LINE
  5
20F
  8
_0-1_
  6
DASHED2
 62
   152
 10
301.043171613673
 20
5.26928289971238
 30
0.0
 11
300.7219331200479
 21
7.03404091553648
 31
0.0
  0
LINE
  5
210
  8
_0-1_
  6
DASHED2
 62
   152
 10
303.7218989481221
 20
3.184040057210495
 30
0.0
 11
303.7218989481221
 21
3.722754378587354
 31
0.0
  0
LINE
  5
211
  8
_0-1_
  6
DASHED2
 62
   152
 10
303.7218989481221
 20
10.0340596555248
 30
0.0
 11
303.7218989481221
 21
16.63404082014995
 31
0.0
  0
LINE
  5
212
  8
_0-1_
  6
DASHED2
 62
   152
 10
304.2718989004384
 20
16.63404082014995
 30
0.0
 11
304.2718989004384
 21
10.03405776627608
 31
0.0
  0
LINE
  5
213
  8
_0-1_
  6
DASHED2
 62
   152
 10
304.2718989004384
 20
3.434043711369441
 30
0.0
 11
304.2718989004384
 21
2.634040820149949
 31
0.0
  0
LINE
  5
214
  8
_0-1_
  6
DASHED2
 62
   152
 10
311.1718989958059
 20
16.63404082014995
 30
0.0
 11
311.1718989958059
 21
10.03403406479026
 31
0.0
  0
LINE
  5
215
  8
_0-1_
  6
DASHED2
 62
   152
 10
311.1718989958059
 20
3.434018119510881
 30
0.0
 11
311.1718989958059
 21
2.634040820149949
 31
0.0
  0
LINE
  5
216
  8
_0-1_
  6
DASHED2
 62
   152
 10
311.7218989481221
 20
3.184040057210495
 30
0.0
 11
311.7218989481221
 21
3.722761223581244
 31
0.0
  0
LINE
  5
217
  8
_0-1_
  6
DASHED2
 62
   152
 10
311.7218989481221
 20
10.03403217554154
 30
0.0
 11
311.7218989481221
 21
16.63404082014995
 31
0.0
  0
LINE
  5
218
  8
_0-1_
  6
CENTER1
 62
   152
 10
351.7484850811719
 20
55.26932369145374
 30
0.0
 11
351.7484850811719
 21
4.956469046528241
 31
0.0
  0
LINE
  5
219
  8
_0-0_
  6
CONTINUOUS
 62
     7
 10
339.2484850811719
 20
10.13404082014995
 30
0.0
 11
364.2484850811719
 21
10.13404082014995
 31
0.0
  0
LINE
  5
21A
  8
_0-0_
  6
CONTINUOUS
 62
     7
 10
339.2484850811719
 20
48.84221957774162
 30
0.0
 11
339.2484850811719
 21
10.13404082014995
 31
0.0
  0
ARC
  5
21B
  8
_0-0_
  6
CONTINUOUS
 62
     7
 10
340.2484850811719
 20
48.84221957774162
 30
0.0
 40
0.9999999999999994
 50
102.8185942353826
 51
180.0000000000016
  0
LINE
  5
21C
  8
_0-0_
  6
CONTINUOUS
 62
     7
 10
364.2484850811719
 20
48.84221957774162
 30
0.0
 11
364.2484850811719
 21
10.13404082014995
 31
0.0
  0
ARC
  5
21D
  8
_0-0_
  6
CONTINUOUS
 62
     7
 10
351.7484850811719
 20
-1.699292510347448
 30
0.0
 40
52.8333333304974
 50
77.18140576462667
 51
102.8185942353733
  0
ARC
  5
21E
  8
_0-0_
  6
CONTINUOUS
 62
     7
 10
363.2484850811719
 20
48.84221957774162
 30
0.0
 40
1.0
 50
0.0
 51
77.18140576462727
  0
LINE
  5
21F
  8
_0-0_
  6
CONTINUOUS
 62
     7
 10
360.2484850811719
 20
50.44580419884898
 30
0.0
 11
360.2484850811719
 21
25.13404082014995
 31
0.0
  0
LINE
  5
220
  8
_0-0_
  6
CONTINUOUS
 62
     7
 10
343.2484850811719
 20
25.13404082014995
 30
0.0
 11
360.2484850811719
 21
25.13404082014995
 31
0.0
  0
LINE
  5
221
  8
_0-0_
  6
CONTINUOUS
 62
     7
 10
343.2484850811719
 20
50.44580419884898
 30
0.0
 11
343.2484850811719
 21
25.13404082014995
 31
0.0
  0
LINE
  5
222
  8
_0-1_
  6
CENTER1
 62
   152
 10
145.208142481553
 20
52.01126317461774
 30
0.0
 11
145.208142481553
 21
3.835716452960469
 31
0.0
  0
LINE
  5
223
  8
_0-1_
  6
CENTER1
 62
   152
 10
179.7218989481221
 20
83.94839266014992
 30
0.0
 11
322.2708948300252
 21
83.94839266014992
 31
0.0
  0
TEXT
  5
224
  8
_0-E_
 62
     7
 10
24.56395856580639
 20
95.5941666924204
 30
0.0
 40
5.0
  1
HCP1
1001
CAXA_DRAFT_TXTSCALE
1041
1.0
  0
TEXT
  5
225
  8
_0-E_
 62
     7
 10
194.6784216707861
 20
96.66872816163044
 30
0.0
 40
5.0
  1
HCP2
1001
CAXA_DRAFT_TXTSCALE
1041
1.0
  0
VIEWPORT
  5
228
 67
     1
  8
0
 10
0.0
 20
0.0
 30
0.0
 40
300.0
 41
220.0
 68
     1
 69
     1
1001
ACAD
1000
MVIEW
1002
{
1070
    16
1010
0.0
1020
0.0
1030
0.0
1010
0.0
1020
0.0
1030
1.0
1040
0.0
1040
1.0
1040
0.0
1040
0.0
1040
50.0
1040
0.0
1040
0.0
1070
     0
1070
   100
1070
     0
1070
     3
1070
     0
1070
     0
1070
     0
1070
     0
1040
0.0
1040
0.0
1040
0.0
1040
0.5
1040
0.5
1040
0.0
1040
0.0
1070
     0
1002
{
1002
}
1002
}
  0
ENDSEC
  0
EOF
