  0
SECTION
  2
HEADER
  9
$ACADVER
  1
AC1009
  9
$INSBASE
 10
0
 20
0
 30
0
  9
$EXTMIN
 10
0
 20
0
  9
$EXTMAX
 10
1189
 20
841
  9
$LIMMIN
 10
0
 20
0
  9
$LIMMAX
 10
1189
 20
841
  9
$LTSCALE
 40
1
  0
ENDSEC
  0
SECTION
  2
TABLES
  0
TABLE
  2
LTYPE
 70
     9
  0
LTYPE
  2
CONTINUOUS
 70
    64
  3
実線
 72
    65
 73
     0
 40
0.0
  0
LTYPE
  2
DASHED1
 70
    64
  3
--  --  --  --  --  --  --  --  
 72
    65
 73
     2
 40
2.5
 49
1.25
 49
-1.25
  0
LTYPE
  2
DASHED2
 70
    64
  3
----    ----    ----    ----    
 72
    65
 73
     2
 40
5.0
 49
2.5
 49
-2.5
  0
LTYPE
  2
DASHED3
 70
    64
  3
------  ------  ------  ------  
 72
    65
 73
     2
 40
5.0
 49
3.75
 49
-1.25
  0
LTYPE
  2
CENTER1
 70
    64
  3
----- - ----- - ----- - ----- - 
 72
    65
 73
     4
 40
10.0
 49
6.25
 49
-1.25
 49
1.25
 49
-1.25
  0
LTYPE
  2
CENTER2
 70
    64
  3
----------  --  ----------  --  
 72
    65
 73
     4
 40
20.0
 49
12.5
 49
-2.5
 49
2.5
 49
-2.5
  0
LTYPE
  2
PHANTOM1
 70
    64
  3
--- - - --- - - --- - - --- - - 
 72
    65
 73
     6
 40
10.0
 49
3.25
 49
-1.25
 49
1.25
 49
-1.25
 49
1.25
 49
-1.25
  0
LTYPE
  2
PHANTOM2
 70
    64
  3
--------  -  -  --------  -  -  
 72
    65
 73
     6
 40
20.0
 49
10.0
 49
-2.5
 49
1.25
 49
-2.5
 49
1.25
 49
-2.5
  0
LTYPE
  2
DOT
 70
    64
  3
-   -   -   -   -   -   -   -   
 72
    65
 73
     2
 40
2.5
 49
0.625
 49
-1.875
  0
LTYPE
  2
DUMMY
 70
    64
  3
ダミー
 72
    65
 73
     0
 40
0.0
  0
LTYPE
  2
RAND1
 70
    64
  3
ランダム線1
 72
    65
 73
     4
 40
10.0
 49
1.0
 49
-2.0
 49
3.0
 49
-4.0
  0
LTYPE
  2
RAND2
 70
    64
  3
ランダム線2
 72
    65
 73
     4
 40
14.0
 49
2.0
 49
-3.0
 49
4.0
 49
-5.0
  0
LTYPE
  2
RAND3
 70
    64
  3
ランダム線3
 72
    65
 73
     4
 40
18.0
 49
3.0
 49
-4.0
 49
5.0
 49
-6.0
  0
LTYPE
  2
RAND4
 70
    64
  3
ランダム線4
 72
    65
 73
     4
 40
22.0
 49
4.0
 49
-5.0
 49
6.0
 49
-7.0
  0
LTYPE
  2
RAND5
 70
    64
  3
ランダム線5
 72
    65
 73
     4
 40
26.0
 49
5.0
 49
-6.0
 49
7.0
 49
-8.0
  0
LTYPE
  2
LONG1
 70
    64
  3
----------  --  ----------  --  
 72
    65
 73
     4
 40
40.0
 49
32.5
 49
-2.5
 49
2.5
 49
-2.5
  0
LTYPE
  2
LONG2
 70
    64
  3
--------  -  -  --------  -  -  
 72
    65
 73
     6
 40
40.0
 49
30.0
 49
-2.5
 49
1.25
 49
-2.5
 49
1.25
 49
-2.5
  0
LTYPE
  2
LONG3
 70
    64
  3
+++++++++++++++..+++++++++++++++
 72
    65
 73
     2
 40
40.0
 49
37.5
 49
-2.5
  0
LTYPE
  2
LONG4
 70
    64
  3
+++++++++++++++..+++++++++++++++
 72
    65
 73
     2
 40
80.0
 49
75.0
 49
-5.0
  0
LTYPE
  2
LONG5
 70
    64
  3
----------  --  ----------  --  
 72
    65
 73
     4
 40
60.0
 49
37.5
 49
-7.5
 49
7.5
 49
-7.5
  0
LTYPE
  2
dashed
 70
   64
  3
-------   -------------   ------
 72
   65
 73
    2
 40
7.5
 49
6
 49
-1.5
  0
LTYPE
  2
dashed_spaced
 70
   64
  3
----        --------        ----
 72
   65
 73
    2
 40
12
 49
6
 49
-6
  0
LTYPE
  2
long_dashed_dotted
 70
   64
  3
------------- --- --------------
 72
   65
 73
    4
 40
15.25
 49
12
 49
-1.5
 49
0.25
 49
-1.5
  0
LTYPE
  2
long_dashed_double-dotted
 70
   64
  3
----------- --- --- ------------
 72
   65
 73
    6
 40
17
 49
12
 49
-1.5
 49
0.25
 49
-1.5
 49
0.25
 49
-1.5
  0
LTYPE
  2
long_dashed_triplicate-dotted
 70
   64
  3
--------- --- --- --- ----------
 72
   65
 73
    8
 40
18.75
 49
12
 49
-1.5
 49
0.25
 49
-1.5
 49
0.25
 49
-1.5
 49
0.25
 49
-1.5
  0
LTYPE
  2
dotted
 70
   64
  3
   -       -       -       -    
 72
   65
 73
    2
 40
1.75
 49
0.25
 49
-1.5
  0
LTYPE
  2
chain
 70
   64
  3
-------------- -- --------------
 72
   65
 73
    4
 40
18.5
 49
12
 49
-1.5
 49
3.5
 49
-1.5
  0
LTYPE
  2
chain_double_dash
 70
   64
  3
------------ -- -- -------------
 72
   65
 73
    6
 40
23.5
 49
12
 49
-1.5
 49
3.5
 49
-1.5
 49
3.5
 49
-1.5
  0
LTYPE
  2
dashed_dotted
 70
   64
  3
-----------     -     ----------
 72
   65
 73
    4
 40
9.25
 49
6
 49
-1.5
 49
0.25
 49
-1.5
  0
LTYPE
  2
double-dashed_dotted
 70
   64
  3
------   -----------   -   -----
 72
   65
 73
    6
 40
16.75
 49
6
 49
-1.5
 49
6
 49
-1.5
 49
0.25
 49
-1.5
  0
LTYPE
  2
dashed_double-dotted
 70
   64
  3
---------    -    -    ---------
 72
   65
 73
    6
 40
11
 49
6
 49
-1.5
 49
0.25
 49
-1.5
 49
0.25
 49
-1.5
  0
LTYPE
  2
double-dashed_double-dotted
 70
   64
  3
-----   ---------   -   -   ----
 72
   65
 73
    8
 40
18.5
 49
6
 49
-1.5
 49
6
 49
-1.5
 49
0.25
 49
-1.5
 49
0.25
 49
-1.5
  0
LTYPE
  2
dashed_triplicate-dotted
 70
   64
  3
-------    -    -    -    ------
 72
   65
 73
    8
 40
12.75
 49
6
 49
-1.5
 49
0.25
 49
-1.5
 49
0.25
 49
-1.5
 49
0.25
 49
-1.5
  0
LTYPE
  2
double-dashed_triplicate-dotted
 70
   64
  3
-----  ---------  -  -  -  -----
 72
   65
 73
   10
 40
20.25
 49
6
 49
-1.5
 49
6
 49
-1.5
 49
0.25
 49
-1.5
 49
0.25
 49
-1.5
 49
0.25
 49
-1.5
  0
LTYPE
  2
undefined
 70
   64
  3
--------------------------------
 72
   65
 73
    0
 40
0
  0
ENDTAB
  0
TABLE
  2
STYLE
  5
3
100
AcDbSymbolTable
 70
     1
  0
STYLE
  5
10
100
AcDbSymbolTableRecord
100
AcDbTextStyleTableRecord
  2
STANDARD
 70
     0
 40
0.0
 41
1.0
 50
0.0
 71
     0
 42
0.2
  3
txt
  4
bigfont.shx
  0
STYLE
  5
26
100
AcDbSymbolTableRecord
100
AcDbTextStyleTableRecord
  2
TATEGAKI
 70
    68
 40
0.0
 41
1.0
 50
0.0
 71
     0
 42
1.0
  3
txt
  4
bigfont.shx
  0
ENDTAB
  0
TABLE
  2
LAYER
 70
    5
  0
LAYER
  2
_0-0_
 70
   64
 62
    7
  6
CONTINUOUS
  0
LAYER
  2
_0-1_
 70
   64
 62
    7
  6
CONTINUOUS
  0
LAYER
  2
_0-2_
 70
   64
 62
    7
  6
CONTINUOUS
  0
LAYER
  2
_0-f_
 70
   64
 62
    7
  6
CONTINUOUS
  0
LAYER
  2
ADD_LINE
 70
   64
 62
    7
  6
CONTINUOUS
  0
ENDTAB
  0
ENDSEC
  0
SECTION
  2
BLOCKS
  0
ENDSEC
  0
SECTION
  2
ENTITIES
  0
LINE
  8
_0-0_
  6
CONTINUOUS
 62
    7
 10
25.545839309791859
 20
231.90596290052139
 11
129.38031059987031
 21
231.90596290052139
  0
LINE
  8
_0-0_
  6
CONTINUOUS
 62
    7
 10
129.86706157090237
 20
228.90596290052139
 11
116.26307495483104
 21
228.90596290052139
  0
LINE
  8
_0-0_
  6
CONTINUOUS
 62
    7
 10
115.96307495483109
 20
228.60596290052138
 11
115.96307495483109
 21
216.2059629005214
  0
LINE
  8
_0-0_
  6
CONTINUOUS
 62
    7
 10
116.26307495483104
 20
215.90596290052139
 11
129.56311800924891
 21
215.90596290052139
  0
LINE
  8
_0-0_
  6
CONTINUOUS
 62
    7
 10
129.38031059987031
 20
212.90596290052139
 11
25.545839309791859
 21
212.90596290052139
  0
LINE
  8
_0-0_
  6
CONTINUOUS
 62
    7
 10
25.363031900413148
 20
215.90596290052139
 11
38.663074954831018
 21
215.90596290052139
  0
LINE
  8
_0-0_
  6
CONTINUOUS
 62
    7
 10
38.963074954831086
 20
216.2059629005214
 11
38.963074954831086
 21
228.60596290052138
  0
LINE
  8
_0-0_
  6
CONTINUOUS
 62
    7
 10
38.663074954831018
 20
228.90596290052139
 11
25.059088338759807
 21
228.90596290052139
  0
LINE
  8
_0-1_
  6
CENTER1
 62
  152
 10
24.963074954831086
 20
222.40596290052139
 11
40.963074954831086
 21
222.40596290052139
  0
LINE
  8
_0-1_
  6
CENTER1
 62
  152
 10
32.463074954831086
 20
215.90596290052139
 11
32.463074954831086
 21
228.90596290052139
  0
LINE
  8
_0-1_
  6
CENTER1
 62
  152
 10
77.463074954830972
 20
231.90596290052139
 11
77.463074954830972
 21
212.90596290052139
  0
LINE
  8
_0-1_
  6
CENTER1
 62
  152
 10
77.463074954830972
 20
184.43649381709253
 11
77.463074954830972
 21
148.43649381709253
  0
LINE
  8
_0-0_
  6
CONTINUOUS
 62
    7
 10
41.463074954831086
 20
148.43649381709253
 11
41.463074954831086
 21
176.43649381709253
  0
LINE
  8
_0-0_
  6
CONTINUOUS
 62
    7
 10
43.463074954831086
 20
178.43649381709253
 11
111.46307495483109
 21
178.43649381709253
  0
LINE
  8
_0-0_
  6
CONTINUOUS
 62
    7
 10
113.46307495483109
 20
176.43649381709253
 11
113.46307495483109
 21
148.43649381709253
  0
LINE
  8
_0-0_
  6
CONTINUOUS
 62
    7
 10
113.46307495483109
 20
148.43649381709253
 11
129.96307495483109
 21
148.43649381709253
  0
LINE
  8
_0-0_
  6
CONTINUOUS
 62
    7
 10
129.96307495483109
 20
148.43649381709253
 11
129.96307495483109
 21
162.38867402295153
  0
LINE
  8
_0-0_
  6
CONTINUOUS
 62
    7
 10
129.90781236078021
 20
162.56217791953384
 11
115.90781236078021
 21
182.30999771367482
  0
LINE
  8
_0-0_
  6
DASHED2
 62
    7
 10
115.96307495483109
 20
182.13649381709251
 11
115.96307495483109
 21
160.73649381709254
  0
LINE
  8
_0-0_
  6
DASHED2
 62
    7
 10
116.26307495483104
 20
160.43649381709253
 11
129.66307495483113
 21
160.43649381709253
  0
LINE
  8
_0-0_
  6
DASHED2
 62
    7
 10
127.96307495483109
 20
160.13649381709251
 11
127.96307495483109
 21
153.43649381709253
  0
LINE
  8
_0-0_
  6
DASHED2
 62
    7
 10
127.96307495483109
 20
153.43649381709253
 11
116.96307495483109
 21
153.43649381709253
  0
LINE
  8
_0-0_
  6
DASHED2
 62
    7
 10
116.96307495483109
 20
153.43649381709253
 11
116.96307495483109
 21
160.13649381709251
  0
LINE
  8
_0-1_
  6
CENTER1
 62
  152
 10
122.46307495483109
 20
160.43649381709253
 11
122.46307495483109
 21
148.43649381709253
  0
LINE
  8
_0-0_
  6
DASHED2
 62
    7
 10
119.21307495483109
 20
148.43649381709253
 11
119.21307495483109
 21
153.43649381709253
  0
LINE
  8
_0-0_
  6
DASHED2
 62
    7
 10
125.71307495483109
 20
153.43649381709253
 11
125.71307495483109
 21
148.43649381709253
  0
LINE
  8
_0-0_
  6
CONTINUOUS
 62
    7
 10
115.66307495483102
 20
182.43649381709253
 11
39.26307495483104
 21
182.43649381709253
  0
LINE
  8
_0-0_
  6
CONTINUOUS
 62
    7
 10
39.018337548881846
 20
182.30999771367482
 11
25.018337548881846
 21
162.56217791953384
  0
LINE
  8
_0-0_
  6
CONTINUOUS
 62
    7
 10
24.963074954831086
 20
162.38867402295153
 11
24.963074954831086
 21
148.43649381709253
  0
LINE
  8
_0-0_
  6
CONTINUOUS
 62
    7
 10
24.963074954831086
 20
148.43649381709253
 11
41.463074954831086
 21
148.43649381709253
  0
LINE
  8
_0-0_
  6
DASHED2
 62
    7
 10
37.28805280535687
 20
147.83648233868695
 11
37.550483494442574
 21
144.83649391247906
  0
LINE
  8
_0-0_
  6
DASHED2
 62
    7
 10
37.550483494442574
 20
144.83649391247906
 11
39.463028926756465
 21
144.83649391247906
  0
LINE
  8
_0-0_
  6
DASHED2
 62
    7
 10
39.463028926756465
 20
144.83649391247906
 11
39.141790433131405
 21
143.07173589665496
  0
LINE
  8
_0-0_
  6
DASHED2
 62
    7
 10
39.141790433131405
 20
143.07173589665496
 11
35.962945451611517
 21
141.23647093148571
  0
LINE
  8
_0-0_
  6
DASHED2
 62
    7
 10
35.962945451611517
 20
141.23647093148571
 11
28.963110655871674
 21
141.2364968936277
  0
LINE
  8
_0-0_
  6
DASHED2
 62
    7
 10
28.963192601901824
 20
141.23647093148571
 11
25.784347620381936
 21
143.07173589665496
  0
LINE
  8
_0-0_
  6
DASHED2
 62
    7
 10
25.784347620381936
 20
143.07173589665496
 11
25.463109126756876
 21
144.83649391247906
  0
LINE
  8
_0-0_
  6
DASHED2
 62
    7
 10
25.463109126756876
 20
144.83649391247906
 11
27.375654559070767
 21
144.83649391247906
  0
LINE
  8
_0-0_
  6
DASHED2
 62
    7
 10
27.37559314699763
 20
144.83649391247906
 11
27.638097104343501
 21
147.83651548626455
  0
LINE
  8
_0-0_
  6
DASHED2
 62
    7
 10
27.638097104343501
 20
147.83651548626455
 11
37.28805280535687
 21
147.83648233868695
  0
LINE
  8
_0-0_
  6
DASHED2
 62
    7
 10
35.463074954831086
 20
147.83648860748201
 11
35.463074954831086
 21
153.43649381709253
  0
LINE
  8
_0-0_
  6
DASHED2
 62
    7
 10
35.588074954831086
 20
153.43649381709253
 11
35.588074954831086
 21
158.83649391245996
  0
LINE
  8
_0-0_
  6
DASHED2
 62
    7
 10
34.963074954831086
 20
158.83649391245996
 11
34.963074954831086
 21
153.43649381709253
  0
LINE
  8
_0-0_
  6
DASHED2
 62
    7
 10
35.01307490714737
 20
153.43649381709253
 11
35.01307490714737
 21
147.83649015323124
  0
LINE
  8
_0-0_
  6
DASHED2
 62
    7
 10
35.713074954831086
 20
148.43649381709253
 11
35.713074954831086
 21
153.43649381709253
  0
LINE
  8
_0-0_
  6
DASHED2
 62
    7
 10
36.213074954831086
 20
153.43649381709253
 11
36.213074954831086
 21
158.83649391245996
  0
LINE
  8
_0-0_
  6
DASHED2
 62
    7
 10
36.838074954831086
 20
158.83649391245996
 11
36.838074954831086
 21
153.43649381709253
  0
LINE
  8
_0-0_
  6
DASHED2
 62
    7
 10
37.463074954831086
 20
153.43649381709253
 11
37.463074954831086
 21
158.83649391245996
  0
LINE
  8
_0-0_
  6
DASHED2
 62
    7
 10
37.463074954831086
 20
158.83649391245996
 11
36.863075050198518
 21
159.43649381709253
  0
LINE
  8
_0-0_
  6
DASHED2
 62
    7
 10
36.863075050198518
 20
159.43649381709253
 11
28.063074859463654
 21
159.43649381709253
  0
LINE
  8
_0-0_
  6
DASHED2
 62
    7
 10
28.063074859463654
 20
159.43649381709253
 11
27.463074954831086
 21
158.83649391245996
  0
LINE
  8
_0-0_
  6
DASHED2
 62
    7
 10
27.463074954831086
 20
158.83649391245996
 11
27.463074954831086
 21
153.43649381709253
  0
LINE
  8
_0-0_
  6
DASHED2
 62
    7
 10
26.963074954831086
 20
153.43649381709253
 11
26.963074954831086
 21
160.13649381709251
  0
LINE
  8
_0-0_
  6
DASHED2
 62
    7
 10
27.463074954831086
 20
158.83649391245996
 11
37.463074954831086
 21
158.83649391245996
  0
LINE
  8
_0-0_
  6
DASHED2
 62
    7
 10
37.963074954831086
 20
160.13649381709251
 11
37.963074954831086
 21
153.43649381709253
  0
LINE
  8
_0-0_
  6
DASHED2
 62
    7
 10
37.963074954831086
 20
153.43649381709253
 11
26.963074954831086
 21
153.43649381709253
  0
LINE
  8
_0-0_
  6
DASHED2
 62
    7
 10
29.213074954831086
 20
153.43649381709253
 11
29.213074954831086
 21
148.43649381709253
  0
LINE
  8
_0-0_
  6
DASHED2
 62
    7
 10
29.463074954831086
 20
147.83650921746948
 11
29.463074954831086
 21
153.43649381709253
  0
LINE
  8
_0-0_
  6
DASHED2
 62
    7
 10
29.913075002514802
 20
153.43649381709253
 11
29.913075002514802
 21
147.83650767172026
  0
LINE
  8
_0-0_
  6
DASHED2
 62
    7
 10
31.755968173663518
 20
147.72938703592496
 11
32.463074954831086
 21
148.43649381709253
  0
LINE
  8
_0-0_
  6
DASHED2
 62
    7
 10
32.463074954850185
 20
148.43649381711163
 11
33.170181736036852
 21
147.72938703592496
  0
LINE
  8
_0-0_
  6
DASHED2
 62
    7
 10
33.170181736017753
 20
152.72938703590597
 11
32.463074954831086
 21
153.43649381709253
  0
LINE
  8
_0-0_
  6
DASHED2
 62
    7
 10
32.463074954831086
 20
153.43649381709253
 11
31.755968173644419
 21
152.72938703590597
  0
LINE
  8
_0-0_
  6
DASHED2
 62
    7
 10
34.338074954831086
 20
153.43649381709253
 11
34.338074954831086
 21
158.83649391245996
  0
LINE
  8
_0-1_
  6
CENTER1
 62
  152
 10
32.463074954831086
 20
160.43649381709253
 11
32.463074954831086
 21
139.43649381709253
  0
LINE
  8
_0-0_
  6
DASHED2
 62
    7
 10
29.913075002514802
 20
139.43649381709253
 11
29.463074954831086
 21
139.88649362635766
  0
LINE
  8
_0-0_
  6
DASHED2
 62
    7
 10
29.463074954831086
 20
139.88649362635766
 11
35.463074954831086
 21
139.88649362635766
  0
LINE
  8
_0-0_
  6
DASHED2
 62
    7
 10
35.463074954831086
 20
139.88649362635766
 11
35.01307490714737
 21
139.43649381709253
  0
LINE
  8
_0-0_
  6
DASHED2
 62
    7
 10
35.01307490714737
 20
139.43649381709253
 11
29.913075002514802
 21
139.43649381709253
  0
LINE
  8
_0-0_
  6
DASHED2
 62
    7
 10
29.913075002514802
 20
139.43649381709253
 11
29.913075002514802
 21
141.23649337024324
  0
LINE
  8
_0-0_
  6
DASHED2
 62
    7
 10
29.463074954831086
 20
141.23649503927766
 11
29.463074954831086
 21
139.88649362635766
  0
LINE
  8
_0-0_
  6
DASHED2
 62
    7
 10
35.01307490714737
 20
139.43649381709253
 11
35.01307490714737
 21
141.23647445452229
  0
LINE
  8
_0-0_
  6
DASHED2
 62
    7
 10
35.463074954831086
 20
141.23647278548788
 11
35.463074954831086
 21
139.88649362635766
  0
LINE
  8
_0-0_
  6
DASHED2
 62
    7
 10
38.663074954831018
 20
160.43649381709253
 11
25.26307495483104
 21
160.43649381709253
  0
LINE
  8
_0-0_
  6
DASHED2
 62
    7
 10
38.963074954831086
 20
160.73649381709254
 11
38.963074954831086
 21
182.13649381709251
  0
LINE
  8
_0-0_
  6
CONTINUOUS
 62
    7
 10
25.76307495483104
 20
95.997437473154889
 11
8.3751738553530686
 21
95.997437473154889
  0
LINE
  8
_0-0_
  6
CONTINUOUS
 62
    7
 10
10.194235489845369
 20
99.997437473154889
 11
144.7319144198168
 21
99.997437473154889
  0
LINE
  8
_0-0_
  6
CONTINUOUS
 62
    7
 10
146.55097605430888
 20
95.997437473154889
 11
129.16307495483102
 21
95.997437473154889
  0
LINE
  8
_0-0_
  6
CONTINUOUS
 62
    7
 10
128.96307495483097
 20
95.797437473154844
 11
128.96307495483097
 21
79.197437473154935
  0
LINE
  8
_0-0_
  6
CONTINUOUS
 62
    7
 10
129.16307495483102
 20
78.997437473154889
 11
146.55097605430888
 21
78.997437473154889
  0
LINE
  8
_0-0_
  6
CONTINUOUS
 62
    7
 10
144.7319144198168
 20
74.997437473154889
 11
10.194235489845369
 21
74.997437473154889
  0
LINE
  8
_0-0_
  6
CONTINUOUS
 62
    7
 10
8.3751738553530686
 20
78.997437473154889
 11
25.76307495483104
 21
78.997437473154889
  0
LINE
  8
_0-0_
  6
CONTINUOUS
 62
    7
 10
25.963074954830972
 20
79.197437473154935
 11
25.963074954830972
 21
95.797437473154844
  0
LINE
  8
_0-1_
  6
CENTER1
 62
  152
 10
17.463074954830972
 20
95.997437473154889
 11
17.463074954830972
 21
78.997437473154889
  0
LINE
  8
_0-1_
  6
CENTER1
 62
  152
 10
7.4630749548309723
 20
87.497437473154889
 11
145.96307495483097
 21
87.497437473154889
  0
LINE
  8
_0-1_
  6
CENTER1
 62
  152
 10
137.46307495483097
 20
78.997437473154889
 11
137.46307495483097
 21
95.997437473154889
  0
LINE
  8
_0-0_
  6
CONTINUOUS
 62
    7
 10
130.56360564556951
 20
45.168351464401155
 11
147.02827706318226
 21
24.469907396545011
  0
LINE
  8
_0-0_
  6
CONTINUOUS
 62
    7
 10
147.46307495483097
 20
23.224860264901906
 11
147.46307495483097
 21
6.9233043327580504
  0
LINE
  8
_0-0_
  6
CONTINUOUS
 62
    7
 10
147.46307495483097
 20
6.9233043327580504
 11
126.96307495483103
 21
6.9233043327580504
  0
LINE
  8
_0-0_
  6
CONTINUOUS
 62
    7
 10
126.96307495483103
 20
6.9233043327580504
 11
126.96307495483103
 21
37.42330433275805
  0
LINE
  8
_0-0_
  6
CONTINUOUS
 62
    7
 10
124.96307495483103
 20
39.42330433275805
 11
29.963074954830972
 21
39.42330433275805
  0
LINE
  8
_0-0_
  6
CONTINUOUS
 62
    7
 10
27.963074954830972
 20
37.42330433275805
 11
27.963074954830972
 21
6.9233043327580504
  0
LINE
  8
_0-0_
  6
CONTINUOUS
 62
    7
 10
27.963074954830972
 20
6.9233043327580504
 11
7.4630749548309723
 21
6.9233043327580504
  0
LINE
  8
_0-0_
  6
CONTINUOUS
 62
    7
 10
7.4630749548309723
 20
6.9233043327580504
 11
7.4630749548309723
 21
23.224860264901906
  0
LINE
  8
_0-0_
  6
DASHED2
 62
    7
 10
7.4630749548309723
 20
21.92330433275805
 11
25.963074954830972
 21
21.92330433275805
  0
LINE
  8
_0-0_
  6
DASHED2
 62
    7
 10
25.963074954830972
 20
21.92330433275805
 11
25.963074954830972
 21
45.92330433275805
  0
LINE
  8
_0-0_
  6
CONTINUOUS
 62
    7
 10
25.927746372443835
 20
45.92330433275805
 11
128.99840353721822
 21
45.92330433275805
  0
LINE
  8
_0-0_
  6
DASHED2
 62
    7
 10
128.96307495483103
 20
45.92330433275805
 11
128.96307495483103
 21
21.92330433275805
  0
LINE
  8
_0-0_
  6
DASHED2
 62
    7
 10
128.96307495483103
 20
21.92330433275805
 11
147.46307495483097
 21
21.92330433275805
  0
LINE
  8
_0-1_
  6
CENTER1
 62
  152
 10
137.46307495483097
 20
21.92330433275805
 11
137.46307495483097
 21
6.9233043327580504
  0
LINE
  8
_0-1_
  6
CENTER1
 62
  152
 10
77.463074954830972
 20
6.9233043327580504
 11
77.463074954830972
 21
45.92330433275805
  0
LINE
  8
_0-1_
  6
CENTER1
 62
  152
 10
77.463074954830972
 20
74.997437473154889
 11
77.463074954830972
 21
99.997437473154889
  0
LINE
  8
_0-0_
  6
CONTINUOUS
 62
    7
 10
24.362544264092548
 20
45.168351464401155
 11
7.8978728464796859
 21
24.469907396545011
  0
LINE
  8
_0-0_
  6
DASHED2
 62
    7
 10
22.288052805356756
 20
6.3232928543524736
 11
22.55048349444246
 21
3.3233044281445814
  0
LINE
  8
_0-0_
  6
DASHED2
 62
    7
 10
22.55048349444246
 20
3.3233044281445814
 11
24.463028926756351
 21
3.3233044281445814
  0
LINE
  8
_0-0_
  6
DASHED2
 62
    7
 10
24.463028926756351
 20
3.3233044281445814
 11
24.141790433131291
 21
1.5585464123204815
  0
LINE
  8
_0-0_
  6
DASHED2
 62
    7
 10
10.784347620381823
 20
1.5585464123204815
 11
10.463109126756763
 21
3.3233044281445814
  0
LINE
  8
_0-0_
  6
DASHED2
 62
    7
 10
10.463109126756763
 20
3.3233044281445814
 11
12.375654559070654
 21
3.3233044281445814
  0
LINE
  8
_0-0_
  6
DASHED2
 62
    7
 10
12.375593146997517
 20
3.3233044281445814
 11
12.638097104343387
 21
6.3233260019300701
  0
LINE
  8
_0-0_
  6
DASHED2
 62
    7
 10
12.638097104343387
 20
6.3233260019300701
 11
22.288052805356756
 21
6.3232928543524736
  0
LINE
  8
_0-0_
  6
DASHED2
 62
    7
 10
18.170181736036739
 20
6.2161975515904828
 11
17.463074954850072
 21
6.9233043327771497
  0
LINE
  8
_0-0_
  6
DASHED2
 62
    7
 10
17.463074954830972
 20
6.9233043327580504
 11
16.755968173663405
 21
6.2161975515904828
  0
LINE
  8
_0-0_
  6
CONTINUOUS
 62
    7
 10
181.45720821356031
 20
6.9233043327580504
 11
206.45720821356031
 21
6.9233043327580504
  0
LINE
  8
_0-0_
  6
CONTINUOUS
 62
    7
 10
206.45720821356031
 20
6.9233043327580504
 11
206.45720821356031
 21
43.559496700663829
  0
LINE
  8
_0-0_
  6
CONTINUOUS
 62
    7
 10
202.45720821356031
 20
45.011205432235954
 11
202.45720821356031
 21
21.92330433275805
  0
LINE
  8
_0-0_
  6
CONTINUOUS
 62
    7
 10
202.45720821356031
 20
21.92330433275805
 11
185.45720821356031
 21
21.92330433275805
  0
LINE
  8
_0-0_
  6
CONTINUOUS
 62
    7
 10
185.45720821356031
 20
21.92330433275805
 11
185.45720821356031
 21
45.011205432235954
  0
LINE
  8
_0-0_
  6
CONTINUOUS
 62
    7
 10
181.45720821356031
 20
43.559496700663829
 11
181.45720821356031
 21
6.9233043327580504
  0
LINE
  8
_0-1_
  6
CENTER1
 62
  152
 10
193.95720821356031
 20
6.9233043327580504
 11
193.95720821356031
 21
45.92330433275805
  0
LINE
  8
_0-0_
  6
CONTINUOUS
 62
    7
 10
195.2966774370642
 20
148.43649381709253
 11
176.2966774370642
 21
148.43649381709253
  0
LINE
  8
_0-0_
  6
CONTINUOUS
 62
    7
 10
176.2966774370642
 20
148.43649381709253
 11
176.2966774370642
 21
181.28626585304016
  0
LINE
  8
_0-0_
  6
CONTINUOUS
 62
    7
 10
179.2966774370642
 20
182.01642991928816
 11
179.2966774370642
 21
160.73649381709254
  0
LINE
  8
_0-0_
  6
CONTINUOUS
 62
    7
 10
179.59667743706416
 20
160.43649381709253
 11
191.99667743706425
 21
160.43649381709253
  0
LINE
  8
_0-0_
  6
CONTINUOUS
 62
    7
 10
192.2966774370642
 20
160.73649381709254
 11
192.2966774370642
 21
182.01642991928816
  0
LINE
  8
_0-0_
  6
CONTINUOUS
 62
    7
 10
195.2966774370642
 20
181.28626585304016
 11
195.2966774370642
 21
148.43649381709253
  0
LINE
  8
_0-0_
  6
DASHED2
 62
    7
 10
189.0466774370642
 20
148.43649381709253
 11
189.0466774370642
 21
153.43649381709253
  0
LINE
  8
_0-0_
  6
DASHED2
 62
    7
 10
191.2966774370642
 20
153.43649381709253
 11
180.2966774370642
 21
153.43649381709253
  0
LINE
  8
_0-0_
  6
DASHED2
 62
    7
 10
180.2966774370642
 20
153.43649381709253
 11
180.2966774370642
 21
160.13649381709251
  0
LINE
  8
_0-0_
  6
DASHED2
 62
    7
 10
182.5466774370642
 20
153.43649381709253
 11
182.5466774370642
 21
148.43649381709253
  0
LINE
  8
_0-1_
  6
CENTER1
 62
  152
 10
185.7966774370642
 20
148.43649381709253
 11
185.7966774370642
 21
182.43649381709253
  0
LINE
  8
_0-0_
  6
DASHED2
 62
    7
 10
191.2966774370642
 20
160.13649381709251
 11
191.2966774370642
 21
153.43649381709253
  0
LINE
  8
_0-1_
  6
CENTER1
 62
  152
 10
129.96307495483109
 20
222.40596290052139
 11
113.96307495483109
 21
222.40596290052139
  0
LINE
  8
_0-1_
  6
CENTER1
 62
  152
 10
122.46307495483109
 20
215.90596290052139
 11
122.46307495483109
 21
228.90596290052139
  0
ARC
  8
_0-0_
  6
CONTINUOUS
 62
    7
 10
175.0689196427569
 20
222.40596290052139
 40
150.1058446879259
 50
176.47945137438833
 51
183.5205486256117
  0
CIRCLE
  8
_0-0_
  6
CONTINUOUS
 62
    7
 10
32.463074954831086
 20
222.40596290052139
 40
3.25
  0
CIRCLE
  8
_0-0_
  6
CONTINUOUS
 62
    7
 10
32.463074954831086
 20
222.40596290052139
 40
5.5
  0
ARC
  8
_0-0_
  6
CONTINUOUS
 62
    7
 10
38.663074954831018
 20
228.60596290052138
 40
0.2999999999999998
 50
0
 51
90
  0
ARC
  8
_0-0_
  6
CONTINUOUS
 62
    7
 10
38.663074954831018
 20
216.2059629005214
 40
0.2999999999999998
 50
270
 51
0
  0
ARC
  8
_0-0_
  6
DASHED2
 62
    7
 10
191.59667743706416
 20
160.13649381709251
 40
0.2999999999999998
 50
90
 51
180
  0
ARC
  8
_0-0_
  6
DASHED2
 62
    7
 10
179.99667743706425
 20
160.13649381709251
 40
0.2999999999999998
 50
0
 51
90
  0
ARC
  8
_0-0_
  6
CONTINUOUS
 62
    7
 10
179.59667743706416
 20
160.73649381709254
 40
0.2999999999999998
 50
180
 51
270
  0
ARC
  8
_0-0_
  6
CONTINUOUS
 62
    7
 10
191.99667743706425
 20
160.73649381709254
 40
0.2999999999999998
 50
270
 51
0
  0
ARC
  8
_0-0_
  6
DASHED2
 62
    7
 10
129.66307495483113
 20
160.13649381709251
 40
0.2999999999999998
 50
0
 51
90
  0
ARC
  8
_0-0_
  6
DASHED2
 62
    7
 10
128.26307495483104
 20
160.13649381709251
 40
0.2999999999999998
 50
90
 51
180
  0
ARC
  8
_0-0_
  6
DASHED2
 62
    7
 10
116.66307495483102
 20
160.13649381709251
 40
0.2999999999999998
 50
0
 51
90
  0
ARC
  8
_0-0_
  6
DASHED2
 62
    7
 10
116.26307495483104
 20
160.73649381709254
 40
0.2999999999999998
 50
180
 51
270
  0
ARC
  8
_0-0_
  6
DASHED2
 62
    7
 10
115.66307495483102
 20
182.13649381709251
 40
0.2999999999999998
 50
0
 51
44.336322746449014
  0
ARC
  8
_0-0_
  6
CONTINUOUS
 62
    7
 10
115.66307495483102
 20
182.13649381709251
 40
0.2999999999999998
 50
35.33431559539752
 51
90
  0
ARC
  8
_0-0_
  6
CONTINUOUS
 62
    7
 10
129.66307495483102
 20
162.38867402295153
 40
0.2999999999999998
 50
0
 51
35.334315595401648
  0
ARC
  8
_0-0_
  6
DASHED2
 62
    7
 10
25.26307495483104
 20
160.13649381709251
 40
0.2999999999999998
 50
90
 51
180
  0
ARC
  8
_0-0_
  6
DASHED2
 62
    7
 10
26.663074954831018
 20
160.13649381709251
 40
0.2999999999999998
 50
0.0000000000000127
 51
90.000000000000014
  0
ARC
  8
_0-0_
  6
DASHED2
 62
    7
 10
38.26307495483104
 20
160.13649381709251
 40
0.2999999999999998
 50
90
 51
180
  0
ARC
  8
_0-0_
  6
DASHED2
 62
    7
 10
38.663074954831018
 20
160.73649381709254
 40
0.2999999999999998
 50
270
 51
0
  0
ARC
  8
_0-0_
  6
DASHED2
 62
    7
 10
39.26307495483104
 20
182.13649381709251
 40
0.2999999999999998
 50
135.66367725355099
 51
180
  0
ARC
  8
_0-0_
  6
CONTINUOUS
 62
    7
 10
39.26307495483104
 20
182.13649381709251
 40
0.2999999999999998
 50
90.000000000000028
 51
144.66568440460253
  0
ARC
  8
_0-0_
  6
CONTINUOUS
 62
    7
 10
25.26307495483104
 20
162.38867402295153
 40
0.2999999999999998
 50
144.66568440459835
 51
180
  0
ARC
  8
_0-0_
  6
CONTINUOUS
 62
    7
 10
25.545839309791859
 20
231.60596290052138
 40
0.2999999999999998
 50
90
 51
176.66049127253709
  0
ARC
  8
_0-0_
  6
CONTINUOUS
 62
    7
 10
25.545839309791859
 20
213.2059629005214
 40
0.2999999999999998
 50
183.33950872746294
 51
270
  0
ARC
  8
_0-0_
  6
CONTINUOUS
 62
    7
 10
-20.142769733094838
 20
222.40596290052139
 40
150.1058446879259
 50
356.47945137438842
 51
3.5205486256117191
  0
CIRCLE
  8
_0-0_
  6
CONTINUOUS
 62
    7
 10
122.46307495483109
 20
222.40596290052139
 40
3.25
  0
CIRCLE
  8
_0-0_
  6
CONTINUOUS
 62
    7
 10
122.46307495483109
 20
222.40596290052139
 40
5.5
  0
ARC
  8
_0-0_
  6
CONTINUOUS
 62
    7
 10
116.26307495483104
 20
228.60596290052138
 40
0.2999999999999998
 50
90
 51
180
  0
ARC
  8
_0-0_
  6
CONTINUOUS
 62
    7
 10
116.26307495483104
 20
216.2059629005214
 40
0.2999999999999998
 50
180
 51
270
  0
ARC
  8
_0-0_
  6
CONTINUOUS
 62
    7
 10
129.38031059987031
 20
231.60596290052138
 40
0.2999999999999998
 50
3.3395087274629272
 51
90
  0
ARC
  8
_0-0_
  6
CONTINUOUS
 62
    7
 10
129.38031059987031
 20
213.2059629005214
 40
0.2999999999999998
 50
270
 51
356.66049127253706
  0
ARC
  8
_0-0_
  6
CONTINUOUS
 62
    7
 10
176.59667743706416
 20
181.28626585304016
 40
0.2999999999999998
 50
100.56010751780131
 51
180
  0
ARC
  8
_0-0_
  6
CONTINUOUS
 62
    7
 10
185.7966774370642
 20
131.93649381709253
 40
50.5
 50
79.439892482198943
 51
100.56010751780107
  0
ARC
  8
_0-0_
  6
CONTINUOUS
 62
    7
 10
194.99667743706425
 20
181.28626585304016
 40
0.2999999999999998
 50
0
 51
79.439892482198672
  0
ARC
  8
_0-0_
  6
CONTINUOUS
 62
    7
 10
43.463074954831086
 20
176.43649381709253
 40
2
 50
90
 51
180
  0
ARC
  8
_0-0_
  6
CONTINUOUS
 62
    7
 10
111.46307495483109
 20
176.43649381709253
 40
2
 50
0
 51
90
  0
ARC
  8
_0-0_
  6
DASHED2
 62
    7
 10
40.880310599870313
 20
231.60596290052138
 40
0.2999999999999998
 50
3.3395087274629272
 51
90
  0
ARC
  8
_0-0_
  6
DASHED2
 62
    7
 10
40.880310599870313
 20
213.2059629005214
 40
0.2999999999999998
 50
270
 51
356.66049127253706
  0
ARC
  8
_0-0_
  6
DASHED2
 62
    7
 10
-108.64276973312508
 20
222.40596290052139
 40
150.10584468795597
 50
356.47945137438904
 51
3.5205486256109659
  0
ARC
  8
_0-0_
  6
DASHED2
 62
    7
 10
114.04583930979175
 20
231.60596290052138
 40
0.2999999999999998
 50
90.000000000000028
 51
176.66049127253709
  0
ARC
  8
_0-0_
  6
DASHED2
 62
    7
 10
114.04583930979175
 20
213.2059629005214
 40
0.2999999999999998
 50
183.33950872746294
 51
270
  0
ARC
  8
_0-0_
  6
DASHED2
 62
    7
 10
263.56891964278702
 20
222.40596290052139
 40
150.10584468795597
 50
176.47945137438904
 51
183.52054862561099
  0
CIRCLE
  8
_0-0_
  6
CONTINUOUS
 62
    7
 10
17.463074954830972
 20
87.497437473154889
 40
4.25
  0
ARC
  8
_0-0_
  6
CONTINUOUS
 62
    7
 10
10.194235489845369
 20
98.997437473154889
 40
1
 50
90
 51
162.87843775863806
  0
ARC
  8
_0-0_
  6
CONTINUOUS
 62
    7
 10
47.525574954830972
 20
87.497437473154889
 40
40.0625
 50
162.878437758638
 51
197.12156224136208
  0
ARC
  8
_0-0_
  6
CONTINUOUS
 62
    7
 10
10.194235489845369
 20
75.997437473154889
 40
1
 50
197.12156224136197
 51
270
  0
ARC
  8
_0-0_
  6
CONTINUOUS
 62
    7
 10
25.927746372443835
 20
43.92330433275805
 40
2
 50
90
 51
141.49934627965459
  0
ARC
  8
_0-0_
  6
CONTINUOUS
 62
    7
 10
29.963074954830972
 20
37.42330433275805
 40
2
 50
90
 51
180
  0
ARC
  8
_0-0_
  6
CONTINUOUS
 62
    7
 10
9.4630749548309723
 20
23.224860264901906
 40
2
 50
141.49934627965459
 51
180
  0
CIRCLE
  8
_0-0_
  6
CONTINUOUS
 62
    7
 10
137.46307495483097
 20
87.497437473154889
 40
4.25
  0
ARC
  8
_0-0_
  6
CONTINUOUS
 62
    7
 10
144.7319144198168
 20
98.997437473154889
 40
1
 50
17.121562241361953
 51
90.000000000000014
  0
ARC
  8
_0-0_
  6
CONTINUOUS
 62
    7
 10
107.40057495483103
 20
87.497437473154889
 40
40.0625
 50
342.87843775863797
 51
17.121562241362074
  0
ARC
  8
_0-0_
  6
CONTINUOUS
 62
    7
 10
144.7319144198168
 20
75.997437473154889
 40
1
 50
270
 51
342.87843775863809
  0
ARC
  8
_0-0_
  6
CONTINUOUS
 62
    7
 10
128.99840353721822
 20
43.92330433275805
 40
2
 50
38.500653720345419
 51
90
  0
ARC
  8
_0-0_
  6
CONTINUOUS
 62
    7
 10
124.96307495483103
 20
37.42330433275805
 40
2
 50
0
 51
90
  0
ARC
  8
_0-0_
  6
CONTINUOUS
 62
    7
 10
145.46307495483097
 20
23.224860264901906
 40
2
 50
0
 51
38.500653720345419
  0
ARC
  8
_0-0_
  6
CONTINUOUS
 62
    7
 10
181.95720821356031
 20
43.559496700663829
 40
0.5
 50
107.65697141447819
 51
180
  0
ARC
  8
_0-0_
  6
CONTINUOUS
 62
    7
 10
193.95720821356031
 20
5.8608043327580504
 40
40.0625
 50
72.343028585519761
 51
107.65697141448022
  0
ARC
  8
_0-0_
  6
CONTINUOUS
 62
    7
 10
205.95720821356031
 20
43.559496700663829
 40
0.5
 50
0
 51
72.343028585521807
  0
CIRCLE
  8
_0-0_
  6
CONTINUOUS
 62
    7
 10
137.46307495483097
 20
87.497437473154889
 40
7.75
  0
ARC
  8
_0-0_
  6
CONTINUOUS
 62
    7
 10
25.76307495483104
 20
95.797437473154844
 40
0.2
 50
0
 51
90
  0
ARC
  8
_0-0_
  6
CONTINUOUS
 62
    7
 10
25.76307495483104
 20
79.197437473154935
 40
0.2
 50
270
 51
0
  0
ARC
  8
_0-0_
  6
CONTINUOUS
 62
    7
 10
129.16307495483102
 20
95.797437473154844
 40
0.2
 50
90
 51
180
  0
ARC
  8
_0-0_
  6
CONTINUOUS
 62
    7
 10
129.16307495483102
 20
79.197437473154935
 40
0.2
 50
180
 51
270
  0
CIRCLE
  8
_0-0_
  6
CONTINUOUS
 62
    7
 10
17.463074954830972
 20
87.497437473154889
 40
7.75
  0
LINE
  8
_0-2_
  6
DASHED2
 62
  152
 10
145.21307495483097
 20
13.023304332758073
 11
129.71307495483097
 21
13.023304332758073
  0
LINE
  8
_0-2_
  6
DASHED2
 62
  152
 10
133.21307495483097
 20
6.9233043327580504
 11
133.21307495483097
 21
13.023304332758073
  0
LINE
  8
_0-2_
  6
DASHED2
 62
  152
 10
141.71307495483097
 20
13.023304332758073
 11
141.71307495483097
 21
6.9233043327580504
  0
LINE
  8
_0-2_
  6
DASHED2
 62
  152
 10
145.21307495483097
 20
21.92330433275805
 11
145.21307495483097
 21
13.023304332758073
  0
LINE
  8
_0-2_
  6
DASHED2
 62
  152
 10
129.71307495483097
 20
13.023304332758073
 11
129.71307495483097
 21
21.92330433275805
  0
LINE
  8
_0-2_
  6
DASHED2
 62
  152
 10
189.70720821356031
 20
6.9233043327580504
 11
189.70720821356031
 21
13.023304332758073
  0
LINE
  8
_0-2_
  6
DASHED2
 62
  152
 10
186.20720821356031
 20
13.023304332758073
 11
186.20720821356031
 21
21.92330433275805
  0
LINE
  8
_0-2_
  6
DASHED2
 62
  152
 10
186.20720821356031
 20
13.023304332758073
 11
201.70720821356031
 21
13.023304332758073
  0
LINE
  8
_0-2_
  6
DASHED2
 62
  152
 10
201.70720821356031
 20
13.023304332758073
 11
201.70720821356031
 21
21.92330433275805
  0
LINE
  8
_0-2_
  6
DASHED2
 62
  152
 10
198.20720821356031
 20
13.023304332758073
 11
198.20720821356031
 21
6.9233043327580504
  0
LINE
  8
_0-2_
  6
DASHED2
 62
  152
 10
9.7130749548309723
 20
13.023304332758073
 11
25.213074954830972
 21
13.023304332758073
  0
LINE
  8
_0-0_
  6
DASHED2
 62
    7
 10
23.963074954830972
 20
20.023304332758073
 11
23.963074954830972
 21
13.023304332758073
  0
LINE
  8
_0-0_
  6
DASHED2
 62
    7
 10
23.150574954830972
 20
13.023304332758073
 11
23.150574954830972
 21
20.023304332758073
  0
LINE
  8
_0-0_
  6
DASHED2
 62
    7
 10
22.338074954830972
 20
20.023304332758073
 11
22.338074954830972
 21
13.023304332758073
  0
LINE
  8
_0-2_
  6
DASHED2
 62
  152
 10
21.713074954830972
 20
13.023304332758073
 11
21.713074954830972
 21
6.6233043327580958
  0
LINE
  8
_0-0_
  6
DASHED2
 62
    7
 10
21.463074954830972
 20
6.323295688149642
 11
21.463074954830972
 21
13.023304332758073
  0
LINE
  8
_0-0_
  6
DASHED2
 62
    7
 10
21.525574954830972
 20
13.023304332758073
 11
21.525574954830972
 21
20.023304332758073
  0
LINE
  8
_0-0_
  6
DASHED2
 62
    7
 10
20.713074954830972
 20
20.023304332758073
 11
20.713074954830972
 21
13.023304332758073
  0
LINE
  8
_0-0_
  6
DASHED2
 62
    7
 10
20.913075002514688
 20
13.023304332758073
 11
20.913075002514688
 21
6.323297577398364
  0
LINE
  8
_0-0_
  6
DASHED2
 62
    7
 10
14.013074907147256
 20
6.3233212788841797
 11
14.013074907147256
 21
13.023304332758073
  0
LINE
  8
_0-0_
  6
DASHED2
 62
    7
 10
13.463074954830972
 20
13.023304332758073
 11
13.463074954830972
 21
6.3233231681329016
  0
LINE
  8
_0-2_
  6
DASHED2
 62
  152
 10
13.213074954830972
 20
6.6233043327580958
 11
13.213074954830972
 21
13.023304332758073
  0
LINE
  8
_0-0_
  6
DASHED2
 62
    7
 10
10.963074954830972
 20
13.023304332758073
 11
10.963074954830972
 21
20.023304332758073
  0
LINE
  8
_0-0_
  6
DASHED2
 62
    7
 10
10.963074954830972
 20
20.023304332758073
 11
11.963074954830972
 21
21.023304332758073
  0
LINE
  8
_0-0_
  6
DASHED2
 62
    7
 10
11.963074954830972
 20
21.023304332758073
 11
22.963074954830972
 21
21.023304332758073
  0
LINE
  8
_0-0_
  6
DASHED2
 62
    7
 10
22.963074954830972
 20
21.023304332758073
 11
23.963074954830972
 21
20.023304332758073
  0
LINE
  8
_0-0_
  6
DASHED2
 62
    7
 10
23.963074954830972
 20
20.023304332758073
 11
10.963074954830972
 21
20.023304332758073
  0
LINE
  8
_0-0_
  6
DASHED2
 62
    7
 10
19.900574954830972
 20
13.023304332758073
 11
19.900574954830972
 21
20.023304332758073
  0
LINE
  8
_0-0_
  6
DASHED2
 62
    7
 10
19.088074954830972
 20
20.023304332758073
 11
19.088074954830972
 21
13.023304332758073
  0
LINE
  8
_0-0_
  6
DASHED2
 62
    7
 10
18.170181736017639
 20
12.31619755157152
 11
17.463074954830972
 21
13.023304332758073
  0
LINE
  8
_0-0_
  6
DASHED2
 62
    7
 10
17.463074954830972
 20
13.023304332758073
 11
16.755968173644305
 21
12.31619755157152
  0
LINE
  8
_0-2_
  6
DASHED2
 62
  152
 10
9.7130749548309723
 20
21.92330433275805
 11
9.7130749548309723
 21
13.023304332758073
  0
LINE
  8
_0-2_
  6
DASHED2
 62
  152
 10
25.213074954830972
 20
13.023304332758073
 11
25.213074954830972
 21
21.92330433275805
  0
TEXT
  8
_0-f_
 62
    7
 10
5.3356920873330864
 20
38.158210632133034
 40
4.2999999999999998
 41
0.744186046511628
 50
0
  1
HCA1,2
  0
ENDSEC
  0
EOF
