  0
SECTION
  2
HEADER
  9
$ACADVER
  1
AC1009
  9
$INSBASE
 10
0
 20
0
 30
0
  9
$EXTMIN
 10
0
 20
0
  9
$EXTMAX
 10
1189
 20
841
  9
$LIMMIN
 10
0
 20
0
  9
$LIMMAX
 10
1189
 20
841
  9
$LTSCALE
 40
1
  0
ENDSEC
  0
SECTION
  2
TABLES
  0
TABLE
  2
LTYPE
 70
     9
  0
LTYPE
  2
CONTINUOUS
 70
    64
  3
実線
 72
    65
 73
     0
 40
0.0
  0
LTYPE
  2
DASHED1
 70
    64
  3
--  --  --  --  --  --  --  --  
 72
    65
 73
     2
 40
2.5
 49
1.25
 49
-1.25
  0
LTYPE
  2
DASHED2
 70
    64
  3
----    ----    ----    ----    
 72
    65
 73
     2
 40
5.0
 49
2.5
 49
-2.5
  0
LTYPE
  2
DASHED3
 70
    64
  3
------  ------  ------  ------  
 72
    65
 73
     2
 40
5.0
 49
3.75
 49
-1.25
  0
LTYPE
  2
CENTER1
 70
    64
  3
----- - ----- - ----- - ----- - 
 72
    65
 73
     4
 40
10.0
 49
6.25
 49
-1.25
 49
1.25
 49
-1.25
  0
LTYPE
  2
CENTER2
 70
    64
  3
----------  --  ----------  --  
 72
    65
 73
     4
 40
20.0
 49
12.5
 49
-2.5
 49
2.5
 49
-2.5
  0
LTYPE
  2
PHANTOM1
 70
    64
  3
--- - - --- - - --- - - --- - - 
 72
    65
 73
     6
 40
10.0
 49
3.25
 49
-1.25
 49
1.25
 49
-1.25
 49
1.25
 49
-1.25
  0
LTYPE
  2
PHANTOM2
 70
    64
  3
--------  -  -  --------  -  -  
 72
    65
 73
     6
 40
20.0
 49
10.0
 49
-2.5
 49
1.25
 49
-2.5
 49
1.25
 49
-2.5
  0
LTYPE
  2
DOT
 70
    64
  3
-   -   -   -   -   -   -   -   
 72
    65
 73
     2
 40
2.5
 49
0.625
 49
-1.875
  0
LTYPE
  2
DUMMY
 70
    64
  3
ダミー
 72
    65
 73
     0
 40
0.0
  0
LTYPE
  2
RAND1
 70
    64
  3
ランダム線1
 72
    65
 73
     4
 40
10.0
 49
1.0
 49
-2.0
 49
3.0
 49
-4.0
  0
LTYPE
  2
RAND2
 70
    64
  3
ランダム線2
 72
    65
 73
     4
 40
14.0
 49
2.0
 49
-3.0
 49
4.0
 49
-5.0
  0
LTYPE
  2
RAND3
 70
    64
  3
ランダム線3
 72
    65
 73
     4
 40
18.0
 49
3.0
 49
-4.0
 49
5.0
 49
-6.0
  0
LTYPE
  2
RAND4
 70
    64
  3
ランダム線4
 72
    65
 73
     4
 40
22.0
 49
4.0
 49
-5.0
 49
6.0
 49
-7.0
  0
LTYPE
  2
RAND5
 70
    64
  3
ランダム線5
 72
    65
 73
     4
 40
26.0
 49
5.0
 49
-6.0
 49
7.0
 49
-8.0
  0
LTYPE
  2
LONG1
 70
    64
  3
----------  --  ----------  --  
 72
    65
 73
     4
 40
40.0
 49
32.5
 49
-2.5
 49
2.5
 49
-2.5
  0
LTYPE
  2
LONG2
 70
    64
  3
--------  -  -  --------  -  -  
 72
    65
 73
     6
 40
40.0
 49
30.0
 49
-2.5
 49
1.25
 49
-2.5
 49
1.25
 49
-2.5
  0
LTYPE
  2
LONG3
 70
    64
  3
+++++++++++++++..+++++++++++++++
 72
    65
 73
     2
 40
40.0
 49
37.5
 49
-2.5
  0
LTYPE
  2
LONG4
 70
    64
  3
+++++++++++++++..+++++++++++++++
 72
    65
 73
     2
 40
80.0
 49
75.0
 49
-5.0
  0
LTYPE
  2
LONG5
 70
    64
  3
----------  --  ----------  --  
 72
    65
 73
     4
 40
60.0
 49
37.5
 49
-7.5
 49
7.5
 49
-7.5
  0
LTYPE
  2
dashed
 70
   64
  3
-------   -------------   ------
 72
   65
 73
    2
 40
7.5
 49
6
 49
-1.5
  0
LTYPE
  2
dashed_spaced
 70
   64
  3
----        --------        ----
 72
   65
 73
    2
 40
12
 49
6
 49
-6
  0
LTYPE
  2
long_dashed_dotted
 70
   64
  3
------------- --- --------------
 72
   65
 73
    4
 40
15.25
 49
12
 49
-1.5
 49
0.25
 49
-1.5
  0
LTYPE
  2
long_dashed_double-dotted
 70
   64
  3
----------- --- --- ------------
 72
   65
 73
    6
 40
17
 49
12
 49
-1.5
 49
0.25
 49
-1.5
 49
0.25
 49
-1.5
  0
LTYPE
  2
long_dashed_triplicate-dotted
 70
   64
  3
--------- --- --- --- ----------
 72
   65
 73
    8
 40
18.75
 49
12
 49
-1.5
 49
0.25
 49
-1.5
 49
0.25
 49
-1.5
 49
0.25
 49
-1.5
  0
LTYPE
  2
dotted
 70
   64
  3
   -       -       -       -    
 72
   65
 73
    2
 40
1.75
 49
0.25
 49
-1.5
  0
LTYPE
  2
chain
 70
   64
  3
-------------- -- --------------
 72
   65
 73
    4
 40
18.5
 49
12
 49
-1.5
 49
3.5
 49
-1.5
  0
LTYPE
  2
chain_double_dash
 70
   64
  3
------------ -- -- -------------
 72
   65
 73
    6
 40
23.5
 49
12
 49
-1.5
 49
3.5
 49
-1.5
 49
3.5
 49
-1.5
  0
LTYPE
  2
dashed_dotted
 70
   64
  3
-----------     -     ----------
 72
   65
 73
    4
 40
9.25
 49
6
 49
-1.5
 49
0.25
 49
-1.5
  0
LTYPE
  2
double-dashed_dotted
 70
   64
  3
------   -----------   -   -----
 72
   65
 73
    6
 40
16.75
 49
6
 49
-1.5
 49
6
 49
-1.5
 49
0.25
 49
-1.5
  0
LTYPE
  2
dashed_double-dotted
 70
   64
  3
---------    -    -    ---------
 72
   65
 73
    6
 40
11
 49
6
 49
-1.5
 49
0.25
 49
-1.5
 49
0.25
 49
-1.5
  0
LTYPE
  2
double-dashed_double-dotted
 70
   64
  3
-----   ---------   -   -   ----
 72
   65
 73
    8
 40
18.5
 49
6
 49
-1.5
 49
6
 49
-1.5
 49
0.25
 49
-1.5
 49
0.25
 49
-1.5
  0
LTYPE
  2
dashed_triplicate-dotted
 70
   64
  3
-------    -    -    -    ------
 72
   65
 73
    8
 40
12.75
 49
6
 49
-1.5
 49
0.25
 49
-1.5
 49
0.25
 49
-1.5
 49
0.25
 49
-1.5
  0
LTYPE
  2
double-dashed_triplicate-dotted
 70
   64
  3
-----  ---------  -  -  -  -----
 72
   65
 73
   10
 40
20.25
 49
6
 49
-1.5
 49
6
 49
-1.5
 49
0.25
 49
-1.5
 49
0.25
 49
-1.5
 49
0.25
 49
-1.5
  0
LTYPE
  2
undefined
 70
   64
  3
--------------------------------
 72
   65
 73
    0
 40
0
  0
ENDTAB
  0
TABLE
  2
STYLE
  5
3
100
AcDbSymbolTable
 70
     1
  0
STYLE
  5
10
100
AcDbSymbolTableRecord
100
AcDbTextStyleTableRecord
  2
STANDARD
 70
     0
 40
0.0
 41
1.0
 50
0.0
 71
     0
 42
0.2
  3
txt
  4
bigfont.shx
  0
STYLE
  5
26
100
AcDbSymbolTableRecord
100
AcDbTextStyleTableRecord
  2
TATEGAKI
 70
    68
 40
0.0
 41
1.0
 50
0.0
 71
     0
 42
1.0
  3
txt
  4
bigfont.shx
  0
ENDTAB
  0
TABLE
  2
LAYER
 70
    3
  0
LAYER
  2
_0-0_
 70
   64
 62
    7
  6
CONTINUOUS
  0
LAYER
  2
_0-1_
 70
   64
 62
    7
  6
CONTINUOUS
  0
LAYER
  2
ADD_LINE
 70
   64
 62
    7
  6
CONTINUOUS
  0
ENDTAB
  0
ENDSEC
  0
SECTION
  2
BLOCKS
  0
ENDSEC
  0
SECTION
  2
ENTITIES
  0
LINE
  8
_0-0_
  6
CONTINUOUS
 62
    7
 10
155.16117978248542
 20
109.7123186162803
 11
14.86433661600779
 21
109.71231861628075
  0
LINE
  8
_0-0_
  6
CONTINUOUS
 62
    7
 10
17.854033123500017
 20
106.96074323881703
 11
152.17148327499046
 21
106.96074323881703
  0
LINE
  8
_0-0_
  6
CONTINUOUS
 62
    7
 10
152.17148327499046
 20
132.96074323881703
 11
17.854033123500017
 21
132.96074323881703
  0
LINE
  8
_0-0_
  6
CONTINUOUS
 62
    7
 10
14.86433661600779
 20
130.20916786135376
 11
155.16117978248406
 21
130.20916786135376
  0
POINT
  8
_0-0_
 62
    7
 10
85.012758199245241
 20
119.96074323881749
  0
LINE
  8
_0-0_
  6
CONTINUOUS
 62
    7
 10
133.39828230841897
 20
121.62849039032926
 11
133.47192103094915
 21
119.96074323881749
  0
LINE
  8
_0-0_
  6
CONTINUOUS
 62
    7
 10
133.24583917347184
 20
125.08495705824589
 11
133.39828230841897
 21
121.62849039032926
  0
LINE
  8
_0-0_
  6
CONTINUOUS
 62
    7
 10
133.09365017721814
 20
128.54142235452309
 11
133.24583917347184
 21
125.08495705824589
  0
LINE
  8
_0-0_
  6
CONTINUOUS
 62
    7
 10
133.0203164875835
 20
130.20916786135376
 11
133.09365017721814
 21
128.54142235452309
  0
LINE
  8
_0-0_
  6
CONTINUOUS
 62
    7
 10
133.09365017723223
 20
111.38006412343429
 11
133.0203164875835
 21
109.7123186162803
  0
LINE
  8
_0-0_
  6
CONTINUOUS
 62
    7
 10
133.24583917349867
 20
114.83652941999253
 11
133.09365017723223
 21
111.38006412343429
  0
LINE
  8
_0-0_
  6
CONTINUOUS
 62
    7
 10
133.39828230843443
 20
118.29299608765359
 11
133.24583917349867
 21
114.83652941999253
  0
LINE
  8
_0-0_
  6
CONTINUOUS
 62
    7
 10
133.47192103094915
 20
119.96074323881749
 11
133.39828230843443
 21
118.29299608765359
  0
LINE
  8
_0-0_
  6
CONTINUOUS
 62
    7
 10
131.4732570823486
 20
106.96081456170305
 11
131.4627379594009
 21
106.96074323881703
  0
LINE
  8
_0-0_
  6
CONTINUOUS
 62
    7
 10
131.49430382101002
 20
106.96138483669483
 11
131.4732570823486
 21
106.96081456170305
  0
LINE
  8
_0-0_
  6
CONTINUOUS
 62
    7
 10
131.51535691925449
 20
106.96252447333563
 11
131.49430382101002
 21
106.96138483669483
  0
LINE
  8
_0-0_
  6
CONTINUOUS
 62
    7
 10
131.52588470434387
 20
106.96330749901381
 11
131.51535691925449
 21
106.96252447333563
  0
LINE
  8
_0-0_
  6
CONTINUOUS
 62
    7
 10
131.53641270340825
 20
106.9642325014911
 11
131.52588470434387
 21
106.96330749901381
  0
LINE
  8
_0-0_
  6
CONTINUOUS
 62
    7
 10
131.55746752123116
 20
106.9665079531419
 11
131.53641270340825
 21
106.9642325014911
  0
LINE
  8
_0-0_
  6
CONTINUOUS
 62
    7
 10
131.5785177405711
 20
106.96934986146334
 11
131.55746752123116
 21
106.9665079531419
  0
LINE
  8
_0-0_
  6
CONTINUOUS
 62
    7
 10
131.59955974815387
 20
106.97275726000726
 11
131.5785177405711
 21
106.96934986146334
  0
LINE
  8
_0-0_
  6
CONTINUOUS
 62
    7
 10
131.62058994848951
 20
106.97672918199078
 11
131.59955974815387
 21
106.97275726000726
  0
LINE
  8
_0-0_
  6
CONTINUOUS
 62
    7
 10
131.64160476288419
 20
106.98126465968789
 11
131.62058994848951
 21
106.97672918199078
  0
LINE
  8
_0-0_
  6
CONTINUOUS
 62
    7
 10
131.65210528638465
 20
106.98374342913121
 11
131.64160476288419
 21
106.98126465968789
  0
LINE
  8
_0-0_
  6
CONTINUOUS
 62
    7
 10
131.66260062855292
 20
106.98636272393014
 11
131.65210528638465
 21
106.98374342913121
  0
LINE
  8
_0-0_
  6
CONTINUOUS
 62
    7
 10
131.68357399780928
 20
106.99202240372279
 11
131.66260062855292
 21
106.98636272393014
  0
LINE
  8
_0-0_
  6
CONTINUOUS
 62
    7
 10
131.70452133732908
 20
106.99824272597243
 11
131.68357399780928
 21
106.99202240372279
  0
LINE
  8
_0-0_
  6
CONTINUOUS
 62
    7
 10
131.72543912747562
 20
107.00502271532878
 11
131.70452133732908
 21
106.99824272597243
  0
LINE
  8
_0-0_
  6
CONTINUOUS
 62
    7
 10
131.74632386167343
 20
107.01236139414004
 11
131.72543912747562
 21
107.00502271532878
  0
LINE
  8
_0-0_
  6
CONTINUOUS
 62
    7
 10
131.7671720458244
 20
107.02025778252437
 11
131.74632386167343
 21
107.01236139414004
  0
LINE
  8
_0-0_
  6
CONTINUOUS
 62
    7
 10
131.77758134300177
 20
107.02441481102642
 11
131.7671720458244
 21
107.02025778252437
  0
LINE
  8
_0-0_
  6
CONTINUOUS
 62
    7
 10
131.7879801977557
 20
107.02871089855216
 11
131.77758134300177
 21
107.02441481102642
  0
LINE
  8
_0-0_
  6
CONTINUOUS
 62
    7
 10
131.80874484668914
 20
107.03771975853533
 11
131.7879801977557
 21
107.02871089855216
  0
LINE
  8
_0-0_
  6
CONTINUOUS
 62
    7
 10
131.82946253272178
 20
107.04728337743472
 11
131.80874484668914
 21
107.03771975853533
  0
LINE
  8
_0-0_
  6
CONTINUOUS
 62
    7
 10
131.83980268627931
 20
107.05227291340498
 11
131.82946253272178
 21
107.04728337743472
  0
LINE
  8
_0-0_
  6
CONTINUOUS
 62
    7
 10
131.85012980631711
 20
107.05740076936172
 11
131.83980268627931
 21
107.05227291340498
  0
LINE
  8
_0-0_
  6
CONTINUOUS
 62
    7
 10
131.87074322778756
 20
107.06807094818805
 11
131.85012980631711
 21
107.05740076936172
  0
LINE
  8
_0-0_
  6
CONTINUOUS
 62
    7
 10
131.89129936677057
 20
107.07929292824929
 11
131.87074322778756
 21
107.06807094818805
  0
LINE
  8
_0-0_
  6
CONTINUOUS
 62
    7
 10
131.90155488575658
 20
107.08511053604389
 11
131.89129936677057
 21
107.07929292824929
  0
LINE
  8
_0-0_
  6
CONTINUOUS
 62
    7
 10
131.91179480168159
 20
107.09106572514247
 11
131.90155488575658
 21
107.08511053604389
  0
LINE
  8
_0-0_
  6
CONTINUOUS
 62
    7
 10
131.93222611914746
 20
107.10338835660741
 11
131.91179480168159
 21
107.09106572514247
  0
LINE
  8
_0-0_
  6
CONTINUOUS
 62
    7
 10
131.95258991340199
 20
107.11625984349303
 11
131.93222611914746
 21
107.10338835660741
  0
LINE
  8
_0-0_
  6
CONTINUOUS
 62
    7
 10
131.97288278564213
 20
107.12967921079098
 11
131.95258991340199
 21
107.11625984349303
  0
LINE
  8
_0-0_
  6
CONTINUOUS
 62
    7
 10
131.99310134334439
 20
107.1436454887421
 11
131.97288278564213
 21
107.12967921079098
  0
LINE
  8
_0-0_
  6
CONTINUOUS
 62
    7
 10
132.01323617322544
 20
107.1581532814721
 11
131.99310134334439
 21
107.1436454887421
  0
LINE
  8
_0-0_
  6
CONTINUOUS
 62
    7
 10
132.02326469551747
 20
107.16560494451687
 11
132.01323617322544
 21
107.1581532814721
  0
LINE
  8
_0-0_
  6
CONTINUOUS
 62
    7
 10
132.03326639825457
 20
107.17318769027906
 11
132.02326469551747
 21
107.16560494451687
  0
LINE
  8
_0-0_
  6
CONTINUOUS
 62
    7
 10
132.05318781944345
 20
107.18874495411865
 11
132.03326639825457
 21
107.17318769027906
  0
LINE
  8
_0-0_
  6
CONTINUOUS
 62
    7
 10
132.07299739070925
 20
107.20482212362731
 11
132.05318781944345
 21
107.18874495411865
  0
LINE
  8
_0-0_
  6
CONTINUOUS
 62
    7
 10
132.09269207401314
 20
107.22141625235872
 11
132.07299739070925
 21
107.20482212362731
  0
LINE
  8
_0-0_
  6
CONTINUOUS
 62
    7
 10
132.11226883911979
 20
107.23852439577922
 11
132.09269207401314
 21
107.22141625235872
  0
LINE
  8
_0-0_
  6
CONTINUOUS
 62
    7
 10
132.13172466339813
 20
107.25614361038015
 11
132.11226883911979
 21
107.23852439577922
  0
LINE
  8
_0-0_
  6
CONTINUOUS
 62
    7
 10
132.14140628018879
 20
107.26514394961987
 11
132.13172466339813
 21
107.25614361038015
  0
LINE
  8
_0-0_
  6
CONTINUOUS
 62
    7
 10
132.15105653164176
 20
107.27427095292887
 11
132.14140628018879
 21
107.26514394961987
  0
LINE
  8
_0-0_
  6
CONTINUOUS
 62
    7
 10
132.17026143592068
 20
107.29290347984352
 11
132.15105653164176
 21
107.27427095292887
  0
LINE
  8
_0-0_
  6
CONTINUOUS
 62
    7
 10
132.18933637544808
 20
107.31203824668955
 11
132.17026143592068
 21
107.29290347984352
  0
LINE
  8
_0-0_
  6
CONTINUOUS
 62
    7
 10
132.20827835645207
 20
107.33167230780509
 11
132.18933637544808
 21
107.31203824668955
  0
LINE
  8
_0-0_
  6
CONTINUOUS
 62
    7
 10
132.22708439205519
 20
107.35180271603986
 11
132.20827835645207
 21
107.33167230780509
  0
LINE
  8
_0-0_
  6
CONTINUOUS
 62
    7
 10
132.24575150214616
 20
107.37242652261102
 11
132.22708439205519
 21
107.35180271603986
  0
LINE
  8
_0-0_
  6
CONTINUOUS
 62
    7
 10
132.25503203065693
 20
107.38292252832207
 11
132.24575150214616
 21
107.37242652261102
  0
LINE
  8
_0-0_
  6
CONTINUOUS
 62
    7
 10
132.26427671324302
 20
107.39354077707139
 11
132.25503203065693
 21
107.38292252832207
  0
LINE
  8
_0-0_
  6
CONTINUOUS
 62
    7
 10
132.28265705833894
 20
107.41514252738443
 11
132.26427671324302
 21
107.39354077707139
  0
LINE
  8
_0-0_
  6
CONTINUOUS
 62
    7
 10
132.30088957672854
 20
107.43722882009388
 11
132.28265705833894
 21
107.41514252738443
  0
LINE
  8
_0-0_
  6
CONTINUOUS
 62
    7
 10
132.31897131380185
 20
107.45979670059478
 11
132.30088957672854
 21
107.43722882009388
  0
LINE
  8
_0-0_
  6
CONTINUOUS
 62
    7
 10
132.33689932080881
 20
107.48284321348865
 11
132.31897131380185
 21
107.45979670059478
  0
LINE
  8
_0-0_
  6
CONTINUOUS
 62
    7
 10
132.35467065458272
 20
107.50636540302412
 11
132.33689932080881
 21
107.48284321348865
  0
LINE
  8
_0-0_
  6
CONTINUOUS
 62
    7
 10
132.36349665071668
 20
107.51830395288607
 11
132.35467065458272
 21
107.50636540302412
  0
LINE
  8
_0-0_
  6
CONTINUOUS
 62
    7
 10
132.3722823772215
 20
107.5303603136008
 11
132.36349665071668
 21
107.51830395288607
  0
LINE
  8
_0-0_
  6
CONTINUOUS
 62
    7
 10
132.38973155571659
 20
107.55482499035224
 11
132.3722823772215
 21
107.5303603136008
  0
LINE
  8
_0-0_
  6
CONTINUOUS
 62
    7
 10
132.40701526153828
 20
107.57975647977355
 11
132.38973155571659
 21
107.55482499035224
  0
LINE
  8
_0-0_
  6
CONTINUOUS
 62
    7
 10
132.42413057014903
 20
107.60515183040616
 11
132.40701526153828
 21
107.57975647977355
  0
LINE
  8
_0-0_
  6
CONTINUOUS
 62
    7
 10
132.44107456047016
 20
107.63100809355001
 11
132.42413057014903
 21
107.60515183040616
  0
LINE
  8
_0-0_
  6
CONTINUOUS
 62
    7
 10
132.45784431427057
 20
107.65732232402024
 11
132.44107456047016
 21
107.63100809355001
  0
LINE
  8
_0-0_
  6
CONTINUOUS
 62
    7
 10
132.46616294114494
 20
107.67065025777856
 11
132.45784431427057
 21
107.65732232402024
  0
LINE
  8
_0-0_
  6
CONTINUOUS
 62
    7
 10
132.47443691549881
 20
107.68409158090162
 11
132.46616294114494
 21
107.67065025777856
  0
LINE
  8
_0-0_
  6
CONTINUOUS
 62
    7
 10
132.49084053064701
 20
107.71129793037653
 11
132.47443691549881
 21
107.68409158090162
  0
LINE
  8
_0-0_
  6
CONTINUOUS
 62
    7
 10
132.50704046335761
 20
107.7389168210434
 11
132.49084053064701
 21
107.71129793037653
  0
LINE
  8
_0-0_
  6
CONTINUOUS
 62
    7
 10
132.51506334355793
 20
107.75287947780407
 11
132.50704046335761
 21
107.7389168210434
  0
LINE
  8
_0-0_
  6
CONTINUOUS
 62
    7
 10
132.52303447226416
 20
107.76694350507523
 11
132.51506334355793
 21
107.75287947780407
  0
LINE
  8
_0-0_
  6
CONTINUOUS
 62
    7
 10
132.5388203944691
 20
107.7953733612726
 11
132.52303447226416
 21
107.76694350507523
  0
LINE
  8
_0-0_
  6
CONTINUOUS
 62
    7
 10
132.55439607102346
 20
107.8242017717198
 11
132.5388203944691
 21
107.7953733612726
  0
LINE
  8
_0-0_
  6
CONTINUOUS
 62
    7
 10
132.56210439362951
 20
107.83876399232804
 11
132.55439607102346
 21
107.8242017717198
  0
LINE
  8
_0-0_
  6
CONTINUOUS
 62
    7
 10
132.56975934708782
 20
107.85342412074669
 11
132.56210439362951
 21
107.83876399232804
  0
LINE
  8
_0-0_
  6
CONTINUOUS
 62
    7
 10
132.58490807210103
 20
107.88303579402327
 11
132.56975934708782
 21
107.85342412074669
  0
LINE
  8
_0-0_
  6
CONTINUOUS
 62
    7
 10
132.5998400999498
 20
107.91303217779614
 11
132.58490807210103
 21
107.88303579402327
  0
LINE
  8
_0-0_
  6
CONTINUOUS
 62
    7
 10
132.61455328913291
 20
107.94340865825279
 11
132.5998400999498
 21
107.91303217779614
  0
LINE
  8
_0-0_
  6
CONTINUOUS
 62
    7
 10
132.62904550291125
 20
107.9741606210132
 11
132.61455328913291
 21
107.94340865825279
  0
LINE
  8
_0-0_
  6
CONTINUOUS
 62
    7
 10
132.64331460944334
 20
108.00528345074235
 11
132.62904550291125
 21
107.9741606210132
  0
LINE
  8
_0-0_
  6
CONTINUOUS
 62
    7
 10
132.65036483265851
 20
108.02098249809524
 11
132.64331460944334
 21
108.00528345074235
  0
LINE
  8
_0-0_
  6
CONTINUOUS
 62
    7
 10
132.65735848189536
 20
108.03677253086971
 11
132.65036483265851
 21
108.02098249809524
  0
LINE
  8
_0-0_
  6
CONTINUOUS
 62
    7
 10
132.67117499852304
 20
108.06862324342364
 11
132.65735848189536
 21
108.03677253086971
  0
LINE
  8
_0-0_
  6
CONTINUOUS
 62
    7
 10
132.68476204272531
 20
108.10083096895369
 11
132.67117499852304
 21
108.06862324342364
  0
LINE
  8
_0-0_
  6
CONTINUOUS
 62
    7
 10
132.69811750305337
 20
108.13339108655236
 11
132.68476204272531
 21
108.10083096895369
  0
LINE
  8
_0-0_
  6
CONTINUOUS
 62
    7
 10
132.7112392731857
 20
108.16629897395615
 11
132.69811750305337
 21
108.13339108655236
  0
LINE
  8
_0-0_
  6
CONTINUOUS
 62
    7
 10
132.72412525185121
 20
108.19955000771506
 11
132.7112392731857
 21
108.16629897395615
  0
LINE
  8
_0-0_
  6
CONTINUOUS
 62
    7
 10
132.73047916408825
 20
108.21630275938469
 11
132.72412525185121
 21
108.19955000771506
  0
LINE
  8
_0-0_
  6
CONTINUOUS
 62
    7
 10
132.73677334270553
 20
108.23313956343645
 11
132.73047916408825
 21
108.21630275938469
  0
LINE
  8
_0-0_
  6
CONTINUOUS
 62
    7
 10
132.74918145415552
 20
108.26706301607555
 11
132.73677334270553
 21
108.23313956343645
  0
LINE
  8
_0-0_
  6
CONTINUOUS
 62
    7
 10
132.76134749912228
 20
108.30131574027291
 11
132.74918145415552
 21
108.26706301607555
  0
LINE
  8
_0-0_
  6
CONTINUOUS
 62
    7
 10
132.77326939475154
 20
108.33589311073092
 11
132.76134749912228
 21
108.30131574027291
  0
LINE
  8
_0-0_
  6
CONTINUOUS
 62
    7
 10
132.78494506205618
 20
108.37079050261127
 11
132.77326939475154
 21
108.33589311073092
  0
LINE
  8
_0-0_
  6
CONTINUOUS
 62
    7
 10
132.79637242549882
 20
108.40600329194513
 11
132.78494506205618
 21
108.37079050261127
  0
LINE
  8
_0-0_
  6
CONTINUOUS
 62
    7
 10
132.80199234549093
 20
108.42372651600681
 11
132.79637242549882
 21
108.40600329194513
  0
LINE
  8
_0-0_
  6
CONTINUOUS
 62
    7
 10
132.80754941250427
 20
108.44152685604877
 11
132.80199234549093
 21
108.42372651600681
  0
LINE
  8
_0-0_
  6
CONTINUOUS
 62
    7
 10
132.81847395290572
 20
108.47735657393059
 11
132.80754941250427
 21
108.44152685604877
  0
LINE
  8
_0-0_
  6
CONTINUOUS
 62
    7
 10
132.82914397832258
 20
108.51348782667674
 11
132.81847395290572
 21
108.47735657393059
  0
LINE
  8
_0-0_
  6
CONTINUOUS
 62
    7
 10
132.83955742146293
 20
108.54991599780215
 11
132.82914397832258
 21
108.51348782667674
  0
LINE
  8
_0-0_
  6
CONTINUOUS
 62
    7
 10
132.84971221536136
 20
108.58663647356298
 11
132.83955742146293
 21
108.54991599780215
  0
LINE
  8
_0-0_
  6
CONTINUOUS
 62
    7
 10
132.85960293567325
 20
108.62363186967104
 11
132.84971221536136
 21
108.58663647356298
  0
LINE
  8
_0-0_
  6
CONTINUOUS
 62
    7
 10
132.86444530886376
 20
108.64221797666551
 11
132.85960293567325
 21
108.62363186967104
  0
LINE
  8
_0-0_
  6
CONTINUOUS
 62
    7
 10
132.86921867098056
 20
108.66086137540015
 11
132.86444530886376
 21
108.64221797666551
  0
LINE
  8
_0-0_
  6
CONTINUOUS
 62
    7
 10
132.87855787397586
 20
108.69831720611091
 11
132.86921867098056
 21
108.66086137540015
  0
LINE
  8
_0-0_
  6
CONTINUOUS
 62
    7
 10
132.88761956954397
 20
108.73599367964334
 11
132.87855787397586
 21
108.69831720611091
  0
LINE
  8
_0-0_
  6
CONTINUOUS
 62
    7
 10
132.89640278437003
 20
108.77388511608342
 11
132.88761956954397
 21
108.73599367964334
  0
LINE
  8
_0-0_
  6
CONTINUOUS
 62
    7
 10
132.90490654739244
 20
108.81198583697278
 11
132.89640278437003
 21
108.77388511608342
  0
LINE
  8
_0-0_
  6
CONTINUOUS
 62
    7
 10
132.91312989023538
 20
108.85029016464341
 11
132.90490654739244
 21
108.81198583697278
  0
LINE
  8
_0-0_
  6
CONTINUOUS
 62
    7
 10
132.91713610230511
 20
108.86951690683327
 11
132.91312989023538
 21
108.85029016464341
  0
LINE
  8
_0-0_
  6
CONTINUOUS
 62
    7
 10
132.92107184760619
 20
108.88879242168559
 11
132.91713610230511
 21
108.86951690683327
  0
LINE
  8
_0-0_
  6
CONTINUOUS
 62
    7
 10
132.92873145766237
 20
108.92748693052226
 11
132.92107184760619
 21
108.88879242168559
  0
LINE
  8
_0-0_
  6
CONTINUOUS
 62
    7
 10
132.93610776234448
 20
108.96636801309842
 11
132.92873145766237
 21
108.92748693052226
  0
LINE
  8
_0-0_
  6
CONTINUOUS
 62
    7
 10
132.9396893768818
 20
108.98587674496002
 11
132.93610776234448
 21
108.96636801309842
  0
LINE
  8
_0-0_
  6
CONTINUOUS
 62
    7
 10
132.94319980766033
 20
109.00542999066283
 11
132.9396893768818
 21
108.98587674496002
  0
LINE
  8
_0-0_
  6
CONTINUOUS
 62
    7
 10
132.9500066439324
 20
109.04466718363938
 11
132.94319980766033
 21
109.00542999066283
  0
LINE
  8
_0-0_
  6
CONTINUOUS
 62
    7
 10
132.95652732598512
 20
109.08407391157789
 11
132.9500066439324
 21
109.04466718363938
  0
LINE
  8
_0-0_
  6
CONTINUOUS
 62
    7
 10
132.95968006508213
 20
109.10383907577943
 11
132.95652732598512
 21
109.08407391157789
  0
LINE
  8
_0-0_
  6
CONTINUOUS
 62
    7
 10
132.96276091329639
 20
109.12364449316738
 11
132.95968006508213
 21
109.10383907577943
  0
LINE
  8
_0-0_
  6
CONTINUOUS
 62
    7
 10
132.96870647008029
 20
109.16337324631695
 11
132.96276091329639
 21
109.12364449316738
  0
LINE
  8
_0-0_
  6
CONTINUOUS
 62
    7
 10
132.97436306532074
 20
109.20325448827089
 11
132.96870647008029
 21
109.16337324631695
  0
LINE
  8
_0-0_
  6
CONTINUOUS
 62
    7
 10
132.97972977274924
 20
109.24328253577005
 11
132.97436306532074
 21
109.20325448827089
  0
LINE
  8
_0-0_
  6
CONTINUOUS
 62
    7
 10
132.98480567075615
 20
109.28345170523335
 11
132.97972977274924
 21
109.24328253577005
  0
LINE
  8
_0-0_
  6
CONTINUOUS
 62
    7
 10
132.98958984224294
 20
109.32375631295599
 11
132.98480567075615
 21
109.28345170523335
  0
LINE
  8
_0-0_
  6
CONTINUOUS
 62
    7
 10
132.99187224513173
 20
109.34395763002158
 11
132.98958984224294
 21
109.32375631295599
  0
LINE
  8
_0-0_
  6
CONTINUOUS
 62
    7
 10
132.99408137441571
 20
109.36419067530733
 11
132.99187224513173
 21
109.34395763002158
  0
LINE
  8
_0-0_
  6
CONTINUOUS
 62
    7
 10
132.99827935851056
 20
109.40474910892408
 11
132.99408137441571
 21
109.36419067530733
  0
LINE
  8
_0-0_
  6
CONTINUOUS
 62
    7
 10
133.00218288945837
 20
109.4454259308809
 11
132.99827935851056
 21
109.40474910892408
  0
LINE
  8
_0-0_
  6
CONTINUOUS
 62
    7
 10
133.00579106548514
 20
109.48621545882907
 11
133.00218288945837
 21
109.4454259308809
  0
LINE
  8
_0-0_
  6
CONTINUOUS
 62
    7
 10
133.00910298764995
 20
109.52711201109605
 11
133.00579106548514
 21
109.48621545882907
  0
LINE
  8
_0-0_
  6
CONTINUOUS
 62
    7
 10
133.012117759322
 20
109.56810990672193
 11
133.00910298764995
 21
109.52711201109605
  0
LINE
  8
_0-0_
  6
CONTINUOUS
 62
    7
 10
133.01351343401404
 20
109.5886450831872
 11
133.012117759322
 21
109.56810990672193
  0
LINE
  8
_0-0_
  6
CONTINUOUS
 62
    7
 10
133.01483448559122
 20
109.60920346544162
 11
133.01351343401404
 21
109.5886450831872
  0
LINE
  8
_0-0_
  6
CONTINUOUS
 62
    7
 10
133.01725227262534
 20
109.65038700757486
 11
133.01483448559122
 21
109.60920346544162
  0
LINE
  8
_0-0_
  6
CONTINUOUS
 62
    7
 10
133.0193702269645
 20
109.69165485383883
 11
133.01725227262534
 21
109.65038700757486
  0
LINE
  8
_0-0_
  6
CONTINUOUS
 62
    7
 10
133.0203164875835
 20
109.7123186162803
 11
133.0193702269645
 21
109.69165485383883
  0
LINE
  8
_0-0_
  6
CONTINUOUS
 62
    7
 10
133.0193702269645
 20
130.22983162380297
 11
133.02031648758395
 21
130.20916786135376
  0
LINE
  8
_0-0_
  6
CONTINUOUS
 62
    7
 10
133.01725227262398
 20
130.27109947008103
 11
133.0193702269645
 21
130.22983162380297
  0
LINE
  8
_0-0_
  6
CONTINUOUS
 62
    7
 10
133.01483448558895
 20
130.31228301222882
 11
133.01725227262398
 21
130.27109947008103
  0
LINE
  8
_0-0_
  6
CONTINUOUS
 62
    7
 10
133.01351343401086
 20
130.33284139449006
 11
133.01483448558895
 21
130.31228301222882
  0
LINE
  8
_0-0_
  6
CONTINUOUS
 62
    7
 10
133.01211775931836
 20
130.35337657096261
 11
133.01351343401086
 21
130.33284139449006
  0
LINE
  8
_0-0_
  6
CONTINUOUS
 62
    7
 10
133.00910298764541
 20
130.39437446660304
 11
133.01211775931836
 21
130.35337657096261
  0
LINE
  8
_0-0_
  6
CONTINUOUS
 62
    7
 10
133.00579106547832
 20
130.43527101888321
 11
133.00910298764541
 21
130.39437446660304
  0
LINE
  8
_0-0_
  6
CONTINUOUS
 62
    7
 10
133.00218288944973
 20
130.47606054684547
 11
133.00579106547832
 21
130.43527101888321
  0
LINE
  8
_0-0_
  6
CONTINUOUS
 62
    7
 10
132.9982793585001
 20
130.51673736881594
 11
133.00218288944973
 21
130.47606054684547
  0
LINE
  8
_0-0_
  6
CONTINUOUS
 62
    7
 10
132.99408137440298
 20
130.55729580244679
 11
132.9982793585001
 21
130.51673736881594
  0
LINE
  8
_0-0_
  6
CONTINUOUS
 62
    7
 10
132.99187224511809
 20
130.57752884773936
 11
132.99408137440298
 21
130.55729580244679
  0
LINE
  8
_0-0_
  6
CONTINUOUS
 62
    7
 10
132.98958984222702
 20
130.59773016481176
 11
132.99187224511809
 21
130.57752884773936
  0
LINE
  8
_0-0_
  6
CONTINUOUS
 62
    7
 10
132.9848056707375
 20
130.63803477254805
 11
132.98958984222702
 21
130.59773016481176
  0
LINE
  8
_0-0_
  6
CONTINUOUS
 62
    7
 10
132.97972977272832
 20
130.67820394202499
 11
132.9848056707375
 21
130.63803477254805
  0
LINE
  8
_0-0_
  6
CONTINUOUS
 62
    7
 10
132.9743630652971
 20
130.71823198953734
 11
132.97972977272832
 21
130.67820394202499
  0
LINE
  8
_0-0_
  6
CONTINUOUS
 62
    7
 10
132.96870647005301
 20
130.75811323150401
 11
132.9743630652971
 21
130.71823198953734
  0
LINE
  8
_0-0_
  6
CONTINUOUS
 62
    7
 10
132.96276091326592
 20
130.79784198466632
 11
132.96870647005301
 21
130.75811323150401
  0
LINE
  8
_0-0_
  6
CONTINUOUS
 62
    7
 10
132.95968006504984
 20
130.81764740206108
 11
132.96276091326592
 21
130.79784198466632
  0
LINE
  8
_0-0_
  6
CONTINUOUS
 62
    7
 10
132.95652732595101
 20
130.8374125662699
 11
132.95968006504984
 21
130.81764740206108
  0
LINE
  8
_0-0_
  6
CONTINUOUS
 62
    7
 10
132.9500066438942
 20
130.8768192942207
 11
132.95652732595101
 21
130.8374125662699
  0
LINE
  8
_0-0_
  6
CONTINUOUS
 62
    7
 10
132.94319980761804
 20
130.91605648720997
 11
132.9500066438942
 21
130.8768192942207
  0
LINE
  8
_0-0_
  6
CONTINUOUS
 62
    7
 10
132.93968937683769
 20
130.93560973291869
 11
132.94319980761804
 21
130.91605648720997
  0
LINE
  8
_0-0_
  6
CONTINUOUS
 62
    7
 10
132.93610776229764
 20
130.95511846478666
 11
132.93968937683769
 21
130.93560973291869
  0
LINE
  8
_0-0_
  6
CONTINUOUS
 62
    7
 10
132.92873145761143
 20
130.9939995473751
 11
132.93610776229764
 21
130.95511846478666
  0
LINE
  8
_0-0_
  6
CONTINUOUS
 62
    7
 10
132.92107184755071
 20
131.03269405622405
 11
132.92873145761143
 21
130.9939995473751
  0
LINE
  8
_0-0_
  6
CONTINUOUS
 62
    7
 10
132.9171361022469
 20
131.05196957108183
 11
132.92107184755071
 21
131.03269405622405
  0
LINE
  8
_0-0_
  6
CONTINUOUS
 62
    7
 10
132.91312989017536
 20
131.07119631327851
 11
132.9171361022469
 21
131.05196957108183
  0
LINE
  8
_0-0_
  6
CONTINUOUS
 62
    7
 10
132.90490654732696
 20
131.1095006409605
 11
132.91312989017536
 21
131.07119631327851
  0
LINE
  8
_0-0_
  6
CONTINUOUS
 62
    7
 10
132.89640278429908
 20
131.14760136186169
 11
132.90490654732696
 21
131.1095006409605
  0
LINE
  8
_0-0_
  6
CONTINUOUS
 62
    7
 10
132.88761956946757
 20
131.18549279831268
 11
132.89640278429908
 21
131.14760136186169
  0
LINE
  8
_0-0_
  6
CONTINUOUS
 62
    7
 10
132.87855787389447
 20
131.22316927185648
 11
132.88761956946757
 21
131.18549279831268
  0
LINE
  8
_0-0_
  6
CONTINUOUS
 62
    7
 10
132.86921867089325
 20
131.26062510257816
 11
132.87855787389447
 21
131.22316927185648
  0
LINE
  8
_0-0_
  6
CONTINUOUS
 62
    7
 10
132.86444530877327
 20
131.27926850131871
 11
132.86921867089325
 21
131.26062510257816
  0
LINE
  8
_0-0_
  6
CONTINUOUS
 62
    7
 10
132.85960293558003
 20
131.29785460831818
 11
132.86444530877327
 21
131.27926850131871
  0
LINE
  8
_0-0_
  6
CONTINUOUS
 62
    7
 10
132.84971221526177
 20
131.33485000443716
 11
132.85960293558003
 21
131.29785460831818
  0
LINE
  8
_0-0_
  6
CONTINUOUS
 62
    7
 10
132.83955742135743
 20
131.37157048020799
 11
132.84971221526177
 21
131.33485000443716
  0
LINE
  8
_0-0_
  6
CONTINUOUS
 62
    7
 10
132.82914397821071
 20
131.4079986513425
 11
132.83955742135743
 21
131.37157048020799
  0
LINE
  8
_0-0_
  6
CONTINUOUS
 62
    7
 10
132.81847395278749
 20
131.44412990409819
 11
132.82914397821071
 21
131.4079986513425
  0
LINE
  8
_0-0_
  6
CONTINUOUS
 62
    7
 10
132.80754941237967
 20
131.47995962198911
 11
132.81847395278749
 21
131.44412990409819
  0
LINE
  8
_0-0_
  6
CONTINUOUS
 62
    7
 10
132.80199234536269
 20
131.49775996203516
 11
132.80754941237967
 21
131.47995962198911
  0
LINE
  8
_0-0_
  6
CONTINUOUS
 62
    7
 10
132.79637242536694
 20
131.51548318610185
 11
132.80199234536269
 21
131.49775996203516
  0
LINE
  8
_0-0_
  6
CONTINUOUS
 62
    7
 10
132.78494506191794
 20
131.55069597544389
 11
132.79637242536694
 21
131.51548318610185
  0
LINE
  8
_0-0_
  6
CONTINUOUS
 62
    7
 10
132.77326939460556
 20
131.58559336733197
 11
132.78494506191794
 21
131.55069597544389
  0
LINE
  8
_0-0_
  6
CONTINUOUS
 62
    7
 10
132.76134749896949
 20
131.62017073779862
 11
132.77326939460556
 21
131.58559336733197
  0
LINE
  8
_0-0_
  6
CONTINUOUS
 62
    7
 10
132.74918145399499
 20
131.65442346200371
 11
132.76134749896949
 21
131.62017073779862
  0
LINE
  8
_0-0_
  6
CONTINUOUS
 62
    7
 10
132.73677334253773
 20
131.68834691464963
 11
132.74918145399499
 21
131.65442346200371
  0
LINE
  8
_0-0_
  6
CONTINUOUS
 62
    7
 10
132.73047916391636
 20
131.70518371870594
 11
132.73677334253773
 21
131.68834691464963
  0
LINE
  8
_0-0_
  6
CONTINUOUS
 62
    7
 10
132.72412525167567
 20
131.72193647037875
 11
132.73047916391636
 21
131.70518371870594
  0
LINE
  8
_0-0_
  6
CONTINUOUS
 62
    7
 10
132.71123927300198
 20
131.75518750414449
 11
132.72412525167567
 21
131.72193647037875
  0
LINE
  8
_0-0_
  6
CONTINUOUS
 62
    7
 10
132.69811750286237
 20
131.78809539155463
 11
132.71123927300198
 21
131.75518750414449
  0
LINE
  8
_0-0_
  6
CONTINUOUS
 62
    7
 10
132.68476204252613
 20
131.82065550916013
 11
132.69811750286237
 21
131.78809539155463
  0
LINE
  8
_0-0_
  6
CONTINUOUS
 62
    7
 10
132.67117499831568
 20
131.85286323469563
 11
132.68476204252613
 21
131.82065550916013
  0
LINE
  8
_0-0_
  6
CONTINUOUS
 62
    7
 10
132.65735848167935
 20
131.88471394725502
 11
132.67117499831568
 21
131.85286323469563
  0
LINE
  8
_0-0_
  6
CONTINUOUS
 62
    7
 10
132.65036483243887
 20
131.90050398003268
 11
132.65735848167935
 21
131.88471394725502
  0
LINE
  8
_0-0_
  6
CONTINUOUS
 62
    7
 10
132.6433146092196
 20
131.91620302738784
 11
132.65036483243887
 21
131.90050398003268
  0
LINE
  8
_0-0_
  6
CONTINUOUS
 62
    7
 10
132.62904550267842
 20
131.94732585712154
 11
132.6433146092196
 21
131.91620302738784
  0
LINE
  8
_0-0_
  6
CONTINUOUS
 62
    7
 10
132.61455328889144
 20
131.97807781988695
 11
132.62904550267842
 21
131.94732585712154
  0
LINE
  8
_0-0_
  6
CONTINUOUS
 62
    7
 10
132.59984009969969
 20
132.00845430034724
 11
132.61455328889144
 21
131.97807781988695
  0
LINE
  8
_0-0_
  6
CONTINUOUS
 62
    7
 10
132.58490807184182
 20
132.0384506841242
 11
132.59984009969969
 21
132.00845430034724
  0
LINE
  8
_0-0_
  6
CONTINUOUS
 62
    7
 10
132.56975934682043
 20
132.06806235740441
 11
132.58490807184182
 21
132.0384506841242
  0
LINE
  8
_0-0_
  6
CONTINUOUS
 62
    7
 10
132.56210439335712
 20
132.08272248582443
 11
132.56975934682043
 21
132.06806235740441
  0
LINE
  8
_0-0_
  6
CONTINUOUS
 62
    7
 10
132.55439607074652
 20
132.09728470643449
 11
132.56210439335712
 21
132.08272248582443
  0
LINE
  8
_0-0_
  6
CONTINUOUS
 62
    7
 10
132.53882039418261
 20
132.12611311688488
 11
132.55439607074652
 21
132.09728470643449
  0
LINE
  8
_0-0_
  6
CONTINUOUS
 62
    7
 10
132.52303447196812
 20
132.15454297308406
 11
132.53882039418261
 21
132.12611311688488
  0
LINE
  8
_0-0_
  6
CONTINUOUS
 62
    7
 10
132.51506334325734
 20
132.16860700035659
 11
132.52303447196812
 21
132.15454297308406
  0
LINE
  8
_0-0_
  6
CONTINUOUS
 62
    7
 10
132.50704046305202
 20
132.18256965711862
 11
132.51506334325734
 21
132.16860700035659
  0
LINE
  8
_0-0_
  6
CONTINUOUS
 62
    7
 10
132.49084053033187
 20
132.21018854778686
 11
132.50704046305202
 21
132.18256965711862
  0
LINE
  8
_0-0_
  6
CONTINUOUS
 62
    7
 10
132.47443691517412
 20
132.23739489726313
 11
132.49084053033187
 21
132.21018854778686
  0
LINE
  8
_0-0_
  6
CONTINUOUS
 62
    7
 10
132.46616294081525
 20
132.2508362203871
 11
132.47443691517412
 21
132.23739489726313
  0
LINE
  8
_0-0_
  6
CONTINUOUS
 62
    7
 10
132.45784431393724
 20
132.26416415414542
 11
132.46616294081525
 21
132.2508362203871
  0
LINE
  8
_0-0_
  6
CONTINUOUS
 62
    7
 10
132.44107456012682
 20
132.29047838461474
 11
132.45784431393724
 21
132.26416415414542
  0
LINE
  8
_0-0_
  6
CONTINUOUS
 62
    7
 10
132.4241305697966
 20
132.3163346477595
 11
132.44107456012682
 21
132.29047838461474
  0
LINE
  8
_0-0_
  6
CONTINUOUS
 62
    7
 10
132.4070152611763
 20
132.34172999839029
 11
132.4241305697966
 21
132.3163346477595
  0
LINE
  8
_0-0_
  6
CONTINUOUS
 62
    7
 10
132.38973155534552
 20
132.36666148781023
 11
132.4070152611763
 21
132.34172999839029
  0
LINE
  8
_0-0_
  6
CONTINUOUS
 62
    7
 10
132.37228237683996
 20
132.39112616455986
 11
132.38973155534552
 21
132.36666148781023
  0
LINE
  8
_0-0_
  6
CONTINUOUS
 62
    7
 10
132.36349665033151
 20
132.40318252527459
 11
132.37228237683996
 21
132.39112616455986
  0
LINE
  8
_0-0_
  6
CONTINUOUS
 62
    7
 10
132.35467065419209
 20
132.41512107513518
 11
132.36349665033151
 21
132.40318252527459
  0
LINE
  8
_0-0_
  6
CONTINUOUS
 62
    7
 10
132.33689932040863
 20
132.43864326466792
 11
132.35467065419209
 21
132.41512107513518
  0
LINE
  8
_0-0_
  6
CONTINUOUS
 62
    7
 10
132.31897131339167
 20
132.46168977755997
 11
132.33689932040863
 21
132.43864326466792
  0
LINE
  8
_0-0_
  6
CONTINUOUS
 62
    7
 10
132.30088957630835
 20
132.48425765805723
 11
132.31897131339167
 21
132.46168977755997
  0
LINE
  8
_0-0_
  6
CONTINUOUS
 62
    7
 10
132.2826570579092
 20
132.50634395076258
 11
132.30088957630835
 21
132.48425765805723
  0
LINE
  8
_0-0_
  6
CONTINUOUS
 62
    7
 10
132.26427671280283
 20
132.52794570107153
 11
132.2826570579092
 21
132.50634395076258
  0
LINE
  8
_0-0_
  6
CONTINUOUS
 62
    7
 10
132.25503203021128
 20
132.53856394981949
 11
132.26427671280283
 21
132.52794570107153
  0
LINE
  8
_0-0_
  6
CONTINUOUS
 62
    7
 10
132.24575150169687
 20
132.54905995552826
 11
132.25503203021128
 21
132.53856394981949
  0
LINE
  8
_0-0_
  6
CONTINUOUS
 62
    7
 10
132.22708439159589
 20
132.56968376209443
 11
132.24575150169687
 21
132.54905995552826
  0
LINE
  8
_0-0_
  6
CONTINUOUS
 62
    7
 10
132.20827835598277
 20
132.58981417032373
 11
132.22708439159589
 21
132.56968376209443
  0
LINE
  8
_0-0_
  6
CONTINUOUS
 62
    7
 10
132.18933637496832
 20
132.60944823143382
 11
132.20827835598277
 21
132.58981417032373
  0
LINE
  8
_0-0_
  6
CONTINUOUS
 62
    7
 10
132.17026143543092
 20
132.62858299827349
 11
132.18933637496832
 21
132.60944823143382
  0
LINE
  8
_0-0_
  6
CONTINUOUS
 62
    7
 10
132.15105653114199
 20
132.64721552518131
 11
132.17026143543092
 21
132.62858299827349
  0
LINE
  8
_0-0_
  6
CONTINUOUS
 62
    7
 10
132.14140627968402
 20
132.65634252848668
 11
132.15105653114199
 21
132.64721552518131
  0
LINE
  8
_0-0_
  6
CONTINUOUS
 62
    7
 10
132.13172466288836
 20
132.66534286772367
 11
132.14140627968402
 21
132.65634252848668
  0
LINE
  8
_0-0_
  6
CONTINUOUS
 62
    7
 10
132.11226883860093
 20
132.68296208231732
 11
132.13172466288836
 21
132.66534286772367
  0
LINE
  8
_0-0_
  6
CONTINUOUS
 62
    7
 10
132.09269207348291
 20
132.70007022572963
 11
132.11226883860093
 21
132.68296208231732
  0
LINE
  8
_0-0_
  6
CONTINUOUS
 62
    7
 10
132.07299739017037
 20
132.71666435445377
 11
132.09269207348291
 21
132.70007022572963
  0
LINE
  8
_0-0_
  6
CONTINUOUS
 62
    7
 10
132.05318781889457
 20
132.73274152395334
 11
132.07299739017037
 21
132.71666435445377
  0
LINE
  8
_0-0_
  6
CONTINUOUS
 62
    7
 10
132.03326639769432
 20
132.74829878778337
 11
132.05318781889457
 21
132.73274152395334
  0
LINE
  8
_0-0_
  6
CONTINUOUS
 62
    7
 10
132.02326469495313
 20
132.75588153354147
 11
132.03326639769432
 21
132.74829878778337
  0
LINE
  8
_0-0_
  6
CONTINUOUS
 62
    7
 10
132.01323617265609
 20
132.76333319658079
 11
132.02326469495313
 21
132.75588153354147
  0
LINE
  8
_0-0_
  6
CONTINUOUS
 62
    7
 10
131.99310134276459
 20
132.77784098930124
 11
132.01323617265609
 21
132.76333319658079
  0
LINE
  8
_0-0_
  6
CONTINUOUS
 62
    7
 10
131.97288278504823
 20
132.79180726724462
 11
131.99310134276459
 21
132.77784098930124
  0
LINE
  8
_0-0_
  6
CONTINUOUS
 62
    7
 10
131.95258991278718
 20
132.80522663453894
 11
131.97288278504823
 21
132.79180726724462
  0
LINE
  8
_0-0_
  6
CONTINUOUS
 62
    7
 10
131.93222611850763
 20
132.81809812142228
 11
131.95258991278718
 21
132.80522663453894
  0
LINE
  8
_0-0_
  6
CONTINUOUS
 62
    7
 10
131.91179480101266
 20
132.83042075288586
 11
131.93222611850763
 21
132.81809812142228
  0
LINE
  8
_0-0_
  6
CONTINUOUS
 62
    7
 10
131.90155488507173
 20
132.83637594198308
 11
131.91179480101266
 21
132.83042075288586
  0
LINE
  8
_0-0_
  6
CONTINUOUS
 62
    7
 10
131.89129936606935
 20
132.84219354977768
 11
131.90155488507173
 21
132.83637594198308
  0
LINE
  8
_0-0_
  6
CONTINUOUS
 62
    7
 10
131.87074322705314
 20
132.85341552983664
 11
131.89129936606935
 21
132.84219354977768
  0
LINE
  8
_0-0_
  6
CONTINUOUS
 62
    7
 10
131.85012980554859
 20
132.86408570865933
 11
131.87074322705314
 21
132.85341552983664
  0
LINE
  8
_0-0_
  6
CONTINUOUS
 62
    7
 10
131.83980268549442
 20
132.8692135646138
 11
131.85012980554859
 21
132.86408570865933
  0
LINE
  8
_0-0_
  6
CONTINUOUS
 62
    7
 10
131.82946253192051
 20
132.87420310058087
 11
131.83980268549442
 21
132.8692135646138
  0
LINE
  8
_0-0_
  6
CONTINUOUS
 62
    7
 10
131.80874484585695
 20
132.88376671947208
 11
131.82946253192051
 21
132.87420310058087
  0
LINE
  8
_0-0_
  6
CONTINUOUS
 62
    7
 10
131.78798019689577
 20
132.89277557944342
 11
131.80874484585695
 21
132.88376671947208
  0
LINE
  8
_0-0_
  6
CONTINUOUS
 62
    7
 10
131.77758134213002
 20
132.89707166696189
 11
131.78798019689577
 21
132.89277557944342
  0
LINE
  8
_0-0_
  6
CONTINUOUS
 62
    7
 10
131.76717204494173
 20
132.90122869545621
 11
131.77758134213002
 21
132.89707166696189
  0
LINE
  8
_0-0_
  6
CONTINUOUS
 62
    7
 10
131.74632386077303
 20
132.90912508382235
 11
131.76717204494173
 21
132.90122869545621
  0
LINE
  8
_0-0_
  6
CONTINUOUS
 62
    7
 10
131.72543912656613
 20
132.91646376261315
 11
131.74632386077303
 21
132.90912508382235
  0
LINE
  8
_0-0_
  6
CONTINUOUS
 62
    7
 10
131.70452133641913
 20
132.92324375194448
 11
131.72543912656613
 21
132.91646376261315
  0
LINE
  8
_0-0_
  6
CONTINUOUS
 62
    7
 10
131.68357399690751
 20
132.92946407416684
 11
131.70452133641913
 21
132.92324375194448
  0
LINE
  8
_0-0_
  6
CONTINUOUS
 62
    7
 10
131.66260062767208
 20
132.93512375392947
 11
131.68357399690751
 21
132.92946407416684
  0
LINE
  8
_0-0_
  6
CONTINUOUS
 62
    7
 10
131.65210528551836
 20
132.93774304871295
 11
131.66260062767208
 21
132.93512375392947
  0
LINE
  8
_0-0_
  6
CONTINUOUS
 62
    7
 10
131.64160476203699
 20
132.94022181814034
 11
131.65210528551836
 21
132.93774304871295
  0
LINE
  8
_0-0_
  6
CONTINUOUS
 62
    7
 10
131.62058994768915
 20
132.94475729580518
 11
131.64160476203699
 21
132.94022181814034
  0
LINE
  8
_0-0_
  6
CONTINUOUS
 62
    7
 10
131.59955974741627
 20
132.94872921775641
 11
131.62058994768915
 21
132.94475729580518
  0
LINE
  8
_0-0_
  6
CONTINUOUS
 62
    7
 10
131.57851773991308
 20
132.95213661626894
 11
131.59955974741627
 21
132.94872921775641
  0
LINE
  8
_0-0_
  6
CONTINUOUS
 62
    7
 10
131.55746752067046
 20
132.95497852456037
 11
131.57851773991308
 21
132.95213661626894
  0
LINE
  8
_0-0_
  6
CONTINUOUS
 62
    7
 10
131.53641270296487
 20
132.95725397618526
 11
131.55746752067046
 21
132.95497852456037
  0
LINE
  8
_0-0_
  6
CONTINUOUS
 62
    7
 10
131.52588470396597
 20
132.95817897865163
 11
131.53641270296487
 21
132.95725397618526
  0
LINE
  8
_0-0_
  6
CONTINUOUS
 62
    7
 10
131.51535691894799
 20
132.9589620043198
 11
131.52588470396597
 21
132.95817897865163
  0
LINE
  8
_0-0_
  6
CONTINUOUS
 62
    7
 10
131.49430382086223
 20
132.9601016409456
 11
131.51535691894799
 21
132.9589620043198
  0
LINE
  8
_0-0_
  6
CONTINUOUS
 62
    7
 10
131.47325708238361
 20
132.96067191593011
 11
131.49430382086223
 21
132.9601016409456
  0
LINE
  8
_0-0_
  6
CONTINUOUS
 62
    7
 10
131.4627379594009
 20
132.96074323881703
 11
131.47325708238361
 21
132.96067191593011
  0
LINE
  8
_0-0_
  6
CONTINUOUS
 62
    7
 10
37.006146171526893
 20
109.69165485383883
 11
37.005199910907436
 21
109.71231861628075
  0
LINE
  8
_0-0_
  6
CONTINUOUS
 62
    7
 10
37.008264125866049
 20
109.65038700757577
 11
37.006146171526893
 21
109.69165485383883
  0
LINE
  8
_0-0_
  6
CONTINUOUS
 62
    7
 10
37.010681912900168
 20
109.60920346544208
 11
37.008264125866049
 21
109.65038700757577
  0
LINE
  8
_0-0_
  6
CONTINUOUS
 62
    7
 10
37.012002964477347
 20
109.58864508318857
 11
37.010681912900168
 21
109.60920346544208
  0
LINE
  8
_0-0_
  6
CONTINUOUS
 62
    7
 10
37.01339863916894
 20
109.56810990672329
 11
37.012002964477347
 21
109.58864508318857
  0
LINE
  8
_0-0_
  6
CONTINUOUS
 62
    7
 10
37.016413410840528
 20
109.52711201109787
 11
37.01339863916894
 21
109.56810990672329
  0
LINE
  8
_0-0_
  6
CONTINUOUS
 62
    7
 10
37.019725333006249
 20
109.48621545883179
 11
37.016413410840528
 21
109.52711201109787
  0
LINE
  8
_0-0_
  6
CONTINUOUS
 62
    7
 10
37.023333509033023
 20
109.44542593088363
 11
37.019725333006249
 21
109.48621545883179
  0
LINE
  8
_0-0_
  6
CONTINUOUS
 62
    7
 10
37.027237039980378
 20
109.40474910892726
 11
37.023333509033023
 21
109.44542593088363
  0
LINE
  8
_0-0_
  6
CONTINUOUS
 62
    7
 10
37.031435024074767
 20
109.36419067531142
 11
37.027237039980378
 21
109.40474910892726
  0
LINE
  8
_0-0_
  6
CONTINUOUS
 62
    7
 10
37.03364415335875
 20
109.34395763002567
 11
37.031435024074767
 21
109.36419067531142
  0
LINE
  8
_0-0_
  6
CONTINUOUS
 62
    7
 10
37.035926556248
 20
109.32375631296009
 11
37.03364415335875
 21
109.34395763002567
  0
LINE
  8
_0-0_
  6
CONTINUOUS
 62
    7
 10
37.04071072773479
 20
109.28345170523835
 11
37.035926556248
 21
109.32375631296009
  0
LINE
  8
_0-0_
  6
CONTINUOUS
 62
    7
 10
37.045786625741243
 20
109.24328253577505
 11
37.04071072773479
 21
109.28345170523835
  0
LINE
  8
_0-0_
  6
CONTINUOUS
 62
    7
 10
37.051153333169736
 20
109.20325448827634
 11
37.045786625741243
 21
109.24328253577505
  0
LINE
  8
_0-0_
  6
CONTINUOUS
 62
    7
 10
37.056809928410644
 20
109.16337324632332
 11
37.051153333169736
 21
109.20325448827634
  0
LINE
  8
_0-0_
  6
CONTINUOUS
 62
    7
 10
37.062755485193634
 20
109.12364449317374
 11
37.056809928410644
 21
109.16337324632332
  0
LINE
  8
_0-0_
  6
CONTINUOUS
 62
    7
 10
37.065836333407901
 20
109.10383907578625
 11
37.062755485193634
 21
109.12364449317374
  0
LINE
  8
_0-0_
  6
CONTINUOUS
 62
    7
 10
37.068989072504905
 20
109.0840739115838
 11
37.065836333407901
 21
109.10383907578625
  0
LINE
  8
_0-0_
  6
CONTINUOUS
 62
    7
 10
37.075509754558084
 20
109.04466718364665
 11
37.068989072504905
 21
109.0840739115838
  0
LINE
  8
_0-0_
  6
CONTINUOUS
 62
    7
 10
37.082316590828782
 20
109.00542999067056
 11
37.075509754558084
 21
109.04466718364665
  0
LINE
  8
_0-0_
  6
CONTINUOUS
 62
    7
 10
37.085827021608225
 20
108.98587674496821
 11
37.082316590828782
 21
109.00542999067056
  0
LINE
  8
_0-0_
  6
CONTINUOUS
 62
    7
 10
37.089408636145549
 20
108.9663680131066
 11
37.085827021608225
 21
108.98587674496821
  0
LINE
  8
_0-0_
  6
CONTINUOUS
 62
    7
 10
37.096784940827661
 20
108.92748693053045
 11
37.089408636145549
 21
108.9663680131066
  0
LINE
  8
_0-0_
  6
CONTINUOUS
 62
    7
 10
37.104444550883386
 20
108.88879242169423
 11
37.096784940827661
 21
108.92748693053045
  0
LINE
  8
_0-0_
  6
CONTINUOUS
 62
    7
 10
37.108380296184464
 20
108.86951690684236
 11
37.104444550883386
 21
108.88879242169423
  0
LINE
  8
_0-0_
  6
CONTINUOUS
 62
    7
 10
37.112386508253735
 20
108.85029016465251
 11
37.108380296184464
 21
108.86951690684236
  0
LINE
  8
_0-0_
  6
CONTINUOUS
 62
    7
 10
37.120609851096674
 20
108.81198583698188
 11
37.112386508253735
 21
108.85029016465251
  0
LINE
  8
_0-0_
  6
CONTINUOUS
 62
    7
 10
37.129113614119547
 20
108.77388511609297
 11
37.120609851096674
 21
108.81198583698188
  0
LINE
  8
_0-0_
  6
CONTINUOUS
 62
    7
 10
37.137896828945145
 20
108.73599367965335
 11
37.129113614119547
 21
108.77388511609297
  0
LINE
  8
_0-0_
  6
CONTINUOUS
 62
    7
 10
37.146958524512797
 20
108.69831720612183
 11
37.137896828945145
 21
108.73599367965335
  0
LINE
  8
_0-0_
  6
CONTINUOUS
 62
    7
 10
37.156297727508104
 20
108.66086137541106
 11
37.146958524512797
 21
108.69831720612183
  0
LINE
  8
_0-0_
  6
CONTINUOUS
 62
    7
 10
37.161071089624897
 20
108.64221797667687
 11
37.156297727508104
 21
108.66086137541106
  0
LINE
  8
_0-0_
  6
CONTINUOUS
 62
    7
 10
37.165913462815411
 20
108.62363186968287
 11
37.161071089624897
 21
108.64221797667687
  0
LINE
  8
_0-0_
  6
CONTINUOUS
 62
    7
 10
37.175804183126388
 20
108.5866364735748
 11
37.165913462815411
 21
108.62363186968287
  0
LINE
  8
_0-0_
  6
CONTINUOUS
 62
    7
 10
37.185958977024825
 20
108.54991599781351
 11
37.175804183126388
 21
108.5866364735748
  0
LINE
  8
_0-0_
  6
CONTINUOUS
 62
    7
 10
37.196372420165631
 20
108.51348782668856
 11
37.185958977024825
 21
108.54991599781351
  0
LINE
  8
_0-0_
  6
CONTINUOUS
 62
    7
 10
37.207042445581578
 20
108.47735657394287
 11
37.196372420165631
 21
108.51348782668856
  0
LINE
  8
_0-0_
  6
CONTINUOUS
 62
    7
 10
37.21796698598348
 20
108.44152685606105
 11
37.207042445581578
 21
108.47735657394287
  0
LINE
  8
_0-0_
  6
CONTINUOUS
 62
    7
 10
37.223524052996368
 20
108.42372651601954
 11
37.21796698598348
 21
108.44152685606105
  0
LINE
  8
_0-0_
  6
CONTINUOUS
 62
    7
 10
37.229143972988481
 20
108.40600329195786
 11
37.223524052996368
 21
108.42372651601954
  0
LINE
  8
_0-0_
  6
CONTINUOUS
 62
    7
 10
37.240571336431117
 20
108.37079050262491
 11
37.229143972988481
 21
108.40600329195786
  0
LINE
  8
_0-0_
  6
CONTINUOUS
 62
    7
 10
37.252247003735306
 20
108.33589311074456
 11
37.240571336431117
 21
108.37079050262491
  0
LINE
  8
_0-0_
  6
CONTINUOUS
 62
    7
 10
37.264168899364563
 20
108.30131574028655
 11
37.252247003735306
 21
108.33589311074456
  0
LINE
  8
_0-0_
  6
CONTINUOUS
 62
    7
 10
37.276334944330415
 20
108.2670630160892
 11
37.264168899364563
 21
108.30131574028655
  0
LINE
  8
_0-0_
  6
CONTINUOUS
 62
    7
 10
37.288743055780401
 20
108.233139563451
 11
37.276334944330415
 21
108.2670630160892
  0
LINE
  8
_0-0_
  6
CONTINUOUS
 62
    7
 10
37.295037234397682
 20
108.21630275939879
 11
37.288743055780401
 21
108.233139563451
  0
LINE
  8
_0-0_
  6
CONTINUOUS
 62
    7
 10
37.301391146634728
 20
108.19955000772961
 11
37.295037234397682
 21
108.21630275939879
  0
LINE
  8
_0-0_
  6
CONTINUOUS
 62
    7
 10
37.314277125299782
 20
108.16629897397024
 11
37.301391146634728
 21
108.19955000772961
  0
LINE
  8
_0-0_
  6
CONTINUOUS
 62
    7
 10
37.327398895432111
 20
108.13339108656737
 11
37.314277125299782
 21
108.16629897397024
  0
LINE
  8
_0-0_
  6
CONTINUOUS
 62
    7
 10
37.340754355760168
 20
108.10083096896869
 11
37.327398895432111
 21
108.13339108656737
  0
LINE
  8
_0-0_
  6
CONTINUOUS
 62
    7
 10
37.354341399961527
 20
108.06862324343865
 11
37.340754355760168
 21
108.10083096896869
  0
LINE
  8
_0-0_
  6
CONTINUOUS
 62
    7
 10
37.368157916589212
 20
108.03677253088517
 11
37.354341399961527
 21
108.06862324343865
  0
LINE
  8
_0-0_
  6
CONTINUOUS
 62
    7
 10
37.375151565826059
 20
108.02098249811024
 11
37.368157916589212
 21
108.03677253088517
  0
LINE
  8
_0-0_
  6
CONTINUOUS
 62
    7
 10
37.382201789040778
 20
108.00528345075736
 11
37.375151565826059
 21
108.02098249811024
  0
LINE
  8
_0-0_
  6
CONTINUOUS
 62
    7
 10
37.396470895572861
 20
107.97416062102866
 11
37.382201789040778
 21
108.00528345075736
  0
LINE
  8
_0-0_
  6
CONTINUOUS
 62
    7
 10
37.410963109351201
 20
107.94340865826825
 11
37.396470895572861
 21
107.97416062102866
  0
LINE
  8
_0-0_
  6
CONTINUOUS
 62
    7
 10
37.425676298533858
 20
107.91303217781206
 11
37.410963109351201
 21
107.94340865826825
  0
LINE
  8
_0-0_
  6
CONTINUOUS
 62
    7
 10
37.440608326382176
 20
107.88303579403964
 11
37.425676298533858
 21
107.91303217781206
  0
LINE
  8
_0-0_
  6
CONTINUOUS
 62
    7
 10
37.455757051394926
 20
107.85342412076307
 11
37.440608326382176
 21
107.88303579403964
  0
LINE
  8
_0-0_
  6
CONTINUOUS
 62
    7
 10
37.46341200485324
 20
107.83876399234441
 11
37.455757051394926
 21
107.85342412076307
  0
LINE
  8
_0-0_
  6
CONTINUOUS
 62
    7
 10
37.47112032745838
 20
107.82420177173617
 11
37.46341200485324
 21
107.83876399234441
  0
LINE
  8
_0-0_
  6
CONTINUOUS
 62
    7
 10
37.486696004013197
 20
107.79537336128897
 11
37.47112032745838
 21
107.82420177173617
  0
LINE
  8
_0-0_
  6
CONTINUOUS
 62
    7
 10
37.502481926218593
 20
107.76694350509251
 11
37.486696004013197
 21
107.79537336128897
  0
LINE
  8
_0-0_
  6
CONTINUOUS
 62
    7
 10
37.510453054923914
 20
107.75287947782044
 11
37.502481926218593
 21
107.76694350509251
  0
LINE
  8
_0-0_
  6
CONTINUOUS
 62
    7
 10
37.518475935124229
 20
107.73891682106068
 11
37.510453054923914
 21
107.75287947782044
  0
LINE
  8
_0-0_
  6
CONTINUOUS
 62
    7
 10
37.534675867834835
 20
107.71129793039336
 11
37.518475935124229
 21
107.73891682106068
  0
LINE
  8
_0-0_
  6
CONTINUOUS
 62
    7
 10
37.551079482982573
 20
107.6840915809189
 11
37.534675867834835
 21
107.71129793039336
  0
LINE
  8
_0-0_
  6
CONTINUOUS
 62
    7
 10
37.559353457336442
 20
107.67065025779539
 11
37.551079482982573
 21
107.6840915809189
  0
LINE
  8
_0-0_
  6
CONTINUOUS
 62
    7
 10
37.567672084210358
 20
107.65732232403707
 11
37.559353457336442
 21
107.67065025779539
  0
LINE
  8
_0-0_
  6
CONTINUOUS
 62
    7
 10
37.584441838010321
 20
107.63100809356729
 11
37.567672084210358
 21
107.65732232403707
  0
LINE
  8
_0-0_
  6
CONTINUOUS
 62
    7
 10
37.601385828331445
 20
107.60515183042253
 11
37.584441838010321
 21
107.63100809356729
  0
LINE
  8
_0-0_
  6
CONTINUOUS
 62
    7
 10
37.61850113694129
 20
107.57975647979083
 11
37.601385828331445
 21
107.60515183042253
  0
LINE
  8
_0-0_
  6
CONTINUOUS
 62
    7
 10
37.635784842762519
 20
107.55482499036862
 11
37.61850113694129
 21
107.57975647979083
  0
LINE
  8
_0-0_
  6
CONTINUOUS
 62
    7
 10
37.653234021257617
 20
107.53036031361762
 11
37.635784842762519
 21
107.55482499036862
  0
LINE
  8
_0-0_
  6
CONTINUOUS
 62
    7
 10
37.662019747761519
 20
107.51830395290244
 11
37.653234021257617
 21
107.53036031361762
  0
LINE
  8
_0-0_
  6
CONTINUOUS
 62
    7
 10
37.670845743896393
 20
107.50636540304049
 11
37.662019747761519
 21
107.51830395290244
  0
LINE
  8
_0-0_
  6
CONTINUOUS
 62
    7
 10
37.688617077669392
 20
107.48284321350502
 11
37.670845743896393
 21
107.50636540304049
  0
LINE
  8
_0-0_
  6
CONTINUOUS
 62
    7
 10
37.706545084676804
 20
107.45979670061115
 11
37.688617077669392
 21
107.48284321350502
  0
LINE
  8
_0-0_
  6
CONTINUOUS
 62
    7
 10
37.724626821749666
 20
107.43722882011025
 11
37.706545084676804
 21
107.45979670061115
  0
LINE
  8
_0-0_
  6
CONTINUOUS
 62
    7
 10
37.742859340138807
 20
107.4151425274008
 11
37.724626821749666
 21
107.43722882011025
  0
LINE
  8
_0-0_
  6
CONTINUOUS
 62
    7
 10
37.761239685234727
 20
107.39354077708776
 11
37.742859340138807
 21
107.4151425274008
  0
LINE
  8
_0-0_
  6
CONTINUOUS
 62
    7
 10
37.770484367820814
 20
107.38292252833753
 11
37.761239685234727
 21
107.39354077708776
  0
LINE
  8
_0-0_
  6
CONTINUOUS
 62
    7
 10
37.779764896330676
 20
107.37242652262694
 11
37.770484367820814
 21
107.38292252833753
  0
LINE
  8
_0-0_
  6
CONTINUOUS
 62
    7
 10
37.798432006421194
 20
107.35180271605532
 11
37.779764896330676
 21
107.37242652262694
  0
LINE
  8
_0-0_
  6
CONTINUOUS
 62
    7
 10
37.817238042024314
 20
107.33167230782055
 11
37.798432006421194
 21
107.35180271605532
  0
LINE
  8
_0-0_
  6
CONTINUOUS
 62
    7
 10
37.836180023028305
 20
107.31203824670501
 11
37.817238042024314
 21
107.33167230782055
  0
LINE
  8
_0-0_
  6
CONTINUOUS
 62
    7
 10
37.855254962554795
 20
107.29290347985852
 11
37.836180023028305
 21
107.31203824670501
  0
LINE
  8
_0-0_
  6
CONTINUOUS
 62
    7
 10
37.874459866833718
 20
107.27427095294388
 11
37.855254962554795
 21
107.29290347985852
  0
LINE
  8
_0-0_
  6
CONTINUOUS
 62
    7
 10
37.88411011828714
 20
107.26514394963488
 11
37.874459866833718
 21
107.27427095294388
  0
LINE
  8
_0-0_
  6
CONTINUOUS
 62
    7
 10
37.893791735076888
 20
107.2561436103947
 11
37.88411011828714
 21
107.26514394963488
  0
LINE
  8
_0-0_
  6
CONTINUOUS
 62
    7
 10
37.913247559355227
 20
107.23852439579377
 11
37.893791735076888
 21
107.2561436103947
  0
LINE
  8
_0-0_
  6
CONTINUOUS
 62
    7
 10
37.932824324461876
 20
107.22141625237327
 11
37.913247559355227
 21
107.23852439579377
  0
LINE
  8
_0-0_
  6
CONTINUOUS
 62
    7
 10
37.952519007765318
 20
107.20482212364095
 11
37.932824324461876
 21
107.22141625237327
  0
LINE
  8
_0-0_
  6
CONTINUOUS
 62
    7
 10
37.972328579030204
 20
107.18874495413229
 11
37.952519007765318
 21
107.20482212364095
  0
LINE
  8
_0-0_
  6
CONTINUOUS
 62
    7
 10
37.992250000219087
 20
107.17318769029271
 11
37.972328579030204
 21
107.18874495413229
  0
LINE
  8
_0-0_
  6
CONTINUOUS
 62
    7
 10
38.002251702956187
 20
107.16560494453051
 11
37.992250000219087
 21
107.17318769029271
  0
LINE
  8
_0-0_
  6
CONTINUOUS
 62
    7
 10
38.012280225248219
 20
107.15815328148528
 11
38.002251702956187
 21
107.16560494453051
  0
LINE
  8
_0-0_
  6
CONTINUOUS
 62
    7
 10
38.032415055128354
 20
107.14364548875483
 11
38.012280225248219
 21
107.15815328148528
  0
LINE
  8
_0-0_
  6
CONTINUOUS
 62
    7
 10
38.052633612830618
 20
107.12967921080417
 11
38.032415055128354
 21
107.14364548875483
  0
LINE
  8
_0-0_
  6
CONTINUOUS
 62
    7
 10
38.072926485070298
 20
107.1162598435053
 11
38.052633612830618
 21
107.12967921080417
  0
LINE
  8
_0-0_
  6
CONTINUOUS
 62
    7
 10
38.093290279323469
 20
107.10338835661969
 11
38.072926485070298
 21
107.1162598435053
  0
LINE
  8
_0-0_
  6
CONTINUOUS
 62
    7
 10
38.113721596788423
 20
107.09106572515475
 11
38.093290279323469
 21
107.10338835661969
  0
LINE
  8
_0-0_
  6
CONTINUOUS
 62
    7
 10
38.123961512712981
 20
107.08511053605662
 11
38.113721596788423
 21
107.09106572515475
  0
LINE
  8
_0-0_
  6
CONTINUOUS
 62
    7
 10
38.134217031698995
 20
107.07929292826157
 11
38.123961512712981
 21
107.08511053605662
  0
LINE
  8
_0-0_
  6
CONTINUOUS
 62
    7
 10
38.154773170680642
 20
107.06807094820033
 11
38.134217031698995
 21
107.07929292826157
  0
LINE
  8
_0-0_
  6
CONTINUOUS
 62
    7
 10
38.175386592150176
 20
107.057400769374
 11
38.154773170680642
 21
107.06807094820033
  0
LINE
  8
_0-0_
  6
CONTINUOUS
 62
    7
 10
38.185713712187521
 20
107.05227291341726
 11
38.175386592150176
 21
107.057400769374
  0
LINE
  8
_0-0_
  6
CONTINUOUS
 62
    7
 10
38.196053865744148
 20
107.047283377447
 11
38.185713712187521
 21
107.05227291341726
  0
LINE
  8
_0-0_
  6
CONTINUOUS
 62
    7
 10
38.216771551776333
 20
107.0377197585467
 11
38.196053865744148
 21
107.047283377447
  0
LINE
  8
_0-0_
  6
CONTINUOUS
 62
    7
 10
38.237536200708405
 20
107.02871089856308
 11
38.216771551776333
 21
107.0377197585467
  0
LINE
  8
_0-0_
  6
CONTINUOUS
 62
    7
 10
38.247935055461426
 20
107.02441481103779
 11
38.237536200708405
 21
107.02871089856308
  0
LINE
  8
_0-0_
  6
CONTINUOUS
 62
    7
 10
38.258344352639256
 20
107.02025778253528
 11
38.247935055461426
 21
107.02441481103779
  0
LINE
  8
_0-0_
  6
CONTINUOUS
 62
    7
 10
38.279192536789765
 20
107.01236139415096
 11
38.258344352639256
 21
107.02025778253528
  0
LINE
  8
_0-0_
  6
CONTINUOUS
 62
    7
 10
38.300077270987117
 20
107.00502271533833
 11
38.279192536789765
 21
107.01236139415096
  0
LINE
  8
_0-0_
  6
CONTINUOUS
 62
    7
 10
38.320995061133658
 20
106.99824272598153
 11
38.300077270987117
 21
107.00502271533833
  0
LINE
  8
_0-0_
  6
CONTINUOUS
 62
    7
 10
38.34194240065392
 20
106.99202240373097
 11
38.320995061133658
 21
106.99824272598153
  0
LINE
  8
_0-0_
  6
CONTINUOUS
 62
    7
 10
38.362915769910728
 20
106.98636272393696
 11
38.34194240065392
 21
106.99202240373097
  0
LINE
  8
_0-0_
  6
CONTINUOUS
 62
    7
 10
38.373411112079452
 20
106.98374342913803
 11
38.362915769910728
 21
106.98636272393696
  0
LINE
  8
_0-0_
  6
CONTINUOUS
 62
    7
 10
38.38391163558083
 20
106.98126465969426
 11
38.373411112079452
 21
106.98374342913803
  0
LINE
  8
_0-0_
  6
CONTINUOUS
 62
    7
 10
38.40492644997687
 20
106.97672918199623
 11
38.38391163558083
 21
106.98126465969426
  0
LINE
  8
_0-0_
  6
CONTINUOUS
 62
    7
 10
38.425956650313879
 20
106.97275726001135
 11
38.40492644997687
 21
106.97672918199623
  0
LINE
  8
_0-0_
  6
CONTINUOUS
 62
    7
 10
38.446998657898916
 20
106.96934986146607
 11
38.425956650313879
 21
106.97275726001135
  0
LINE
  8
_0-0_
  6
CONTINUOUS
 62
    7
 10
38.468048877242495
 20
106.96650795314417
 11
38.446998657898916
 21
106.96934986146607
  0
LINE
  8
_0-0_
  6
CONTINUOUS
 62
    7
 10
38.489103695069048
 20
106.96423250149246
 11
38.468048877242495
 21
106.96650795314417
  0
LINE
  8
_0-0_
  6
CONTINUOUS
 62
    7
 10
38.499631694135246
 20
106.96330749901426
 11
38.489103695069048
 21
106.96423250149246
  0
LINE
  8
_0-0_
  6
CONTINUOUS
 62
    7
 10
38.5101594792269
 20
106.96252447333609
 11
38.499631694135246
 21
106.96330749901426
  0
LINE
  8
_0-0_
  6
CONTINUOUS
 62
    7
 10
38.531212577476367
 20
106.96138483669529
 11
38.5101594792269
 21
106.96252447333609
  0
LINE
  8
_0-0_
  6
CONTINUOUS
 62
    7
 10
38.55225931614325
 20
106.96081456170396
 11
38.531212577476367
 21
106.96138483669529
  0
LINE
  8
_0-0_
  6
CONTINUOUS
 62
    7
 10
38.562778439090494
 20
106.96074323881703
 11
38.55225931614325
 21
106.96081456170396
  0
LINE
  8
_0-0_
  6
CONTINUOUS
 62
    7
 10
36.62723409007242
 20
118.2929960873048
 11
36.553595367542243
 21
119.96074323881749
  0
LINE
  8
_0-0_
  6
CONTINUOUS
 62
    7
 10
36.779677225019554
 20
114.83652941938817
 11
36.62723409007242
 21
118.2929960873048
  0
LINE
  8
_0-0_
  6
CONTINUOUS
 62
    7
 10
36.931866221273253
 20
111.38006412311097
 11
36.779677225019554
 21
114.83652941938817
  0
LINE
  8
_0-0_
  6
CONTINUOUS
 62
    7
 10
37.005199910907891
 20
109.71231861628075
 11
36.931866221273253
 21
111.38006412311097
  0
LINE
  8
_0-0_
  6
CONTINUOUS
 62
    7
 10
36.931866221259156
 20
128.54142235420068
 11
37.005199910907436
 21
130.20916786135376
  0
LINE
  8
_0-0_
  6
CONTINUOUS
 62
    7
 10
36.779677224992724
 20
125.08495705764244
 11
36.931866221259156
 21
128.54142235420068
  0
LINE
  8
_0-0_
  6
CONTINUOUS
 62
    7
 10
36.627234090056959
 20
121.62849038998138
 11
36.779677224992724
 21
125.08495705764244
  0
LINE
  8
_0-0_
  6
CONTINUOUS
 62
    7
 10
36.553595367542243
 20
119.96074323881749
 11
36.627234090056959
 21
121.62849038998138
  0
LINE
  8
_0-0_
  6
CONTINUOUS
 62
    7
 10
38.552259316107325
 20
132.96067191593011
 11
38.562778439090494
 21
132.96074323881703
  0
LINE
  8
_0-0_
  6
CONTINUOUS
 62
    7
 10
38.531212577627343
 20
132.9601016409456
 11
38.552259316107325
 21
132.96067191593011
  0
LINE
  8
_0-0_
  6
CONTINUOUS
 62
    7
 10
38.510159479538402
 20
132.9589620043198
 11
38.531212577627343
 21
132.9601016409456
  0
LINE
  8
_0-0_
  6
CONTINUOUS
 62
    7
 10
38.499631694519962
 20
132.95817897865118
 11
38.510159479538402
 21
132.9589620043198
  0
LINE
  8
_0-0_
  6
CONTINUOUS
 62
    7
 10
38.489103695519702
 20
132.95725397618435
 11
38.499631694519962
 21
132.95817897865118
  0
LINE
  8
_0-0_
  6
CONTINUOUS
 62
    7
 10
38.468048877812748
 20
132.95497852455946
 11
38.489103695519702
 21
132.95725397618435
  0
LINE
  8
_0-0_
  6
CONTINUOUS
 62
    7
 10
38.446998658568759
 20
132.95213661626758
 11
38.468048877812748
 21
132.95497852455946
  0
LINE
  8
_0-0_
  6
CONTINUOUS
 62
    7
 10
38.425956651064212
 20
132.94872921775504
 11
38.446998658568759
 21
132.95213661626758
  0
LINE
  8
_0-0_
  6
CONTINUOUS
 62
    7
 10
38.404926450790413
 20
132.9447572958029
 11
38.425956651064212
 21
132.94872921775504
  0
LINE
  8
_0-0_
  6
CONTINUOUS
 62
    7
 10
38.383911636443031
 20
132.94022181813762
 11
38.404926450790413
 21
132.9447572958029
  0
LINE
  8
_0-0_
  6
CONTINUOUS
 62
    7
 10
38.373411112960753
 20
132.93774304871022
 11
38.383911636443031
 21
132.94022181813762
  0
LINE
  8
_0-0_
  6
CONTINUOUS
 62
    7
 10
38.362915770807035
 20
132.93512375392675
 11
38.373411112960753
 21
132.93774304871022
  0
LINE
  8
_0-0_
  6
CONTINUOUS
 62
    7
 10
38.341942401570691
 20
132.92946407416366
 11
38.362915770807035
 21
132.93512375392675
  0
LINE
  8
_0-0_
  6
CONTINUOUS
 62
    7
 10
38.320995062059524
 20
132.92324375194039
 11
38.341942401570691
 21
132.92946407416366
  0
LINE
  8
_0-0_
  6
CONTINUOUS
 62
    7
 10
38.300077271912073
 20
132.91646376260815
 11
38.320995062059524
 21
132.92324375194039
  0
LINE
  8
_0-0_
  6
CONTINUOUS
 62
    7
 10
38.279192537705171
 20
132.90912508381825
 11
38.300077271912073
 21
132.91646376260815
  0
LINE
  8
_0-0_
  6
CONTINUOUS
 62
    7
 10
38.258344353537382
 20
132.90122869545121
 11
38.279192537705171
 21
132.90912508381825
  0
LINE
  8
_0-0_
  6
CONTINUOUS
 62
    7
 10
38.247935056349093
 20
132.89707166695689
 11
38.258344353537382
 21
132.90122869545121
  0
LINE
  8
_0-0_
  6
CONTINUOUS
 62
    7
 10
38.237536201583339
 20
132.89277557943888
 11
38.247935056349093
 21
132.89707166695689
  0
LINE
  8
_0-0_
  6
CONTINUOUS
 62
    7
 10
38.216771552623072
 20
132.88376671946662
 11
38.237536201583339
 21
132.89277557943888
  0
LINE
  8
_0-0_
  6
CONTINUOUS
 62
    7
 10
38.19605386655951
 20
132.87420310057541
 11
38.216771552623072
 21
132.88376671946662
  0
LINE
  8
_0-0_
  6
CONTINUOUS
 62
    7
 10
38.185713712986058
 20
132.86921356460834
 11
38.19605386655951
 21
132.87420310057541
  0
LINE
  8
_0-0_
  6
CONTINUOUS
 62
    7
 10
38.175386592931886
 20
132.86408570865387
 11
38.185713712986058
 21
132.86921356460834
  0
LINE
  8
_0-0_
  6
CONTINUOUS
 62
    7
 10
38.154773171427337
 20
132.85341552983118
 11
38.175386592931886
 21
132.86408570865387
  0
LINE
  8
_0-0_
  6
CONTINUOUS
 62
    7
 10
38.134217032412039
 20
132.84219354977222
 11
38.154773171427337
 21
132.85341552983118
  0
LINE
  8
_0-0_
  6
CONTINUOUS
 62
    7
 10
38.123961513410109
 20
132.83637594197762
 11
38.134217032412039
 21
132.84219354977222
  0
LINE
  8
_0-0_
  6
CONTINUOUS
 62
    7
 10
38.11372159746918
 20
132.8304207528804
 11
38.123961513410109
 21
132.83637594197762
  0
LINE
  8
_0-0_
  6
CONTINUOUS
 62
    7
 10
38.093290279974212
 20
132.81809812141682
 11
38.11372159746918
 21
132.8304207528804
  0
LINE
  8
_0-0_
  6
CONTINUOUS
 62
    7
 10
38.07292648569512
 20
132.80522663453348
 11
38.093290279974212
 21
132.81809812141682
  0
LINE
  8
_0-0_
  6
CONTINUOUS
 62
    7
 10
38.052633613434978
 20
132.79180726723916
 11
38.07292648569512
 21
132.80522663453348
  0
LINE
  8
_0-0_
  6
CONTINUOUS
 62
    7
 10
38.032415055717706
 20
132.77784098929578
 11
38.052633613434978
 21
132.79180726723916
  0
LINE
  8
_0-0_
  6
CONTINUOUS
 62
    7
 10
38.012280225827112
 20
132.76333319657533
 11
38.032415055717706
 21
132.77784098929578
  0
LINE
  8
_0-0_
  6
CONTINUOUS
 62
    7
 10
38.002251703530078
 20
132.7558815335351
 11
38.012280225827112
 21
132.76333319657533
  0
LINE
  8
_0-0_
  6
CONTINUOUS
 62
    7
 10
37.992250000788886
 20
132.74829878777791
 11
38.002251703530078
 21
132.7558815335351
  0
LINE
  8
_0-0_
  6
CONTINUOUS
 62
    7
 10
37.972328579589544
 20
132.73274152394697
 11
37.992250000788886
 21
132.74829878777791
  0
LINE
  8
_0-0_
  6
CONTINUOUS
 62
    7
 10
37.952519008313743
 20
132.71666435444695
 11
37.972328579589544
 21
132.73274152394697
  0
LINE
  8
_0-0_
  6
CONTINUOUS
 62
    7
 10
37.932824325000752
 20
132.70007022572327
 11
37.952519008313743
 21
132.71666435444695
  0
LINE
  8
_0-0_
  6
CONTINUOUS
 62
    7
 10
37.913247559883189
 20
132.6829620823105
 11
37.932824325000752
 21
132.70007022572327
  0
LINE
  8
_0-0_
  6
CONTINUOUS
 62
    7
 10
37.8937917355953
 20
132.66534286771684
 11
37.913247559883189
 21
132.6829620823105
  0
LINE
  8
_0-0_
  6
CONTINUOUS
 62
    7
 10
37.884110118800095
 20
132.65634252848076
 11
37.8937917355953
 21
132.66534286771684
  0
LINE
  8
_0-0_
  6
CONTINUOUS
 62
    7
 10
37.874459867342125
 20
132.6472155251754
 11
37.884110118800095
 21
132.65634252848076
  0
LINE
  8
_0-0_
  6
CONTINUOUS
 62
    7
 10
37.855254963052744
 20
132.62858299826667
 11
37.874459867342125
 21
132.6472155251754
  0
LINE
  8
_0-0_
  6
CONTINUOUS
 62
    7
 10
37.836180023516249
 20
132.609448231427
 11
37.855254963052744
 21
132.62858299826667
  0
LINE
  8
_0-0_
  6
CONTINUOUS
 62
    7
 10
37.817238042502254
 20
132.58981417031691
 11
37.836180023516249
 21
132.609448231427
  0
LINE
  8
_0-0_
  6
CONTINUOUS
 62
    7
 10
37.798432006889129
 20
132.56968376208761
 11
37.817238042502254
 21
132.58981417031691
  0
LINE
  8
_0-0_
  6
CONTINUOUS
 62
    7
 10
37.779764896788606
 20
132.54905995552099
 11
37.798432006889129
 21
132.56968376208761
  0
LINE
  8
_0-0_
  6
CONTINUOUS
 62
    7
 10
37.770484368273287
 20
132.53856394981221
 11
37.779764896788606
 21
132.54905995552099
  0
LINE
  8
_0-0_
  6
CONTINUOUS
 62
    7
 10
37.761239685682199
 20
132.52794570106471
 11
37.770484368273287
 21
132.53856394981221
  0
LINE
  8
_0-0_
  6
CONTINUOUS
 62
    7
 10
37.742859340576274
 20
132.50634395075576
 11
37.761239685682199
 21
132.52794570106471
  0
LINE
  8
_0-0_
  6
CONTINUOUS
 62
    7
 10
37.724626822176674
 20
132.48425765804996
 11
37.742859340576274
 21
132.50634395075576
  0
LINE
  8
_0-0_
  6
CONTINUOUS
 62
    7
 10
37.706545085094263
 20
132.46168977755224
 11
37.724626822176674
 21
132.48425765804996
  0
LINE
  8
_0-0_
  6
CONTINUOUS
 62
    7
 10
37.6886170780773
 20
132.43864326466019
 11
37.706545085094263
 21
132.46168977755224
  0
LINE
  8
_0-0_
  6
CONTINUOUS
 62
    7
 10
37.670845744293388
 20
132.41512107512744
 11
37.6886170780773
 21
132.43864326466019
  0
LINE
  8
_0-0_
  6
CONTINUOUS
 62
    7
 10
37.662019748154421
 20
132.40318252526731
 11
37.670845744293388
 21
132.41512107512744
  0
LINE
  8
_0-0_
  6
CONTINUOUS
 62
    7
 10
37.653234021645972
 20
132.39112616455304
 11
37.662019748154421
 21
132.40318252526731
  0
LINE
  8
_0-0_
  6
CONTINUOUS
 62
    7
 10
37.635784843140414
 20
132.36666148780296
 11
37.653234021645972
 21
132.39112616455304
  0
LINE
  8
_0-0_
  6
CONTINUOUS
 62
    7
 10
37.618501137309636
 20
132.34172999838302
 11
37.635784843140414
 21
132.36666148780296
  0
LINE
  8
_0-0_
  6
CONTINUOUS
 62
    7
 10
37.601385828689331
 20
132.31633464775177
 11
37.618501137309636
 21
132.34172999838302
  0
LINE
  8
_0-0_
  6
CONTINUOUS
 62
    7
 10
37.584441838359567
 20
132.29047838460701
 11
37.601385828689331
 21
132.31633464775177
  0
LINE
  8
_0-0_
  6
CONTINUOUS
 62
    7
 10
37.567672084549599
 20
132.26416415413769
 11
37.584441838359567
 21
132.29047838460701
  0
LINE
  8
_0-0_
  6
CONTINUOUS
 62
    7
 10
37.559353457671136
 20
132.25083622037937
 11
37.567672084549599
 21
132.26416415413769
  0
LINE
  8
_0-0_
  6
CONTINUOUS
 62
    7
 10
37.551079483312719
 20
132.2373948972554
 11
37.559353457671136
 21
132.25083622037937
  0
LINE
  8
_0-0_
  6
CONTINUOUS
 62
    7
 10
37.534675868154977
 20
132.21018854777958
 11
37.551079483312719
 21
132.2373948972554
  0
LINE
  8
_0-0_
  6
CONTINUOUS
 62
    7
 10
37.518475935434367
 20
132.18256965711089
 11
37.534675868154977
 21
132.21018854777958
  0
LINE
  8
_0-0_
  6
CONTINUOUS
 62
    7
 10
37.510453055229505
 20
132.16860700034886
 11
37.518475935434367
 21
132.18256965711089
  0
LINE
  8
_0-0_
  6
CONTINUOUS
 62
    7
 10
37.502481926519181
 20
132.15454297307633
 11
37.510453055229505
 21
132.16860700034886
  0
LINE
  8
_0-0_
  6
CONTINUOUS
 62
    7
 10
37.48669600430469
 20
132.12611311687715
 11
37.502481926519181
 21
132.15454297307633
  0
LINE
  8
_0-0_
  6
CONTINUOUS
 62
    7
 10
37.471120327740778
 20
132.09728470642722
 11
37.48669600430469
 21
132.12611311687715
  0
LINE
  8
_0-0_
  6
CONTINUOUS
 62
    7
 10
37.463412005130635
 20
132.0827224858167
 11
37.471120327740778
 21
132.09728470642722
  0
LINE
  8
_0-0_
  6
CONTINUOUS
 62
    7
 10
37.455757051667774
 20
132.06806235739668
 11
37.463412005130635
 21
132.0827224858167
  0
LINE
  8
_0-0_
  6
CONTINUOUS
 62
    7
 10
37.440608326645474
 20
132.03845068411692
 11
37.455757051667774
 21
132.06806235739668
  0
LINE
  8
_0-0_
  6
CONTINUOUS
 62
    7
 10
37.425676298788517
 20
132.00845430034042
 11
37.440608326645474
 21
132.03845068411692
  0
LINE
  8
_0-0_
  6
CONTINUOUS
 62
    7
 10
37.410963109596764
 20
131.97807781988013
 11
37.425676298788517
 21
132.00845430034042
  0
LINE
  8
_0-0_
  6
CONTINUOUS
 62
    7
 10
37.39647089580933
 20
131.94732585711472
 11
37.410963109596764
 21
131.97807781988013
  0
LINE
  8
_0-0_
  6
CONTINUOUS
 62
    7
 10
37.382201789268606
 20
131.91620302738102
 11
37.39647089580933
 21
131.94732585711472
  0
LINE
  8
_0-0_
  6
CONTINUOUS
 62
    7
 10
37.375151566049794
 20
131.90050398002495
 11
37.382201789268606
 21
131.91620302738102
  0
LINE
  8
_0-0_
  6
CONTINUOUS
 62
    7
 10
37.368157916808855
 20
131.8847139472482
 11
37.375151566049794
 21
131.90050398002495
  0
LINE
  8
_0-0_
  6
CONTINUOUS
 62
    7
 10
37.35434140017253
 20
131.85286323468881
 11
37.368157916808855
 21
131.8847139472482
  0
LINE
  8
_0-0_
  6
CONTINUOUS
 62
    7
 10
37.340754355962531
 20
131.82065550915331
 11
37.35434140017253
 21
131.85286323468881
  0
LINE
  8
_0-0_
  6
CONTINUOUS
 62
    7
 10
37.327398895626288
 20
131.78809539154781
 11
37.340754355962531
 21
131.82065550915331
  0
LINE
  8
_0-0_
  6
CONTINUOUS
 62
    7
 10
37.314277125486683
 20
131.75518750413767
 11
37.327398895626288
 21
131.78809539154781
  0
LINE
  8
_0-0_
  6
CONTINUOUS
 62
    7
 10
37.301391146813444
 20
131.72193647037193
 11
37.314277125486683
 21
131.75518750413767
  0
LINE
  8
_0-0_
  6
CONTINUOUS
 62
    7
 10
37.295037234572305
 20
131.70518371869912
 11
37.301391146813444
 21
131.72193647037193
  0
LINE
  8
_0-0_
  6
CONTINUOUS
 62
    7
 10
37.288743055950931
 20
131.68834691464372
 11
37.295037234572305
 21
131.70518371869912
  0
LINE
  8
_0-0_
  6
CONTINUOUS
 62
    7
 10
37.276334944494124
 20
131.65442346199779
 11
37.288743055950931
 21
131.68834691464372
  0
LINE
  8
_0-0_
  6
CONTINUOUS
 62
    7
 10
37.264168899520087
 20
131.62017073779225
 11
37.276334944494124
 21
131.65442346199779
  0
LINE
  8
_0-0_
  6
CONTINUOUS
 62
    7
 10
37.252247003884008
 20
131.58559336732606
 11
37.264168899520087
 21
131.62017073779225
  0
LINE
  8
_0-0_
  6
CONTINUOUS
 62
    7
 10
37.240571336571634
 20
131.55069597543752
 11
37.252247003884008
 21
131.58559336732606
  0
LINE
  8
_0-0_
  6
CONTINUOUS
 62
    7
 10
37.229143973122177
 20
131.51548318609548
 11
37.240571336571634
 21
131.55069597543752
  0
LINE
  8
_0-0_
  6
CONTINUOUS
 62
    7
 10
37.22352405312688
 20
131.4977599620297
 11
37.229143973122177
 21
131.51548318609548
  0
LINE
  8
_0-0_
  6
CONTINUOUS
 62
    7
 10
37.217966986110355
 20
131.47995962198365
 11
37.22352405312688
 21
131.4977599620297
  0
LINE
  8
_0-0_
  6
CONTINUOUS
 62
    7
 10
37.207042445702541
 20
131.44412990409228
 11
37.217966986110355
 21
131.47995962198365
  0
LINE
  8
_0-0_
  6
CONTINUOUS
 62
    7
 10
37.196372420279317
 20
131.40799865133704
 11
37.207042445702541
 21
131.44412990409228
  0
LINE
  8
_0-0_
  6
CONTINUOUS
 62
    7
 10
37.1859589771326
 20
131.37157048020254
 11
37.196372420279317
 21
131.40799865133704
  0
LINE
  8
_0-0_
  6
CONTINUOUS
 62
    7
 10
37.175804183227342
 20
131.3348500044317
 11
37.1859589771326
 21
131.37157048020254
  0
LINE
  8
_0-0_
  6
CONTINUOUS
 62
    7
 10
37.165913462909998
 20
131.29785460831272
 11
37.175804183227342
 21
131.3348500044317
  0
LINE
  8
_0-0_
  6
CONTINUOUS
 62
    7
 10
37.161071089716302
 20
131.27926850131371
 11
37.165913462909998
 21
131.29785460831272
  0
LINE
  8
_0-0_
  6
CONTINUOUS
 62
    7
 10
37.15629772759678
 20
131.26062510257361
 11
37.161071089716302
 21
131.27926850131371
  0
LINE
  8
_0-0_
  6
CONTINUOUS
 62
    7
 10
37.146958524596016
 20
131.22316927185193
 11
37.15629772759678
 21
131.26062510257361
  0
LINE
  8
_0-0_
  6
CONTINUOUS
 62
    7
 10
37.137896829022452
 20
131.18549279830859
 11
37.146958524596016
 21
131.22316927185193
  0
LINE
  8
_0-0_
  6
CONTINUOUS
 62
    7
 10
37.129113614190942
 20
131.14760136185669
 11
37.137896829022452
 21
131.18549279830859
  0
LINE
  8
_0-0_
  6
CONTINUOUS
 62
    7
 10
37.120609851163067
 20
131.10950064095641
 11
37.129113614190942
 21
131.14760136185669
  0
LINE
  8
_0-0_
  6
CONTINUOUS
 62
    7
 10
37.112386508315126
 20
131.07119631327441
 11
37.120609851163067
 21
131.10950064095641
  0
LINE
  8
_0-0_
  6
CONTINUOUS
 62
    7
 10
37.108380296243581
 20
131.05196957107819
 11
37.112386508315126
 21
131.07119631327441
  0
LINE
  8
_0-0_
  6
CONTINUOUS
 62
    7
 10
37.104444550939775
 20
131.03269405621995
 11
37.108380296243581
 21
131.05196957107819
  0
LINE
  8
_0-0_
  6
CONTINUOUS
 62
    7
 10
37.096784940879502
 20
130.99399954737146
 11
37.104444550939775
 21
131.03269405621995
  0
LINE
  8
_0-0_
  6
CONTINUOUS
 62
    7
 10
37.089408636193298
 20
130.95511846478348
 11
37.096784940879502
 21
130.99399954737146
  0
LINE
  8
_0-0_
  6
CONTINUOUS
 62
    7
 10
37.085827021653245
 20
130.93560973291551
 11
37.089408636193298
 21
130.95511846478348
  0
LINE
  8
_0-0_
  6
CONTINUOUS
 62
    7
 10
37.082316590872438
 20
130.91605648720633
 11
37.085827021653245
 21
130.93560973291551
  0
LINE
  8
_0-0_
  6
CONTINUOUS
 62
    7
 10
37.075509754596283
 20
130.87681929421706
 11
37.082316590872438
 21
130.91605648720633
  0
LINE
  8
_0-0_
  6
CONTINUOUS
 62
    7
 10
37.068989072539466
 20
130.83741256626718
 11
37.075509754596283
 21
130.87681929421706
  0
LINE
  8
_0-0_
  6
CONTINUOUS
 62
    7
 10
37.065836333441553
 20
130.81764740205836
 11
37.068989072539466
 21
130.83741256626718
  0
LINE
  8
_0-0_
  6
CONTINUOUS
 62
    7
 10
37.062755485225011
 20
130.79784198466359
 11
37.065836333441553
 21
130.81764740205836
  0
LINE
  8
_0-0_
  6
CONTINUOUS
 62
    7
 10
37.056809928438383
 20
130.75811323150174
 11
37.062755485225011
 21
130.79784198466359
  0
LINE
  8
_0-0_
  6
CONTINUOUS
 62
    7
 10
37.051153333194293
 20
130.71823198953462
 11
37.056809928438383
 21
130.75811323150174
  0
LINE
  8
_0-0_
  6
CONTINUOUS
 62
    7
 10
37.045786625762616
 20
130.67820394202272
 11
37.051153333194293
 21
130.71823198953462
  0
LINE
  8
_0-0_
  6
CONTINUOUS
 62
    7
 10
37.04071072775298
 20
130.63803477254578
 11
37.045786625762616
 21
130.67820394202272
  0
LINE
  8
_0-0_
  6
CONTINUOUS
 62
    7
 10
37.035926556263462
 20
130.5977301648104
 11
37.04071072775298
 21
130.63803477254578
  0
LINE
  8
_0-0_
  6
CONTINUOUS
 62
    7
 10
37.033644153373302
 20
130.57752884773754
 11
37.035926556263462
 21
130.5977301648104
  0
LINE
  8
_0-0_
  6
CONTINUOUS
 62
    7
 10
37.03143502408841
 20
130.55729580244497
 11
37.033644153373302
 21
130.57752884773754
  0
LINE
  8
_0-0_
  6
CONTINUOUS
 62
    7
 10
37.027237039991292
 20
130.51673736881457
 11
37.03143502408841
 21
130.55729580244497
  0
LINE
  8
_0-0_
  6
CONTINUOUS
 62
    7
 10
37.023333509041208
 20
130.47606054684411
 11
37.027237039991292
 21
130.51673736881457
  0
LINE
  8
_0-0_
  6
CONTINUOUS
 62
    7
 10
37.019725333012616
 20
130.43527101888185
 11
37.023333509041208
 21
130.47606054684411
  0
LINE
  8
_0-0_
  6
CONTINUOUS
 62
    7
 10
37.016413410845985
 20
130.39437446660213
 11
37.019725333012616
 21
130.43527101888185
  0
LINE
  8
_0-0_
  6
CONTINUOUS
 62
    7
 10
37.013398639172124
 20
130.3533765709617
 11
37.016413410845985
 21
130.39437446660213
  0
LINE
  8
_0-0_
  6
CONTINUOUS
 62
    7
 10
37.012002964480075
 20
130.33284139449006
 11
37.013398639172124
 21
130.3533765709617
  0
LINE
  8
_0-0_
  6
CONTINUOUS
 62
    7
 10
37.010681912902442
 20
130.31228301222791
 11
37.012002964480075
 21
130.33284139449006
  0
LINE
  8
_0-0_
  6
CONTINUOUS
 62
    7
 10
37.008264125867413
 20
130.27109947008103
 11
37.010681912902442
 21
130.31228301222791
  0
LINE
  8
_0-0_
  6
CONTINUOUS
 62
    7
 10
37.006146171526893
 20
130.22983162380297
 11
37.008264125867413
 21
130.27109947008103
  0
LINE
  8
_0-0_
  6
CONTINUOUS
 62
    7
 10
37.005199910907891
 20
130.20916786135376
 11
37.006146171526893
 21
130.22983162380297
  0
LINE
  8
_0-0_
  6
CONTINUOUS
 62
    7
 10
17.833501534527045
 20
106.96081349733095
 11
17.854033123500017
 21
106.96074323881703
  0
LINE
  8
_0-0_
  6
CONTINUOUS
 62
    7
 10
17.792455820861164
 20
106.96137526609346
 11
17.833501534527045
 21
106.96081349733095
  0
LINE
  8
_0-0_
  6
CONTINUOUS
 62
    7
 10
17.751440185569322
 20
106.96249797048358
 11
17.792455820861164
 21
106.96137526609346
  0
LINE
  8
_0-0_
  6
CONTINUOUS
 62
    7
 10
17.730945422190985
 20
106.96326939943447
 11
17.751440185569322
 21
106.96249797048358
  0
LINE
  8
_0-0_
  6
CONTINUOUS
 62
    7
 10
17.710460308304505
 20
106.96418073375617
 11
17.730945422190985
 21
106.96326939943447
  0
LINE
  8
_0-0_
  6
CONTINUOUS
 62
    7
 10
17.669521869116238
 20
106.96642268199548
 11
17.710460308304505
 21
106.96418073375617
  0
LINE
  8
_0-0_
  6
CONTINUOUS
 62
    7
 10
17.628630548568367
 20
106.96922294317937
 11
17.669521869116238
 21
106.96642268199548
  0
LINE
  8
_0-0_
  6
CONTINUOUS
 62
    7
 10
17.587792027787714
 20
106.97258064636071
 11
17.628630548568367
 21
106.96922294317937
  0
LINE
  8
_0-0_
  6
CONTINUOUS
 62
    7
 10
17.547011988465442
 20
106.97649492095843
 11
17.587792027787714
 21
106.97258064636071
  0
LINE
  8
_0-0_
  6
CONTINUOUS
 62
    7
 10
17.506296112812493
 20
106.980964896155
 11
17.547011988465442
 21
106.97649492095843
  0
LINE
  8
_0-0_
  6
CONTINUOUS
 62
    7
 10
17.485964012175941
 20
106.98340799916286
 11
17.506296112812493
 21
106.980964896155
  0
LINE
  8
_0-0_
  6
CONTINUOUS
 62
    7
 10
17.465650083481364
 20
106.98598970041667
 11
17.485964012175941
 21
106.98340799916286
  0
LINE
  8
_0-0_
  6
CONTINUOUS
 62
    7
 10
17.425079583469255
 20
106.99156846112328
 11
17.465650083481364
 21
106.98598970041667
  0
LINE
  8
_0-0_
  6
CONTINUOUS
 62
    7
 10
17.384590296003921
 20
106.99770030431318
 11
17.425079583469255
 21
106.99156846112328
  0
LINE
  8
_0-0_
  6
CONTINUOUS
 62
    7
 10
17.344187904429987
 20
107.00438435454907
 11
17.384590296003921
 21
106.99770030431318
  0
LINE
  8
_0-0_
  6
CONTINUOUS
 62
    7
 10
17.303878092102536
 20
107.01161973488797
 11
17.344187904429987
 21
107.00438435454907
  0
LINE
  8
_0-0_
  6
CONTINUOUS
 62
    7
 10
17.263666542302985
 20
107.01940556697355
 11
17.303878092102536
 21
107.01161973488797
  0
LINE
  8
_0-0_
  6
CONTINUOUS
 62
    7
 10
17.243599391839439
 20
107.02350462759614
 11
17.263666542302985
 21
107.01940556697355
  0
LINE
  8
_0-0_
  6
CONTINUOUS
 62
    7
 10
17.223558938173596
 20
107.02774097123574
 11
17.243599391839439
 21
107.02350462759614
  0
LINE
  8
_0-0_
  6
CONTINUOUS
 62
    7
 10
17.183560962704291
 20
107.03662506719729
 11
17.223558938173596
 21
107.02774097123574
  0
LINE
  8
_0-0_
  6
CONTINUOUS
 62
    7
 10
17.143678298751752
 20
107.04605697388934
 11
17.183560962704291
 21
107.03662506719729
  0
LINE
  8
_0-0_
  6
CONTINUOUS
 62
    7
 10
17.123781984473339
 20
107.05097808094797
 11
17.143678298751752
 21
107.04605697388934
  0
LINE
  8
_0-0_
  6
CONTINUOUS
 62
    7
 10
17.103916629133096
 20
107.05603581036985
 11
17.123781984473339
 21
107.05097808094797
  0
LINE
  8
_0-0_
  6
CONTINUOUS
 62
    7
 10
17.064281636773671
 20
107.06656069633436
 11
17.103916629133096
 21
107.05603581036985
  0
LINE
  8
_0-0_
  6
CONTINUOUS
 62
    7
 10
17.024779004940342
 20
107.07763075283128
 11
17.064281636773671
 21
107.06656069633436
  0
LINE
  8
_0-0_
  6
CONTINUOUS
 62
    7
 10
17.005079100410626
 20
107.08336994591991
 11
17.024779004940342
 21
107.07763075283128
  0
LINE
  8
_0-0_
  6
CONTINUOUS
 62
    7
 10
16.98541441755799
 20
107.08924510305451
 11
17.005079100410626
 21
107.08336994591991
  0
LINE
  8
_0-0_
  6
CONTINUOUS
 62
    7
 10
16.946193559626067
 20
107.10140287323247
 11
16.98541441755799
 21
107.08924510305451
  0
LINE
  8
_0-0_
  6
CONTINUOUS
 62
    7
 10
16.907122117734275
 20
107.1141031935781
 11
16.946193559626067
 21
107.10140287323247
  0
LINE
  8
_0-0_
  6
CONTINUOUS
 62
    7
 10
16.868205780701942
 20
107.12734519932656
 11
16.907122117734275
 21
107.1141031935781
  0
LINE
  8
_0-0_
  6
CONTINUOUS
 62
    7
 10
16.829450240325627
 20
107.14112803182434
 11
16.868205780701942
 21
107.12734519932656
  0
LINE
  8
_0-0_
  6
CONTINUOUS
 62
    7
 10
16.790861192350008
 20
107.15545083965208
 11
16.829450240325627
 21
107.14112803182434
  0
LINE
  8
_0-0_
  6
CONTINUOUS
 62
    7
 10
16.771636269006763
 20
107.16281238738748
 11
16.790861192350008
 21
107.15545083965208
  0
LINE
  8
_0-0_
  6
CONTINUOUS
 62
    7
 10
16.752465753229558
 20
107.17030432553565
 11
16.771636269006763
 21
107.16281238738748
  0
LINE
  8
_0-0_
  6
CONTINUOUS
 62
    7
 10
16.714290534033921
 20
107.18567804503255
 11
16.752465753229558
 21
107.17030432553565
  0
LINE
  8
_0-0_
  6
CONTINUOUS
 62
    7
 10
16.67634071452369
 20
107.20156934255101
 11
16.714290534033921
 21
107.18567804503255
  0
LINE
  8
_0-0_
  6
CONTINUOUS
 62
    7
 10
16.638621474998331
 20
107.21797556278534
 11
16.67634071452369
 21
107.20156934255101
  0
LINE
  8
_0-0_
  6
CONTINUOUS
 62
    7
 10
16.601137996048351
 20
107.23489405010469
 11
16.638621474998331
 21
107.21797556278534
  0
LINE
  8
_0-0_
  6
CONTINUOUS
 62
    7
 10
16.563895458308366
 20
107.25232214806101
 11
16.601137996048351
 21
107.23489405010469
  0
LINE
  8
_0-0_
  6
CONTINUOUS
 62
    7
 10
16.545366161295192
 20
107.26122647057309
 11
16.563895458308366
 21
107.25232214806101
  0
LINE
  8
_0-0_
  6
CONTINUOUS
 62
    7
 10
16.526899042222908
 20
107.27025719902576
 11
16.545366161295192
 21
107.26122647057309
  0
LINE
  8
_0-0_
  6
CONTINUOUS
 62
    7
 10
16.490153927824508
 20
107.2886965439402
 11
16.526899042222908
 21
107.27025719902576
  0
LINE
  8
_0-0_
  6
CONTINUOUS
 62
    7
 10
16.453665294551797
 20
107.30763752218172
 11
16.490153927824508
 21
107.2886965439402
  0
LINE
  8
_0-0_
  6
CONTINUOUS
 62
    7
 10
16.417438321100349
 20
107.32707747154245
 11
16.453665294551797
 21
107.30763752218172
  0
LINE
  8
_0-0_
  6
CONTINUOUS
 62
    7
 10
16.381478185326273
 20
107.34701372831751
 11
16.417438321100349
 21
107.32707747154245
  0
LINE
  8
_0-0_
  6
CONTINUOUS
 62
    7
 10
16.345790064210291
 20
107.36744362749141
 11
16.381478185326273
 21
107.34701372831751
  0
LINE
  8
_0-0_
  6
CONTINUOUS
 62
    7
 10
16.328049626722191
 20
107.37784285987073
 11
16.345790064210291
 21
107.36744362749141
  0
LINE
  8
_0-0_
  6
CONTINUOUS
 62
    7
 10
16.310379133888659
 20
107.38836450302551
 11
16.328049626722191
 21
107.37784285987073
  0
LINE
  8
_0-0_
  6
CONTINUOUS
 62
    7
 10
16.275250569762306
 20
107.40977368823224
 11
16.310379133888659
 21
107.38836450302551
  0
LINE
  8
_0-0_
  6
CONTINUOUS
 62
    7
 10
16.240409546696014
 20
107.43166851623982
 11
16.275250569762306
 21
107.40977368823224
  0
LINE
  8
_0-0_
  6
CONTINUOUS
 62
    7
 10
16.205861239309002
 20
107.45404632052805
 11
16.240409546696014
 21
107.43166851623982
  0
LINE
  8
_0-0_
  6
CONTINUOUS
 62
    7
 10
16.171610822371008
 20
107.47690443554075
 11
16.205861239309002
 21
107.45404632052805
  0
LINE
  8
_0-0_
  6
CONTINUOUS
 62
    7
 10
16.137663471311612
 20
107.50024019735474
 11
16.171610822371008
 21
107.47690443554075
  0
LINE
  8
_0-0_
  6
CONTINUOUS
 62
    7
 10
16.120805063140892
 20
107.51208636396086
 11
16.137663471311612
 21
107.50024019735474
  0
LINE
  8
_0-0_
  6
CONTINUOUS
 62
    7
 10
16.104024362848236
 20
107.52405094440655
 11
16.120805063140892
 21
107.51208636396086
  0
LINE
  8
_0-0_
  6
CONTINUOUS
 62
    7
 10
16.070698675736026
 20
107.54833401826227
 11
16.104024362848236
 21
107.52405094440655
  0
LINE
  8
_0-0_
  6
CONTINUOUS
 62
    7
 10
16.037691591661428
 20
107.57308676442244
 11
16.070698675736026
 21
107.54833401826227
  0
LINE
  8
_0-0_
  6
CONTINUOUS
 62
    7
 10
16.005008296267192
 20
107.59830653315112
 11
16.037691591661428
 21
107.57308676442244
  0
LINE
  8
_0-0_
  6
CONTINUOUS
 62
    7
 10
15.972653980325617
 20
107.623990680323
 11
16.005008296267192
 21
107.59830653315112
  0
LINE
  8
_0-0_
  6
CONTINUOUS
 62
    7
 10
15.94063384106687
 20
107.65013656826841
 11
15.972653980325617
 21
107.623990680323
  0
LINE
  8
_0-0_
  6
CONTINUOUS
 62
    7
 10
15.924750713955405
 20
107.66338184273309
 11
15.94063384106687
 21
107.65013656826841
  0
LINE
  8
_0-0_
  6
CONTINUOUS
 62
    7
 10
15.908953083660549
 20
107.67674156661678
 11
15.924750713955405
 21
107.66338184273309
  0
LINE
  8
_0-0_
  6
CONTINUOUS
 62
    7
 10
15.877616922859147
 20
107.70380305311392
 11
15.908953083660549
 21
107.67674156661678
  0
LINE
  8
_0-0_
  6
CONTINUOUS
 62
    7
 10
15.846645926097267
 20
107.73130460102084
 11
15.877616922859147
 21
107.70380305311392
  0
LINE
  8
_0-0_
  6
CONTINUOUS
 62
    7
 10
15.831307784881233
 20
107.74521120237341
 11
15.846645926097267
 21
107.73130460102084
  0
LINE
  8
_0-0_
  6
CONTINUOUS
 62
    7
 10
15.816068638312231
 20
107.75922086620449
 11
15.831307784881233
 21
107.74521120237341
  0
LINE
  8
_0-0_
  6
CONTINUOUS
 62
    7
 10
15.785889306118065
 20
107.78754717066658
 11
15.816068638312231
 21
107.75922086620449
  0
LINE
  8
_0-0_
  6
CONTINUOUS
 62
    7
 10
15.756111883784001
 20
107.81627909317467
 11
15.785889306118065
 21
107.78754717066658
  0
LINE
  8
_0-0_
  6
CONTINUOUS
 62
    7
 10
15.741375124558658
 20
107.83079577948774
 11
15.756111883784001
 21
107.81627909317467
  0
LINE
  8
_0-0_
  6
CONTINUOUS
 62
    7
 10
15.726740325659762
 20
107.84541221218024
 11
15.741375124558658
 21
107.83079577948774
  0
LINE
  8
_0-0_
  6
CONTINUOUS
 62
    7
 10
15.69777858571581
 20
107.87494210537125
 11
15.726740325659762
 21
107.84541221218024
  0
LINE
  8
_0-0_
  6
CONTINUOUS
 62
    7
 10
15.669230617129983
 20
107.90486434934974
 11
15.69777858571581
 21
107.87494210537125
  0
LINE
  8
_0-0_
  6
CONTINUOUS
 62
    7
 10
15.641100371928701
 20
107.93517451941489
 11
15.669230617129983
 21
107.90486434934974
  0
LINE
  8
_0-0_
  6
CONTINUOUS
 62
    7
 10
15.613391800698651
 20
107.96586818945889
 11
15.641100371928701
 21
107.93517451941489
  0
LINE
  8
_0-0_
  6
CONTINUOUS
 62
    7
 10
15.586108852369421
 20
107.99694093196103
 11
15.613391800698651
 21
107.96586818945889
  0
LINE
  8
_0-0_
  6
CONTINUOUS
 62
    7
 10
15.572628220346019
 20
108.01261807141555
 11
15.586108852369421
 21
107.99694093196103
  0
LINE
  8
_0-0_
  6
CONTINUOUS
 62
    7
 10
15.559255474083443
 20
108.02838831807048
 11
15.572628220346019
 21
108.01261807141555
  0
LINE
  8
_0-0_
  6
CONTINUOUS
 62
    7
 10
15.532835611155519
 20
108.06020591777269
 11
15.559255474083443
 21
108.02838831807048
  0
LINE
  8
_0-0_
  6
CONTINUOUS
 62
    7
 10
15.506853207130575
 20
108.09238930013453
 11
15.532835611155519
 21
108.06020591777269
  0
LINE
  8
_0-0_
  6
CONTINUOUS
 62
    7
 10
15.481312203951916
 20
108.12493403360668
 11
15.506853207130575
 21
108.09238930013453
  0
LINE
  8
_0-0_
  6
CONTINUOUS
 62
    7
 10
15.456216542233619
 20
108.15783568638926
 11
15.481312203951916
 21
108.12493403360668
  0
LINE
  8
_0-0_
  6
CONTINUOUS
 62
    7
 10
15.431570161663444
 20
108.19108982683883
 11
15.456216542233619
 21
108.15783568638926
  0
LINE
  8
_0-0_
  6
CONTINUOUS
 62
    7
 10
15.419416682833003
 20
108.20784769520014
 11
15.431570161663444
 21
108.19108982683883
  0
LINE
  8
_0-0_
  6
CONTINUOUS
 62
    7
 10
15.407377001521695
 20
108.22469202390857
 11
15.419416682833003
 21
108.20784769520014
  0
LINE
  8
_0-0_
  6
CONTINUOUS
 62
    7
 10
15.383641001334695
 20
108.25863784762032
 11
15.407377001521695
 21
108.22469202390857
  0
LINE
  8
_0-0_
  6
CONTINUOUS
 62
    7
 10
15.360366101659679
 20
108.29292286953796
 11
15.383641001334695
 21
108.25863784762032
  0
LINE
  8
_0-0_
  6
CONTINUOUS
 62
    7
 10
15.337556245010205
 20
108.32754266325219
 11
15.360366101659679
 21
108.29292286953796
  0
LINE
  8
_0-0_
  6
CONTINUOUS
 62
    7
 10
15.315215376926631
 20
108.36249280484844
 11
15.337556245010205
 21
108.32754266325219
  0
LINE
  8
_0-0_
  6
CONTINUOUS
 62
    7
 10
15.293347447180736
 20
108.39776887335574
 11
15.315215376926631
 21
108.36249280484844
  0
LINE
  8
_0-0_
  6
CONTINUOUS
 62
    7
 10
15.282592069978932
 20
108.41552774955244
 11
15.293347447180736
 21
108.39776887335574
  0
LINE
  8
_0-0_
  6
CONTINUOUS
 62
    7
 10
15.271956411142696
 20
108.43336645115141
 11
15.282592069978932
 21
108.41552774955244
  0
LINE
  8
_0-0_
  6
CONTINUOUS
 62
    7
 10
15.251046231283567
 20
108.46928112433079
 11
15.271956411142696
 21
108.43336645115141
  0
LINE
  8
_0-0_
  6
CONTINUOUS
 62
    7
 10
15.230620878835111
 20
108.50550848299963
 11
15.251046231283567
 21
108.46928112433079
  0
LINE
  8
_0-0_
  6
CONTINUOUS
 62
    7
 10
15.210684335592873
 20
108.54204412150284
 11
15.230620878835111
 21
108.50550848299963
  0
LINE
  8
_0-0_
  6
CONTINUOUS
 62
    7
 10
15.191240595877503
 20
108.57888363855545
 11
15.210684335592873
 21
108.54204412150284
  0
LINE
  8
_0-0_
  6
CONTINUOUS
 62
    7
 10
15.172293671694774
 20
108.61602263117084
 11
15.191240595877503
 21
108.57888363855545
  0
LINE
  8
_0-0_
  6
CONTINUOUS
 62
    7
 10
15.163011367933109
 20
108.63469576189118
 11
15.172293671694774
 21
108.61602263117084
  0
LINE
  8
_0-0_
  6
CONTINUOUS
 62
    7
 10
15.153861380940839
 20
108.65342821913646
 11
15.163011367933109
 21
108.63469576189118
  0
LINE
  8
_0-0_
  6
CONTINUOUS
 62
    7
 10
15.135959283008219
 20
108.69106824196433
 11
15.153861380940839
 21
108.65342821913646
  0
LINE
  8
_0-0_
  6
CONTINUOUS
 62
    7
 10
15.118589231318879
 20
108.72893695829771
 11
15.135959283008219
 21
108.69106824196433
  0
LINE
  8
_0-0_
  6
CONTINUOUS
 62
    7
 10
15.101753081762695
 20
108.76702862809589
 11
15.118589231318879
 21
108.72893695829771
  0
LINE
  8
_0-0_
  6
CONTINUOUS
 62
    7
 10
15.085452691852083
 20
108.80533751202984
 11
15.101753081762695
 21
108.76702862809589
  0
LINE
  8
_0-0_
  6
CONTINUOUS
 62
    7
 10
15.069689919946654
 20
108.84385787101019
 11
15.085452691852083
 21
108.80533751202984
  0
LINE
  8
_0-0_
  6
CONTINUOUS
 62
    7
 10
15.062010721539195
 20
108.86319556014996
 11
15.069689919946654
 21
108.84385787101019
  0
LINE
  8
_0-0_
  6
CONTINUOUS
 62
    7
 10
15.054466624549264
 20
108.88258396581978
 11
15.062010721539195
 21
108.86319556014996
  0
LINE
  8
_0-0_
  6
CONTINUOUS
 62
    7
 10
15.039784663694832
 20
108.92151005685901
 11
15.054466624549264
 21
108.88258396581978
  0
LINE
  8
_0-0_
  6
CONTINUOUS
 62
    7
 10
15.02564589442693
 20
108.96063040397576
 11
15.039784663694832
 21
108.92151005685901
  0
LINE
  8
_0-0_
  6
CONTINUOUS
 62
    7
 10
15.018780786586944
 20
108.98026162959377
 11
15.02564589442693
 21
108.96063040397576
  0
LINE
  8
_0-0_
  6
CONTINUOUS
 62
    7
 10
15.01205217237441
 20
108.99993926638717
 11
15.018780786586944
 21
108.98026162959377
  0
LINE
  8
_0-0_
  6
CONTINUOUS
 62
    7
 10
14.999005351435358
 20
109.03943090266921
 11
15.01205217237441
 21
108.99993926638717
  0
LINE
  8
_0-0_
  6
CONTINUOUS
 62
    7
 10
14.986507283569722
 20
109.07909957081347
 11
14.999005351435358
 21
109.03943090266921
  0
LINE
  8
_0-0_
  6
CONTINUOUS
 62
    7
 10
14.980464610222612
 20
109.09899849732119
 11
14.986507283569722
 21
109.07909957081347
  0
LINE
  8
_0-0_
  6
CONTINUOUS
 62
    7
 10
14.974559818708371
 20
109.11893952832952
 11
14.980464610222612
 21
109.09899849732119
  0
LINE
  8
_0-0_
  6
CONTINUOUS
 62
    7
 10
14.963164804781741
 20
109.15894503238997
 11
14.974559818708371
 21
109.11893952832952
  0
LINE
  8
_0-0_
  6
CONTINUOUS
 62
    7
 10
14.952324087872626
 20
109.19911034000188
 11
14.963164804781741
 21
109.15894503238997
  0
LINE
  8
_0-0_
  6
CONTINUOUS
 62
    7
 10
14.942039512493579
 20
109.2394297081978
 11
14.952324087872626
 21
109.19911034000188
  0
LINE
  8
_0-0_
  6
CONTINUOUS
 62
    7
 10
14.932312921992093
 20
109.27989739422446
 11
14.942039512493579
 21
109.2394297081978
  0
LINE
  8
_0-0_
  6
CONTINUOUS
 62
    7
 10
14.923146159090834
 20
109.32050765572785
 11
14.932312921992093
 21
109.27989739422446
  0
LINE
  8
_0-0_
  6
CONTINUOUS
 62
    7
 10
14.918773288830948
 20
109.34086445794628
 11
14.923146159090834
 21
109.32050765572785
  0
LINE
  8
_0-0_
  6
CONTINUOUS
 62
    7
 10
14.914541066550669
 20
109.36125475091285
 11
14.918773288830948
 21
109.34086445794628
  0
LINE
  8
_0-0_
  6
CONTINUOUS
 62
    7
 10
14.906499487971473
 20
109.40213293867373
 11
14.914541066550669
 21
109.36125475091285
  0
LINE
  8
_0-0_
  6
CONTINUOUS
 62
    7
 10
14.899023268719361
 20
109.44313647867557
 11
14.906499487971473
 21
109.40213293867373
  0
LINE
  8
_0-0_
  6
CONTINUOUS
 62
    7
 10
14.892114256982154
 20
109.48425963137379
 11
14.899023268719361
 21
109.44313647867557
  0
LINE
  8
_0-0_
  6
CONTINUOUS
 62
    7
 10
14.885774304957181
 20
109.5254966579696
 11
14.892114256982154
 21
109.48425963137379
  0
LINE
  8
_0-0_
  6
CONTINUOUS
 62
    7
 10
14.880005270157312
 20
109.56684182026902
 11
14.885774304957181
 21
109.5254966579696
  0
LINE
  8
_0-0_
  6
CONTINUOUS
 62
    7
 10
14.877335428991159
 20
109.58755315923463
 11
14.880005270157312
 21
109.56684182026902
  0
LINE
  8
_0-0_
  6
CONTINUOUS
 62
    7
 10
14.874809016836593
 20
109.60828938045779
 11
14.877335428991159
 21
109.58755315923463
  0
LINE
  8
_0-0_
  6
CONTINUOUS
 62
    7
 10
14.870187417544116
 20
109.64983360075075
 11
14.874809016836593
 21
109.60828938045779
  0
LINE
  8
_0-0_
  6
CONTINUOUS
 62
    7
 10
14.866142354770204
 20
109.69146874293529
 11
14.870187417544116
 21
109.64983360075075
  0
LINE
  8
_0-0_
  6
CONTINUOUS
 62
    7
 10
14.86433661600779
 20
109.71231861628075
 11
14.866142354770204
 21
109.69146874293529
  0
LINE
  8
_0-0_
  6
CONTINUOUS
 62
    7
 10
28.991708195006254
 20
114.52039474661751
 11
28.864819814982752
 21
114.44024030162745
  0
LINE
  8
_0-0_
  6
CONTINUOUS
 62
    7
 10
29.239025152565432
 20
114.69793286822414
 11
28.991708195006254
 21
114.52039474661751
  0
LINE
  8
_0-0_
  6
CONTINUOUS
 62
    7
 10
29.476140083588803
 20
114.89713698114974
 11
29.239025152565432
 21
114.69793286822414
  0
LINE
  8
_0-0_
  6
CONTINUOUS
 62
    7
 10
29.590311505992872
 20
115.00428716440183
 11
29.476140083588803
 21
114.89713698114974
  0
LINE
  8
_0-0_
  6
CONTINUOUS
 62
    7
 10
29.701286131918209
 20
115.11612144900573
 11
29.590311505992872
 21
115.00428716440183
  0
LINE
  8
_0-0_
  6
CONTINUOUS
 62
    7
 10
29.912879525140511
 20
115.35264758528365
 11
29.701286131918209
 21
115.11612144900573
  0
LINE
  8
_0-0_
  6
CONTINUOUS
 62
    7
 10
30.109505099898911
 20
115.60407525359324
 11
29.912879525140511
 21
115.35264758528365
  0
LINE
  8
_0-0_
  6
CONTINUOUS
 62
    7
 10
30.292379675469533
 20
115.87112651108782
 11
30.109505099898911
 21
115.60407525359324
  0
LINE
  8
_0-0_
  6
CONTINUOUS
 62
    7
 10
30.464978645509859
 20
116.15986340580957
 11
30.292379675469533
 21
115.87112651108782
  0
LINE
  8
_0-0_
  6
CONTINUOUS
 62
    7
 10
30.625065552461479
 20
116.46894610824165
 11
30.464978645509859
 21
116.15986340580957
  0
LINE
  8
_0-0_
  6
CONTINUOUS
 62
    7
 10
30.699734457110594
 20
116.63052167896785
 11
30.625065552461479
 21
116.46894610824165
  0
LINE
  8
_0-0_
  6
CONTINUOUS
 62
    7
 10
30.770498122449794
 20
116.79643987125564
 11
30.699734457110594
 21
116.63052167896785
  0
LINE
  8
_0-0_
  6
CONTINUOUS
 62
    7
 10
30.899451362765944
 20
117.14013946797058
 11
30.770498122449794
 21
116.79643987125564
  0
LINE
  8
_0-0_
  6
CONTINUOUS
 62
    7
 10
31.010408284168648
 20
117.49752711264091
 11
30.899451362765944
 21
117.14013946797058
  0
LINE
  8
_0-0_
  6
CONTINUOUS
 62
    7
 10
31.102243427371945
 20
117.86602527646528
 11
31.010408284168648
 21
117.49752711264091
  0
LINE
  8
_0-0_
  6
CONTINUOUS
 62
    7
 10
31.174193542090165
 20
118.24303570371194
 11
31.102243427371945
 21
117.86602527646528
  0
LINE
  8
_0-0_
  6
CONTINUOUS
 62
    7
 10
31.225776722315118
 20
118.62547289371287
 11
31.174193542090165
 21
118.24303570371194
  0
LINE
  8
_0-0_
  6
CONTINUOUS
 62
    7
 10
31.243891226589426
 20
118.81772887773241
 11
31.225776722315118
 21
118.62547289371287
  0
LINE
  8
_0-0_
  6
CONTINUOUS
 62
    7
 10
31.256918874881762
 20
119.0101402498226
 11
31.243891226589426
 21
118.81772887773241
  0
LINE
  8
_0-0_
  6
CONTINUOUS
 62
    7
 10
31.267961600111562
 20
119.39375802710538
 11
31.256918874881762
 21
119.0101402498226
  0
LINE
  8
_0-0_
  6
CONTINUOUS
 62
    7
 10
31.259673307349772
 20
119.77291204501171
 11
31.267961600111562
 21
119.39375802710538
  0
LINE
  8
_0-0_
  6
CONTINUOUS
 62
    7
 10
31.248570003260397
 20
119.96074323881749
 11
31.259673307349772
 21
119.77291204501171
  0
LINE
  8
_0-0_
  6
CONTINUOUS
 62
    7
 10
22.845403029066006
 20
112.05617657467201
 11
22.685018122711085
 21
112.02940847897526
  0
LINE
  8
_0-0_
  6
CONTINUOUS
 62
    7
 10
23.168917007766709
 20
112.11658436391053
 11
22.845403029066006
 21
112.05617657467201
  0
LINE
  8
_0-0_
  6
CONTINUOUS
 62
    7
 10
23.495942884494184
 20
112.18619569614884
 11
23.168917007766709
 21
112.11658436391053
  0
LINE
  8
_0-0_
  6
CONTINUOUS
 62
    7
 10
23.660716012534635
 20
112.22446529399031
 11
23.495942884494184
 21
112.18619569614884
  0
LINE
  8
_0-0_
  6
CONTINUOUS
 62
    7
 10
23.826298179090941
 20
112.26504935840785
 11
23.660716012534635
 21
112.22446529399031
  0
LINE
  8
_0-0_
  6
CONTINUOUS
 62
    7
 10
24.159794186538079
 20
112.35317188098043
 11
23.826298179090941
 21
112.26504935840785
  0
LINE
  8
_0-0_
  6
CONTINUOUS
 62
    7
 10
24.496236827670259
 20
112.45057787081942
 11
24.159794186538079
 21
112.35317188098043
  0
LINE
  8
_0-0_
  6
CONTINUOUS
 62
    7
 10
24.835433427604244
 20
112.55727238097688
 11
24.496236827670259
 21
112.45057787081942
  0
LINE
  8
_0-0_
  6
CONTINUOUS
 62
    7
 10
25.177189540767472
 20
112.67325075023064
 11
24.835433427604244
 21
112.55727238097688
  0
LINE
  8
_0-0_
  6
CONTINUOUS
 62
    7
 10
25.521295817277064
 20
112.79849417409241
 11
25.177189540767472
 21
112.67325075023064
  0
LINE
  8
_0-0_
  6
CONTINUOUS
 62
    7
 10
25.69416327543388
 20
112.86458123311104
 11
25.521295817277064
 21
112.79849417409241
  0
LINE
  8
_0-0_
  6
CONTINUOUS
 62
    7
 10
25.867537267271587
 20
112.93297228517804
 11
25.69416327543388
 21
112.86458123311104
  0
LINE
  8
_0-0_
  6
CONTINUOUS
 62
    7
 10
26.215694224889944
 20
113.07664353978225
 11
25.867537267271587
 21
112.93297228517804
  0
LINE
  8
_0-0_
  6
CONTINUOUS
 62
    7
 10
26.565543233427093
 20
113.22945566830458
 11
26.215694224889944
 21
113.07664353978225
  0
LINE
  8
_0-0_
  6
CONTINUOUS
 62
    7
 10
26.916857641216779
 20
113.39134607243795
 11
26.565543233427093
 21
113.22945566830458
  0
LINE
  8
_0-0_
  6
CONTINUOUS
 62
    7
 10
27.269406588813695
 20
113.56224146217119
 11
26.916857641216779
 21
113.39134607243795
  0
LINE
  8
_0-0_
  6
CONTINUOUS
 62
    7
 10
27.622954657445121
 20
113.74205764374437
 11
27.269406588813695
 21
113.56224146217119
  0
LINE
  8
_0-0_
  6
CONTINUOUS
 62
    7
 10
27.800028748724003
 20
113.83528181831207
 11
27.622954657445121
 21
113.74205764374437
  0
LINE
  8
_0-0_
  6
CONTINUOUS
 62
    7
 10
27.977262694854858
 20
113.93069984927297
 11
27.800028748724003
 21
113.83528181831207
  0
LINE
  8
_0-0_
  6
CONTINUOUS
 62
    7
 10
28.332088698800021
 20
114.12806316583692
 11
27.977262694854858
 21
113.93069984927297
  0
LINE
  8
_0-0_
  6
CONTINUOUS
 62
    7
 10
28.687201474177186
 20
114.33404059823761
 11
28.332088698800021
 21
114.12806316583692
  0
LINE
  8
_0-0_
  6
CONTINUOUS
 62
    7
 10
28.864819814982752
 20
114.44024030162745
 11
28.687201474177186
 21
114.33404059823761
  0
LINE
  8
_0-0_
  6
CONTINUOUS
 62
    7
 10
21.141660328034163
 20
112.00821450066496
 11
21.00292306087033
 21
112.02940847897526
  0
LINE
  8
_0-0_
  6
CONTINUOUS
 62
    7
 10
21.419311925579336
 20
111.97766816827152
 11
21.141660328034163
 21
112.00821450066496
  0
LINE
  8
_0-0_
  6
CONTINUOUS
 62
    7
 10
21.69664991242928
 20
111.96260405909152
 11
21.419311925579336
 21
111.97766816827152
  0
LINE
  8
_0-0_
  6
CONTINUOUS
 62
    7
 10
21.835013295122394
 20
111.96074323881703
 11
21.69664991242928
 21
111.96260405909152
  0
LINE
  8
_0-0_
  6
CONTINUOUS
 62
    7
 10
21.973953919905512
 20
111.96260647162808
 11
21.835013295122394
 21
111.96074323881703
  0
LINE
  8
_0-0_
  6
CONTINUOUS
 62
    7
 10
22.255324954595039
 20
111.97768285968823
 11
21.973953919905512
 21
111.96260647162808
  0
LINE
  8
_0-0_
  6
CONTINUOUS
 62
    7
 10
22.540867355487649
 20
112.00822823157432
 11
22.255324954595039
 21
111.97768285968823
  0
LINE
  8
_0-0_
  6
CONTINUOUS
 62
    7
 10
22.685018122711085
 20
112.02940847897526
 11
22.540867355487649
 21
112.00822823157432
  0
LINE
  8
_0-0_
  6
CONTINUOUS
 62
    7
 10
16.17776712764919
 20
114.33184979999442
 11
16.056194183680077
 21
114.44024040068643
  0
LINE
  8
_0-0_
  6
CONTINUOUS
 62
    7
 10
16.424147422283681
 20
114.12204625469667
 11
16.17776712764919
 21
114.33184979999442
  0
LINE
  8
_0-0_
  6
CONTINUOUS
 62
    7
 10
16.674753396621441
 20
113.92162141492099
 11
16.424147422283681
 21
114.12204625469667
  0
LINE
  8
_0-0_
  6
CONTINUOUS
 62
    7
 10
16.801605747094186
 20
113.82495102038274
 11
16.674753396621441
 21
113.92162141492099
  0
LINE
  8
_0-0_
  6
CONTINUOUS
 62
    7
 10
16.929470794370559
 20
113.73065355715744
 11
16.801605747094186
 21
113.82495102038274
  0
LINE
  8
_0-0_
  6
CONTINUOUS
 62
    7
 10
17.188174269616525
 20
113.54920669812191
 11
16.929470794370559
 21
113.73065355715744
  0
LINE
  8
_0-0_
  6
CONTINUOUS
 62
    7
 10
17.450729695352152
 20
113.37732884487968
 11
17.188174269616525
 21
113.54920669812191
  0
LINE
  8
_0-0_
  6
CONTINUOUS
 62
    7
 10
17.716998304225058
 20
113.21504982961733
 11
17.450729695352152
 21
113.37732884487968
  0
LINE
  8
_0-0_
  6
CONTINUOUS
 62
    7
 10
17.986822617413623
 20
113.06239011291336
 11
17.716998304225058
 21
113.21504982961733
  0
LINE
  8
_0-0_
  6
CONTINUOUS
 62
    7
 10
18.260032223260737
 20
112.91935599118415
 11
17.986822617413623
 21
113.06239011291336
  0
LINE
  8
_0-0_
  6
CONTINUOUS
 62
    7
 10
18.397850106187093
 20
112.85144630333662
 11
18.260032223260737
 21
112.91935599118415
  0
LINE
  8
_0-0_
  6
CONTINUOUS
 62
    7
 10
18.536445255850253
 20
112.78593837339031
 11
18.397850106187093
 21
112.85144630333662
  0
LINE
  8
_0-0_
  6
CONTINUOUS
 62
    7
 10
18.815869109917116
 20
112.66211227877329
 11
18.536445255850253
 21
112.78593837339031
  0
LINE
  8
_0-0_
  6
CONTINUOUS
 62
    7
 10
19.098100533172897
 20
112.54783675262524
 11
18.815869109917116
 21
112.66211227877329
  0
LINE
  8
_0-0_
  6
CONTINUOUS
 62
    7
 10
19.382924215296157
 20
112.44305532646831
 11
19.098100533172897
 21
112.54783675262524
  0
LINE
  8
_0-0_
  6
CONTINUOUS
 62
    7
 10
19.67011282473652
 20
112.34769571821244
 11
19.382924215296157
 21
112.44305532646831
  0
LINE
  8
_0-0_
  6
CONTINUOUS
 62
    7
 10
19.959427846268795
 20
112.26166933072091
 11
19.67011282473652
 21
112.34769571821244
  0
LINE
  8
_0-0_
  6
CONTINUOUS
 62
    7
 10
20.104805396214147
 20
112.22212385802322
 11
19.959427846268795
 21
112.26166933072091
  0
LINE
  8
_0-0_
  6
CONTINUOUS
 62
    7
 10
20.250977554995757
 20
112.18478261415976
 11
20.104805396214147
 21
112.22212385802322
  0
LINE
  8
_0-0_
  6
CONTINUOUS
 62
    7
 10
20.547572730434354
 20
112.11628811244373
 11
20.250977554995757
 21
112.18478261415976
  0
LINE
  8
_0-0_
  6
CONTINUOUS
 62
    7
 10
20.849767147351599
 20
112.0562188495046
 11
20.547572730434354
 21
112.11628811244373
  0
LINE
  8
_0-0_
  6
CONTINUOUS
 62
    7
 10
21.00292306087033
 20
112.02940847897526
 11
20.849767147351599
 21
112.0562188495046
  0
LINE
  8
_0-0_
  6
CONTINUOUS
 62
    7
 10
14.165745081336468
 20
119.77356852944422
 11
14.151446621965192
 21
119.96074323881749
  0
LINE
  8
_0-0_
  6
CONTINUOUS
 62
    7
 10
14.201670895449411
 20
119.39503687692013
 11
14.165745081336468
 21
119.77356852944422
  0
LINE
  8
_0-0_
  6
CONTINUOUS
 62
    7
 10
14.247673884529036
 20
119.01219185911441
 11
14.201670895449411
 21
119.39503687692013
  0
LINE
  8
_0-0_
  6
CONTINUOUS
 62
    7
 10
14.274487742618135
 20
118.82020069882537
 11
14.247673884529036
 21
119.01219185911441
  0
LINE
  8
_0-0_
  6
CONTINUOUS
 62
    7
 10
14.303841737617972
 20
118.62837480226244
 11
14.274487742618135
 21
118.82020069882537
  0
LINE
  8
_0-0_
  6
CONTINUOUS
 62
    7
 10
14.370113090236487
 20
118.24679686441186
 11
14.303841737617972
 21
118.62837480226244
  0
LINE
  8
_0-0_
  6
CONTINUOUS
 62
    7
 10
14.446274050658872
 20
117.87059752635741
 11
14.370113090236487
 21
118.24679686441186
  0
LINE
  8
_0-0_
  6
CONTINUOUS
 62
    7
 10
14.531962526379289
 20
117.50279923215476
 11
14.446274050658872
 21
117.87059752635741
  0
LINE
  8
_0-0_
  6
CONTINUOUS
 62
    7
 10
14.62675980763936
 20
117.14595147045657
 11
14.531962526379289
 21
117.50279923215476
  0
LINE
  8
_0-0_
  6
CONTINUOUS
 62
    7
 10
14.730079555960515
 20
116.80262261890266
 11
14.62675980763936
 21
117.14595147045657
  0
LINE
  8
_0-0_
  6
CONTINUOUS
 62
    7
 10
14.784701361498378
 20
116.63681725949982
 11
14.730079555960515
 21
116.80262261890266
  0
LINE
  8
_0-0_
  6
CONTINUOUS
 62
    7
 10
14.8411561646368
 20
116.47530232472263
 11
14.784701361498378
 21
116.63681725949982
  0
LINE
  8
_0-0_
  6
CONTINUOUS
 62
    7
 10
14.959089774426616
 20
116.1661796793851
 11
14.8411561646368
 21
116.47530232472263
  0
LINE
  8
_0-0_
  6
CONTINUOUS
 62
    7
 10
15.082816534586186
 20
115.87718705153202
 11
14.959089774426616
 21
116.1661796793851
  0
LINE
  8
_0-0_
  6
CONTINUOUS
 62
    7
 10
15.211284086951423
 20
115.60959648800872
 11
15.082816534586186
 21
115.87718705153202
  0
LINE
  8
_0-0_
  6
CONTINUOUS
 62
    7
 10
15.347431513733795
 20
115.35720038722548
 11
15.211284086951423
 21
115.60959648800872
  0
LINE
  8
_0-0_
  6
CONTINUOUS
 62
    7
 10
15.492250529238049
 20
115.11959139149349
 11
15.347431513733795
 21
115.35720038722548
  0
LINE
  8
_0-0_
  6
CONTINUOUS
 62
    7
 10
15.567691100303477
 20
115.00720177552239
 11
15.492250529238049
 21
115.11959139149349
  0
LINE
  8
_0-0_
  6
CONTINUOUS
 62
    7
 10
15.645023526921818
 20
114.89950082045698
 11
15.567691100303477
 21
115.00720177552239
  0
LINE
  8
_0-0_
  6
CONTINUOUS
 62
    7
 10
15.804947100154664
 20
114.69924787189848
 11
15.645023526921818
 21
114.89950082045698
  0
LINE
  8
_0-0_
  6
CONTINUOUS
 62
    7
 10
15.971100441660496
 20
114.52078908107023
 11
15.804947100154664
 21
114.69924787189848
  0
LINE
  8
_0-0_
  6
CONTINUOUS
 62
    7
 10
16.056194183680077
 20
114.44024040068643
 11
15.971100441660496
 21
114.52078908107023
  0
LINE
  8
_0-0_
  6
CONTINUOUS
 62
    7
 10
14.01275819924615
 20
119.96074323881749
 11
14.86433661600779
 21
109.71231861628075
  0
LINE
  8
_0-0_
  6
CONTINUOUS
 62
    7
 10
14.86433661600779
 20
130.20916786135376
 11
14.01275819924615
 21
119.96074323881749
  0
LINE
  8
_0-0_
  6
CONTINUOUS
 62
    7
 10
15.971100546528874
 20
125.40069750023531
 11
16.056194293120484
 21
125.48124617600661
  0
LINE
  8
_0-0_
  6
CONTINUOUS
 62
    7
 10
15.804947195676164
 20
125.22223871673805
 11
15.971100546528874
 21
125.40069750023531
  0
LINE
  8
_0-0_
  6
CONTINUOUS
 62
    7
 10
15.645023612964565
 20
125.02198577293029
 11
15.804947195676164
 21
125.22223871673805
  0
LINE
  8
_0-0_
  6
CONTINUOUS
 62
    7
 10
15.567691181610485
 20
124.91428481927232
 11
15.645023612964565
 21
125.02198577293029
  0
LINE
  8
_0-0_
  6
CONTINUOUS
 62
    7
 10
15.492250605838422
 20
124.80189520406748
 11
15.567691181610485
 21
124.91428481927232
  0
LINE
  8
_0-0_
  6
CONTINUOUS
 62
    7
 10
15.347431581061869
 20
124.56428620796987
 11
15.492250605838422
 21
124.80189520406748
  0
LINE
  8
_0-0_
  6
CONTINUOUS
 62
    7
 10
15.211284145305058
 20
124.31189010437356
 11
15.347431581061869
 21
124.56428620796987
  0
LINE
  8
_0-0_
  6
CONTINUOUS
 62
    7
 10
15.082816586077683
 20
124.04429953965291
 11
15.211284145305058
 21
124.31189010437356
  0
LINE
  8
_0-0_
  6
CONTINUOUS
 62
    7
 10
14.959089819502992
 20
123.75530690974983
 11
15.082816586077683
 21
124.04429953965291
  0
LINE
  8
_0-0_
  6
CONTINUOUS
 62
    7
 10
14.841156203278956
 20
123.446184260265
 11
14.959089819502992
 21
123.75530690974983
  0
LINE
  8
_0-0_
  6
CONTINUOUS
 62
    7
 10
14.784701396972309
 20
123.28466932266247
 11
14.841156203278956
 21
123.446184260265
  0
LINE
  8
_0-0_
  6
CONTINUOUS
 62
    7
 10
14.730079588324884
 20
123.1188639599568
 11
14.784701396972309
 21
123.28466932266247
  0
LINE
  8
_0-0_
  6
CONTINUOUS
 62
    7
 10
14.626759834023801
 20
122.7755351004339
 11
14.730079588324884
 21
123.1188639599568
  0
LINE
  8
_0-0_
  6
CONTINUOUS
 62
    7
 10
14.531962547204444
 20
122.41868732911325
 11
14.626759834023801
 21
122.7755351004339
  0
LINE
  8
_0-0_
  6
CONTINUOUS
 62
    7
 10
14.446274066460887
 20
122.05088902394846
 11
14.531962547204444
 21
122.41868732911325
  0
LINE
  8
_0-0_
  6
CONTINUOUS
 62
    7
 10
14.370113101612901
 20
121.67468967378682
 11
14.446274066460887
 21
122.05088902394846
  0
LINE
  8
_0-0_
  6
CONTINUOUS
 62
    7
 10
14.303841745221348
 20
121.29311172295183
 11
14.370113101612901
 21
121.67468967378682
  0
LINE
  8
_0-0_
  6
CONTINUOUS
 62
    7
 10
14.274487748595789
 20
121.10128581966819
 11
14.303841745221348
 21
121.29311172295183
  0
LINE
  8
_0-0_
  6
CONTINUOUS
 62
    7
 10
14.247673889058774
 20
120.90929465256386
 11
14.274487748595789
 21
121.10128581966819
  0
LINE
  8
_0-0_
  6
CONTINUOUS
 62
    7
 10
14.20167089762765
 20
120.52644962100112
 11
14.247673889058774
 21
120.90929465256386
  0
LINE
  8
_0-0_
  6
CONTINUOUS
 62
    7
 10
14.165745081885348
 20
120.14791795484598
 11
14.20167089762765
 21
120.52644962100112
  0
LINE
  8
_0-0_
  6
CONTINUOUS
 62
    7
 10
14.151446621965192
 20
119.96074323881749
 11
14.165745081885348
 21
120.14791795484598
  0
LINE
  8
_0-0_
  6
CONTINUOUS
 62
    7
 10
20.849767150045523
 20
127.86526762862286
 11
21.00292306087033
 21
127.89207799865881
  0
LINE
  8
_0-0_
  6
CONTINUOUS
 62
    7
 10
20.547572738303757
 20
127.80519836688109
 11
20.849767150045523
 21
127.86526762862286
  0
LINE
  8
_0-0_
  6
CONTINUOUS
 62
    7
 10
20.250977567753239
 20
127.73670386662889
 11
20.547572738303757
 21
127.80519836688109
  0
LINE
  8
_0-0_
  6
CONTINUOUS
 62
    7
 10
20.104805411636903
 20
127.69936262367855
 11
20.250977567753239
 21
127.73670386662889
  0
LINE
  8
_0-0_
  6
CONTINUOUS
 62
    7
 10
19.959427865985731
 20
127.65981715244197
 11
20.104805411636903
 21
127.69936262367855
  0
LINE
  8
_0-0_
  6
CONTINUOUS
 62
    7
 10
19.670112852814896
 20
127.57379076825373
 11
19.959427865985731
 21
127.65981715244197
  0
LINE
  8
_0-0_
  6
CONTINUOUS
 62
    7
 10
19.382924251424924
 20
127.47843116380409
 11
19.670112852814896
 21
127.57379076825373
  0
LINE
  8
_0-0_
  6
CONTINUOUS
 62
    7
 10
19.098100577036007
 20
127.37364974194998
 11
19.382924251424924
 21
127.47843116380409
  0
LINE
  8
_0-0_
  6
CONTINUOUS
 62
    7
 10
18.815869161194883
 20
127.25937422059496
 11
19.098100577036007
 21
127.37364974194998
  0
LINE
  8
_0-0_
  6
CONTINUOUS
 62
    7
 10
18.536445314219804
 20
127.13554813125393
 11
18.815869161194883
 21
127.25937422059496
  0
LINE
  8
_0-0_
  6
CONTINUOUS
 62
    7
 10
18.397850167980437
 20
127.07004020412251
 11
18.536445314219804
 21
127.13554813125393
  0
LINE
  8
_0-0_
  6
CONTINUOUS
 62
    7
 10
18.260032288396474
 20
127.00213051920809
 11
18.397850167980437
 21
127.07004020412251
  0
LINE
  8
_0-0_
  6
CONTINUOUS
 62
    7
 10
17.986822688986763
 20
126.85909640368982
 11
18.260032288396474
 21
127.00213051920809
  0
LINE
  8
_0-0_
  6
CONTINUOUS
 62
    7
 10
17.716998381904546
 20
126.70643669364699
 11
17.986822688986763
 21
126.85909640368982
  0
LINE
  8
_0-0_
  6
CONTINUOUS
 62
    7
 10
17.450729778808295
 20
126.54415768548552
 11
17.716998381904546
 21
126.70643669364699
  0
LINE
  8
_0-0_
  6
CONTINUOUS
 62
    7
 10
17.188174358524179
 20
126.37227983977346
 11
17.450729778808295
 21
126.54415768548552
  0
LINE
  8
_0-0_
  6
CONTINUOUS
 62
    7
 10
16.929470888408673
 20
126.190832988686
 11
17.188174358524179
 21
126.37227983977346
  0
LINE
  8
_0-0_
  6
CONTINUOUS
 62
    7
 10
16.801605843574748
 20
126.0965355295848
 11
16.929470888408673
 21
126.190832988686
  0
LINE
  8
_0-0_
  6
CONTINUOUS
 62
    7
 10
16.674753495463506
 20
125.99986513926888
 11
16.801605843574748
 21
126.0965355295848
  0
LINE
  8
_0-0_
  6
CONTINUOUS
 62
    7
 10
16.424147525604553
 20
125.79944030822207
 11
16.674753495463506
 21
125.99986513926888
  0
LINE
  8
_0-0_
  6
CONTINUOUS
 62
    7
 10
16.177767235129636
 20
125.58963677201973
 11
16.424147525604553
 21
125.79944030822207
  0
LINE
  8
_0-0_
  6
CONTINUOUS
 62
    7
 10
16.056194293120484
 20
125.48124617600661
 11
16.177767235129636
 21
125.58963677201973
  0
LINE
  8
_0-0_
  6
CONTINUOUS
 62
    7
 10
22.540867355487649
 20
127.91325824605974
 11
22.685018122711085
 21
127.89207799865881
  0
LINE
  8
_0-0_
  6
CONTINUOUS
 62
    7
 10
22.255324954595039
 20
127.94380361794583
 11
22.540867355487649
 21
127.91325824605974
  0
LINE
  8
_0-0_
  6
CONTINUOUS
 62
    7
 10
21.973953919905512
 20
127.95888000600598
 11
22.255324954595039
 21
127.94380361794583
  0
LINE
  8
_0-0_
  6
CONTINUOUS
 62
    7
 10
21.835013295122394
 20
127.96074323881703
 11
21.973953919905512
 21
127.95888000600598
  0
LINE
  8
_0-0_
  6
CONTINUOUS
 62
    7
 10
21.69664991242928
 20
127.95888241854254
 11
21.835013295122394
 21
127.96074323881703
  0
LINE
  8
_0-0_
  6
CONTINUOUS
 62
    7
 10
21.419311925579336
 20
127.94381830936254
 11
21.69664991242928
 21
127.95888241854254
  0
LINE
  8
_0-0_
  6
CONTINUOUS
 62
    7
 10
21.141660328034163
 20
127.9132719769691
 11
21.419311925579336
 21
127.94381830936254
  0
LINE
  8
_0-0_
  6
CONTINUOUS
 62
    7
 10
21.00292306087033
 20
127.89207799865881
 11
21.141660328034163
 21
127.9132719769691
  0
LINE
  8
_0-0_
  6
CONTINUOUS
 62
    7
 10
28.687201665827729
 20
125.58744576594927
 11
28.864820012133009
 21
125.48124605695239
  0
LINE
  8
_0-0_
  6
CONTINUOUS
 62
    7
 10
28.332088879395201
 20
125.79342320919704
 11
28.687201665827729
 21
125.58744576594927
  0
LINE
  8
_0-0_
  6
CONTINUOUS
 62
    7
 10
27.977262864315094
 20
125.99078653612059
 11
28.332088879395201
 21
125.79342320919704
  0
LINE
  8
_0-0_
  6
CONTINUOUS
 62
    7
 10
27.800028912584025
 20
126.08620457208008
 11
27.977262864315094
 21
125.99078653612059
  0
LINE
  8
_0-0_
  6
CONTINUOUS
 62
    7
 10
27.622954815686739
 20
126.17942875152266
 11
27.800028912584025
 21
126.08620457208008
  0
LINE
  8
_0-0_
  6
CONTINUOUS
 62
    7
 10
27.269406735775306
 20
126.35924494247047
 11
27.622954815686739
 21
126.17942875152266
  0
LINE
  8
_0-0_
  6
CONTINUOUS
 62
    7
 10
26.916857776862003
 20
126.53014034106536
 11
27.269406735775306
 21
126.35924494247047
  0
LINE
  8
_0-0_
  6
CONTINUOUS
 62
    7
 10
26.565543357742285
 20
126.69203075353562
 11
26.916857776862003
 21
126.53014034106536
  0
LINE
  8
_0-0_
  6
CONTINUOUS
 62
    7
 10
26.215694337884202
 20
126.84484288985914
 11
26.565543357742285
 21
126.69203075353562
  0
LINE
  8
_0-0_
  6
CONTINUOUS
 62
    7
 10
25.867537368975832
 20
126.98851415171976
 11
26.215694337884202
 21
126.84484288985914
  0
LINE
  8
_0-0_
  6
CONTINUOUS
 62
    7
 10
25.694163371511081
 20
127.05690520720782
 11
25.867537368975832
 21
126.98851415171976
  0
LINE
  8
_0-0_
  6
CONTINUOUS
 62
    7
 10
25.521295907744957
 20
127.1229922695079
 11
25.694163371511081
 21
127.05690520720782
  0
LINE
  8
_0-0_
  6
CONTINUOUS
 62
    7
 10
25.177189620073591
 20
127.24823569951332
 11
25.521295907744957
 21
127.1229922695079
  0
LINE
  8
_0-0_
  6
CONTINUOUS
 62
    7
 10
24.835433495843631
 20
127.364214074345
 11
25.177189620073591
 21
127.24823569951332
  0
LINE
  8
_0-0_
  6
CONTINUOUS
 62
    7
 10
24.496236884961149
 20
127.47090858951015
 11
24.835433495843631
 21
127.364214074345
  0
LINE
  8
_0-0_
  6
CONTINUOUS
 62
    7
 10
24.159794233017351
 20
127.56831458378338
 11
24.496236884961149
 21
127.47090858951015
  0
LINE
  8
_0-0_
  6
CONTINUOUS
 62
    7
 10
23.826298214913209
 20
127.65643711021767
 11
24.159794233017351
 21
127.56831458378338
  0
LINE
  8
_0-0_
  6
CONTINUOUS
 62
    7
 10
23.660716043091838
 20
127.69702117635052
 11
23.826298214913209
 21
127.65643711021767
  0
LINE
  8
_0-0_
  6
CONTINUOUS
 62
    7
 10
23.495942909831342
 20
127.73529077576404
 11
23.660716043091838
 21
127.69702117635052
  0
LINE
  8
_0-0_
  6
CONTINUOUS
 62
    7
 10
23.16891702281066
 20
127.80490211071765
 11
23.495942909831342
 21
127.73529077576404
  0
LINE
  8
_0-0_
  6
CONTINUOUS
 62
    7
 10
22.845403034025026
 20
127.86530990210213
 11
23.16891702281066
 21
127.80490211071765
  0
LINE
  8
_0-0_
  6
CONTINUOUS
 62
    7
 10
22.685018122711085
 20
127.89207799865881
 11
22.845403034025026
 21
127.86530990210213
  0
LINE
  8
_0-0_
  6
CONTINUOUS
 62
    7
 10
31.259673306972331
 20
120.14857442457424
 11
31.248570003260397
 21
119.96074323881749
  0
LINE
  8
_0-0_
  6
CONTINUOUS
 62
    7
 10
31.267961600189324
 20
120.52772842598597
 11
31.259673306972331
 21
120.14857442457424
  0
LINE
  8
_0-0_
  6
CONTINUOUS
 62
    7
 10
31.256918877131397
 20
120.91134618661272
 11
31.267961600189324
 21
120.52772842598597
  0
LINE
  8
_0-0_
  6
CONTINUOUS
 62
    7
 10
31.243891230590293
 20
121.10375755045015
 11
31.256918877131397
 21
120.91134618661272
  0
LINE
  8
_0-0_
  6
CONTINUOUS
 62
    7
 10
31.225776728513779
 20
121.29601352633472
 11
31.243891230590293
 21
121.10375755045015
  0
LINE
  8
_0-0_
  6
CONTINUOUS
 62
    7
 10
31.174193554006365
 20
121.67845070062185
 11
31.225776728513779
 21
121.29601352633472
  0
LINE
  8
_0-0_
  6
CONTINUOUS
 62
    7
 10
31.102243446692341
 20
122.05546111322928
 11
31.174193554006365
 21
121.67845070062185
  0
LINE
  8
_0-0_
  6
CONTINUOUS
 62
    7
 10
31.010408312441655
 20
122.42395926382505
 11
31.102243446692341
 21
122.05546111322928
  0
LINE
  8
_0-0_
  6
CONTINUOUS
 62
    7
 10
30.899451401377632
 20
122.78134689689932
 11
31.010408312441655
 21
122.42395926382505
  0
LINE
  8
_0-0_
  6
CONTINUOUS
 62
    7
 10
30.770498172506109
 20
123.12504648403819
 11
30.899451401377632
 21
122.78134689689932
  0
LINE
  8
_0-0_
  6
CONTINUOUS
 62
    7
 10
30.699734513209592
 20
123.29096467237105
 11
30.770498172506109
 21
123.12504648403819
  0
LINE
  8
_0-0_
  6
CONTINUOUS
 62
    7
 10
30.62506561476232
 20
123.45254023972484
 11
30.699734513209592
 21
123.29096467237105
  0
LINE
  8
_0-0_
  6
CONTINUOUS
 62
    7
 10
30.4649787205027
 20
123.76162293724201
 11
30.62506561476232
 21
123.45254023972484
  0
LINE
  8
_0-0_
  6
CONTINUOUS
 62
    7
 10
30.292379763188023
 20
124.05035982960089
 11
30.4649787205027
 21
123.76162293724201
  0
LINE
  8
_0-0_
  6
CONTINUOUS
 62
    7
 10
30.109505200957415
 20
124.31741108594088
 11
30.292379763188023
 21
124.05035982960089
  0
LINE
  8
_0-0_
  6
CONTINUOUS
 62
    7
 10
29.912879643303881
 20
124.56883875098401
 11
30.109505200957415
 21
124.31741108594088
  0
LINE
  8
_0-0_
  6
CONTINUOUS
 62
    7
 10
29.701286267713499
 20
124.80536488690723
 11
29.912879643303881
 21
124.56883875098401
  0
LINE
  8
_0-0_
  6
CONTINUOUS
 62
    7
 10
29.590311650705303
 20
124.91719917246246
 11
29.701286267713499
 21
124.80536488690723
  0
LINE
  8
_0-0_
  6
CONTINUOUS
 62
    7
 10
29.476140237238383
 20
125.02434935742394
 11
29.590311650705303
 21
124.91719917246246
  0
LINE
  8
_0-0_
  6
CONTINUOUS
 62
    7
 10
29.23902532398381
 20
125.22355347606708
 11
29.476140237238383
 21
125.02434935742394
  0
LINE
  8
_0-0_
  6
CONTINUOUS
 62
    7
 10
28.991708383758237
 20
125.40109160645079
 11
29.23902532398381
 21
125.22355347606708
  0
LINE
  8
_0-0_
  6
CONTINUOUS
 62
    7
 10
28.864820012133009
 20
125.48124605695239
 11
28.991708383758237
 21
125.40109160645079
  0
LINE
  8
_0-0_
  6
CONTINUOUS
 62
    7
 10
14.866142354770204
 20
130.23001773469832
 11
14.86433661600779
 21
130.20916786135376
  0
LINE
  8
_0-0_
  6
CONTINUOUS
 62
    7
 10
14.870187417544116
 20
130.27165287688058
 11
14.866142354770204
 21
130.23001773469832
  0
LINE
  8
_0-0_
  6
CONTINUOUS
 62
    7
 10
14.874809016836593
 20
130.31319709717309
 11
14.870187417544116
 21
130.27165287688058
  0
LINE
  8
_0-0_
  6
CONTINUOUS
 62
    7
 10
14.87733542899025
 20
130.33393331839443
 11
14.874809016836593
 21
130.31319709717309
  0
LINE
  8
_0-0_
  6
CONTINUOUS
 62
    7
 10
14.880005270155948
 20
130.35464465735959
 11
14.87733542899025
 21
130.33393331839443
  0
LINE
  8
_0-0_
  6
CONTINUOUS
 62
    7
 10
14.885774304955817
 20
130.39598981965764
 11
14.880005270155948
 21
130.35464465735959
  0
LINE
  8
_0-0_
  6
CONTINUOUS
 62
    7
 10
14.89211425698079
 20
130.43722684625118
 11
14.885774304955817
 21
130.39598981965764
  0
LINE
  8
_0-0_
  6
CONTINUOUS
 62
    7
 10
14.899023268717087
 20
130.47834999894758
 11
14.89211425698079
 21
130.43722684625118
  0
LINE
  8
_0-0_
  6
CONTINUOUS
 62
    7
 10
14.906499487969654
 20
130.51935353894805
 11
14.899023268717087
 21
130.47834999894758
  0
LINE
  8
_0-0_
  6
CONTINUOUS
 62
    7
 10
14.91454106654794
 20
130.56023172670757
 11
14.906499487969654
 21
130.51935353894805
  0
LINE
  8
_0-0_
  6
CONTINUOUS
 62
    7
 10
14.91877328882731
 20
130.58062201967277
 11
14.91454106654794
 21
130.56023172670757
  0
LINE
  8
_0-0_
  6
CONTINUOUS
 62
    7
 10
14.923146159087651
 20
130.6009788218912
 11
14.91877328882731
 21
130.58062201967277
  0
LINE
  8
_0-0_
  6
CONTINUOUS
 62
    7
 10
14.932312921988
 20
130.64158908339232
 11
14.923146159087651
 21
130.6009788218912
  0
LINE
  8
_0-0_
  6
CONTINUOUS
 62
    7
 10
14.942039512488577
 20
130.68205676941761
 11
14.932312921988
 21
130.64158908339232
  0
LINE
  8
_0-0_
  6
CONTINUOUS
 62
    7
 10
14.952324087868078
 20
130.72237613761263
 11
14.942039512488577
 21
130.68205676941761
  0
LINE
  8
_0-0_
  6
CONTINUOUS
 62
    7
 10
14.963164804775829
 20
130.76254144522318
 11
14.952324087868078
 21
130.72237613761263
  0
LINE
  8
_0-0_
  6
CONTINUOUS
 62
    7
 10
14.97455981870155
 20
130.80254694928135
 11
14.963164804775829
 21
130.76254144522318
  0
LINE
  8
_0-0_
  6
CONTINUOUS
 62
    7
 10
14.980464610214881
 20
130.82248798028922
 11
14.97455981870155
 21
130.80254694928135
  0
LINE
  8
_0-0_
  6
CONTINUOUS
 62
    7
 10
14.986507283562446
 20
130.84238690679513
 11
14.980464610214881
 21
130.82248798028922
  0
LINE
  8
_0-0_
  6
CONTINUOUS
 62
    7
 10
14.999005351427172
 20
130.88205557493848
 11
14.986507283562446
 21
130.84238690679513
  0
LINE
  8
_0-0_
  6
CONTINUOUS
 62
    7
 10
15.012052172364861
 20
130.9215472112196
 11
14.999005351427172
 21
130.88205557493848
  0
LINE
  8
_0-0_
  6
CONTINUOUS
 62
    7
 10
15.01878078657694
 20
130.94122484801164
 11
15.012052172364861
 21
130.9215472112196
  0
LINE
  8
_0-0_
  6
CONTINUOUS
 62
    7
 10
15.025645894416925
 20
130.9608560736292
 11
15.01878078657694
 21
130.94122484801164
  0
LINE
  8
_0-0_
  6
CONTINUOUS
 62
    7
 10
15.039784663683463
 20
130.99997642074413
 11
15.025645894416925
 21
130.9608560736292
  0
LINE
  8
_0-0_
  6
CONTINUOUS
 62
    7
 10
15.054466624536985
 20
131.038902511782
 11
15.039784663683463
 21
130.99997642074413
  0
LINE
  8
_0-0_
  6
CONTINUOUS
 62
    7
 10
15.062010721526462
 20
131.05829091745136
 11
15.054466624536985
 21
131.038902511782
  0
LINE
  8
_0-0_
  6
CONTINUOUS
 62
    7
 10
15.069689919933012
 20
131.07762860659068
 11
15.062010721526462
 21
131.05829091745136
  0
LINE
  8
_0-0_
  6
CONTINUOUS
 62
    7
 10
15.085452691837077
 20
131.11614896556921
 11
15.069689919933012
 21
131.07762860659068
  0
LINE
  8
_0-0_
  6
CONTINUOUS
 62
    7
 10
15.101753081746779
 20
131.15445784950225
 11
15.085452691837077
 21
131.11614896556921
  0
LINE
  8
_0-0_
  6
CONTINUOUS
 62
    7
 10
15.118589231301598
 20
131.19254951929906
 11
15.101753081746779
 21
131.15445784950225
  0
LINE
  8
_0-0_
  6
CONTINUOUS
 62
    7
 10
15.135959282990484
 20
131.23041823563108
 11
15.118589231301598
 21
131.19254951929906
  0
LINE
  8
_0-0_
  6
CONTINUOUS
 62
    7
 10
15.153861380921285
 20
131.26805825845713
 11
15.135959282990484
 21
131.23041823563108
  0
LINE
  8
_0-0_
  6
CONTINUOUS
 62
    7
 10
15.163011367912645
 20
131.28679071570241
 11
15.153861380921285
 21
131.26805825845713
  0
LINE
  8
_0-0_
  6
CONTINUOUS
 62
    7
 10
15.172293671673856
 20
131.30546384642184
 11
15.163011367912645
 21
131.28679071570241
  0
LINE
  8
_0-0_
  6
CONTINUOUS
 62
    7
 10
15.191240595855675
 20
131.34260283903632
 11
15.172293671673856
 21
131.30546384642184
  0
LINE
  8
_0-0_
  6
CONTINUOUS
 62
    7
 10
15.210684335569226
 20
131.37944235608757
 11
15.191240595855675
 21
131.34260283903632
  0
LINE
  8
_0-0_
  6
CONTINUOUS
 62
    7
 10
15.230620878809646
 20
131.41597799458941
 11
15.210684335569226
 21
131.37944235608757
  0
LINE
  8
_0-0_
  6
CONTINUOUS
 62
    7
 10
15.251046231257646
 20
131.4522053532578
 11
15.230620878809646
 21
131.41597799458941
  0
LINE
  8
_0-0_
  6
CONTINUOUS
 62
    7
 10
15.271956411114957
 20
131.48812002643535
 11
15.251046231257646
 21
131.4522053532578
  0
LINE
  8
_0-0_
  6
CONTINUOUS
 62
    7
 10
15.282592069950283
 20
131.50595872803433
 11
15.271956411114957
 21
131.48812002643535
  0
LINE
  8
_0-0_
  6
CONTINUOUS
 62
    7
 10
15.293347447151632
 20
131.52371760423057
 11
15.282592069950283
 21
131.50595872803433
  0
LINE
  8
_0-0_
  6
CONTINUOUS
 62
    7
 10
15.315215376895253
 20
131.55899367273651
 11
15.293347447151632
 21
131.52371760423057
  0
LINE
  8
_0-0_
  6
CONTINUOUS
 62
    7
 10
15.337556244978373
 20
131.59394381433231
 11
15.315215376895253
 21
131.55899367273651
  0
LINE
  8
_0-0_
  6
CONTINUOUS
 62
    7
 10
15.360366101625573
 20
131.62856360804562
 11
15.337556244978373
 21
131.59394381433231
  0
LINE
  8
_0-0_
  6
CONTINUOUS
 62
    7
 10
15.38364100129877
 20
131.6628486299619
 11
15.360366101625573
 21
131.62856360804562
  0
LINE
  8
_0-0_
  6
CONTINUOUS
 62
    7
 10
15.407377001484406
 20
131.69679445367274
 11
15.38364100129877
 21
131.6628486299619
  0
LINE
  8
_0-0_
  6
CONTINUOUS
 62
    7
 10
15.419416682794804
 20
131.71363878238071
 11
15.407377001484406
 21
131.69679445367274
  0
LINE
  8
_0-0_
  6
CONTINUOUS
 62
    7
 10
15.431570161624336
 20
131.73039665074202
 11
15.419416682794804
 21
131.71363878238071
  0
LINE
  8
_0-0_
  6
CONTINUOUS
 62
    7
 10
15.456216542192692
 20
131.76365079119068
 11
15.431570161624336
 21
131.73039665074202
  0
LINE
  8
_0-0_
  6
CONTINUOUS
 62
    7
 10
15.48131220390917
 20
131.79655244397281
 11
15.456216542192692
 21
131.76365079119068
  0
LINE
  8
_0-0_
  6
CONTINUOUS
 62
    7
 10
15.506853207086465
 20
131.82909717744451
 11
15.48131220390917
 21
131.79655244397281
  0
LINE
  8
_0-0_
  6
CONTINUOUS
 62
    7
 10
15.532835611109135
 20
131.86128055980544
 11
15.506853207086465
 21
131.82909717744451
  0
LINE
  8
_0-0_
  6
CONTINUOUS
 62
    7
 10
15.55925547403524
 20
131.89309815950719
 11
15.532835611109135
 21
131.86128055980544
  0
LINE
  8
_0-0_
  6
CONTINUOUS
 62
    7
 10
15.572628220296906
 20
131.90886840616122
 11
15.55925547403524
 21
131.89309815950719
  0
LINE
  8
_0-0_
  6
CONTINUOUS
 62
    7
 10
15.586108852318944
 20
131.92454554561573
 11
15.572628220296906
 21
131.90886840616122
  0
LINE
  8
_0-0_
  6
CONTINUOUS
 62
    7
 10
15.613391800646809
 20
131.95561828811742
 11
15.586108852318944
 21
131.92454554561573
  0
LINE
  8
_0-0_
  6
CONTINUOUS
 62
    7
 10
15.641100371875496
 20
131.98631195816142
 11
15.613391800646809
 21
131.95561828811742
  0
LINE
  8
_0-0_
  6
CONTINUOUS
 62
    7
 10
15.669230617074049
 20
132.01662212822566
 11
15.641100371875496
 21
131.98631195816142
  0
LINE
  8
_0-0_
  6
CONTINUOUS
 62
    7
 10
15.697778585658057
 20
132.04654437220324
 11
15.669230617074049
 21
132.01662212822566
  0
LINE
  8
_0-0_
  6
CONTINUOUS
 62
    7
 10
15.726740325599735
 20
132.07607426539471
 11
15.697778585658057
 21
132.04654437220324
  0
LINE
  8
_0-0_
  6
CONTINUOUS
 62
    7
 10
15.741375124497722
 20
132.0906906980872
 11
15.726740325599735
 21
132.07607426539471
  0
LINE
  8
_0-0_
  6
CONTINUOUS
 62
    7
 10
15.756111883722156
 20
132.10520738439936
 11
15.741375124497722
 21
132.0906906980872
  0
LINE
  8
_0-0_
  6
CONTINUOUS
 62
    7
 10
15.785889306054855
 20
132.13393930690654
 11
15.756111883722156
 21
132.10520738439936
  0
LINE
  8
_0-0_
  6
CONTINUOUS
 62
    7
 10
15.816068638246747
 20
132.16226561136864
 11
15.785889306054855
 21
132.13393930690654
  0
LINE
  8
_0-0_
  6
CONTINUOUS
 62
    7
 10
15.831307784814385
 20
132.17627527519971
 11
15.816068638246747
 21
132.16226561136864
  0
LINE
  8
_0-0_
  6
CONTINUOUS
 62
    7
 10
15.846645926029055
 20
132.19018187655274
 11
15.831307784814385
 21
132.17627527519971
  0
LINE
  8
_0-0_
  6
CONTINUOUS
 62
    7
 10
15.877616922789116
 20
132.21768342445921
 11
15.846645926029055
 21
132.19018187655274
  0
LINE
  8
_0-0_
  6
CONTINUOUS
 62
    7
 10
15.908953083588244
 20
132.24474491095634
 11
15.877616922789116
 21
132.21768342445921
  0
LINE
  8
_0-0_
  6
CONTINUOUS
 62
    7
 10
15.92475071388219
 20
132.25810463484049
 11
15.908953083588244
 21
132.24474491095634
  0
LINE
  8
_0-0_
  6
CONTINUOUS
 62
    7
 10
15.9406338409932
 20
132.27134990930426
 11
15.92475071388219
 21
132.25810463484049
  0
LINE
  8
_0-0_
  6
CONTINUOUS
 62
    7
 10
15.972653980250129
 20
132.29749579724967
 11
15.9406338409932
 21
132.27134990930426
  0
LINE
  8
_0-0_
  6
CONTINUOUS
 62
    7
 10
16.00500829618943
 20
132.32317994442155
 11
15.972653980250129
 21
132.29749579724967
  0
LINE
  8
_0-0_
  6
CONTINUOUS
 62
    7
 10
16.037691591580938
 20
132.34839971315068
 11
16.00500829618943
 21
132.32317994442155
  0
LINE
  8
_0-0_
  6
CONTINUOUS
 62
    7
 10
16.070698675653261
 20
132.37315245931086
 11
16.037691591580938
 21
132.34839971315068
  0
LINE
  8
_0-0_
  6
CONTINUOUS
 62
    7
 10
16.104024362762743
 20
132.39743553316657
 11
16.070698675653261
 21
132.37315245931086
  0
LINE
  8
_0-0_
  6
CONTINUOUS
 62
    7
 10
16.120805063054945
 20
132.40940011361272
 11
16.104024362762743
 21
132.39743553316657
  0
LINE
  8
_0-0_
  6
CONTINUOUS
 62
    7
 10
16.137663471224755
 20
132.42124628021884
 11
16.120805063054945
 21
132.40940011361272
  0
LINE
  8
_0-0_
  6
CONTINUOUS
 62
    7
 10
16.171610822281878
 20
132.44458204203329
 11
16.137663471224755
 21
132.42124628021884
  0
LINE
  8
_0-0_
  6
CONTINUOUS
 62
    7
 10
16.205861239217597
 20
132.46744015704598
 11
16.171610822281878
 21
132.44458204203329
  0
LINE
  8
_0-0_
  6
CONTINUOUS
 62
    7
 10
16.240409546602336
 20
132.48981796133558
 11
16.205861239217597
 21
132.46744015704598
  0
LINE
  8
_0-0_
  6
CONTINUOUS
 62
    7
 10
16.275250569666809
 20
132.51171278934316
 11
16.240409546602336
 21
132.48981796133558
  0
LINE
  8
_0-0_
  6
CONTINUOUS
 62
    7
 10
16.310379133790889
 20
132.5331219745508
 11
16.275250569666809
 21
132.51171278934316
  0
LINE
  8
_0-0_
  6
CONTINUOUS
 62
    7
 10
16.328049626623056
 20
132.54364361770513
 11
16.310379133790889
 21
132.5331219745508
  0
LINE
  8
_0-0_
  6
CONTINUOUS
 62
    7
 10
16.345790064110702
 20
132.5540428500849
 11
16.328049626623056
 21
132.54364361770513
  0
LINE
  8
_0-0_
  6
CONTINUOUS
 62
    7
 10
16.381478185223955
 20
132.57447274925926
 11
16.345790064110702
 21
132.5540428500849
  0
LINE
  8
_0-0_
  6
CONTINUOUS
 62
    7
 10
16.417438320995757
 20
132.59440900603522
 11
16.381478185223955
 21
132.57447274925926
  0
LINE
  8
_0-0_
  6
CONTINUOUS
 62
    7
 10
16.453665294445386
 20
132.61384895539641
 11
16.417438320995757
 21
132.59440900603522
  0
LINE
  8
_0-0_
  6
CONTINUOUS
 62
    7
 10
16.490153927715369
 20
132.63278993363838
 11
16.453665294445386
 21
132.61384895539641
  0
LINE
  8
_0-0_
  6
CONTINUOUS
 62
    7
 10
16.526899042111495
 20
132.65122927855373
 11
16.490153927715369
 21
132.63278993363838
  0
LINE
  8
_0-0_
  6
CONTINUOUS
 62
    7
 10
16.545366161182869
 20
132.66026000700685
 11
16.526899042111495
 21
132.65122927855373
  0
LINE
  8
_0-0_
  6
CONTINUOUS
 62
    7
 10
16.563895458195134
 20
132.66916432951939
 11
16.545366161182869
 21
132.66026000700685
  0
LINE
  8
_0-0_
  6
CONTINUOUS
 62
    7
 10
16.60113799593239
 20
132.68659242747708
 11
16.563895458195134
 21
132.66916432951939
  0
LINE
  8
_0-0_
  6
CONTINUOUS
 62
    7
 10
16.638621474880097
 20
132.70351091479688
 11
16.60113799593239
 21
132.68659242747708
  0
LINE
  8
_0-0_
  6
CONTINUOUS
 62
    7
 10
16.676340714403636
 20
132.71991713503257
 11
16.638621474880097
 21
132.70351091479688
  0
LINE
  8
_0-0_
  6
CONTINUOUS
 62
    7
 10
16.714290533911139
 20
132.73580843255195
 11
16.676340714403636
 21
132.71991713503257
  0
LINE
  8
_0-0_
  6
CONTINUOUS
 62
    7
 10
16.752465753105412
 20
132.7511821520493
 11
16.714290533911139
 21
132.73580843255195
  0
LINE
  8
_0-0_
  6
CONTINUOUS
 62
    7
 10
16.771636268881252
 20
132.75867409019838
 11
16.752465753105412
 21
132.7511821520493
  0
LINE
  8
_0-0_
  6
CONTINUOUS
 62
    7
 10
16.790861192223133
 20
132.76603563793424
 11
16.771636268881252
 21
132.75867409019838
  0
LINE
  8
_0-0_
  6
CONTINUOUS
 62
    7
 10
16.829450240196024
 20
132.78035844576243
 11
16.790861192223133
 21
132.76603563793424
  0
LINE
  8
_0-0_
  6
CONTINUOUS
 62
    7
 10
16.868205780567337
 20
132.79414127826112
 11
16.829450240196024
 21
132.78035844576243
  0
LINE
  8
_0-0_
  6
CONTINUOUS
 62
    7
 10
16.907122117595122
 20
132.80738328401003
 11
16.868205780567337
 21
132.79414127826112
  0
LINE
  8
_0-0_
  6
CONTINUOUS
 62
    7
 10
16.946193559480548
 20
132.82008360435611
 11
16.907122117595122
 21
132.80738328401003
  0
LINE
  8
_0-0_
  6
CONTINUOUS
 62
    7
 10
16.985414417405195
 20
132.83224137453362
 11
16.946193559480548
 21
132.82008360435611
  0
LINE
  8
_0-0_
  6
CONTINUOUS
 62
    7
 10
17.005079100255102
 20
132.83811653166913
 11
16.985414417405195
 21
132.83224137453362
  0
LINE
  8
_0-0_
  6
CONTINUOUS
 62
    7
 10
17.024779004780726
 20
132.84385572475776
 11
17.005079100255102
 21
132.83811653166913
  0
LINE
  8
_0-0_
  6
CONTINUOUS
 62
    7
 10
17.064281636606779
 20
132.85492578125468
 11
17.024779004780726
 21
132.84385572475776
  0
LINE
  8
_0-0_
  6
CONTINUOUS
 62
    7
 10
17.103916628958473
 20
132.86545066721919
 11
17.064281636606779
 21
132.85492578125468
  0
LINE
  8
_0-0_
  6
CONTINUOUS
 62
    7
 10
17.123781984294624
 20
132.87050839664198
 11
17.103916628958473
 21
132.86545066721919
  0
LINE
  8
_0-0_
  6
CONTINUOUS
 62
    7
 10
17.143678298570308
 20
132.87542950370016
 11
17.123781984294624
 21
132.87050839664198
  0
LINE
  8
_0-0_
  6
CONTINUOUS
 62
    7
 10
17.183560962515116
 20
132.88486141039357
 11
17.143678298570308
 21
132.87542950370016
  0
LINE
  8
_0-0_
  6
CONTINUOUS
 62
    7
 10
17.223558937979419
 20
132.89374550635648
 11
17.183560962515116
 21
132.88486141039357
  0
LINE
  8
_0-0_
  6
CONTINUOUS
 62
    7
 10
17.243599391642078
 20
132.8979818499979
 11
17.223558937979419
 21
132.89374550635648
  0
LINE
  8
_0-0_
  6
CONTINUOUS
 62
    7
 10
17.263666542103351
 20
132.90208091062004
 11
17.243599391642078
 21
132.8979818499979
  0
LINE
  8
_0-0_
  6
CONTINUOUS
 62
    7
 10
17.303878091899264
 20
132.9098667427088
 11
17.263666542103351
 21
132.90208091062004
  0
LINE
  8
_0-0_
  6
CONTINUOUS
 62
    7
 10
17.344187904224441
 20
132.91710212304952
 11
17.303878091899264
 21
132.9098667427088
  0
LINE
  8
_0-0_
  6
CONTINUOUS
 62
    7
 10
17.384590295798375
 20
132.92378617328814
 11
17.344187904224441
 21
132.91710212304952
  0
LINE
  8
_0-0_
  6
CONTINUOUS
 62
    7
 10
17.425079583266438
 20
132.92991801648213
 11
17.384590295798375
 21
132.92378617328814
  0
LINE
  8
_0-0_
  6
CONTINUOUS
 62
    7
 10
17.465650083283094
 20
132.93549677719147
 11
17.425079583266438
 21
132.92991801648213
  0
LINE
  8
_0-0_
  6
CONTINUOUS
 62
    7
 10
17.485964011981309
 20
132.93807847844801
 11
17.465650083283094
 21
132.93549677719147
  0
LINE
  8
_0-0_
  6
CONTINUOUS
 62
    7
 10
17.506296112621499
 20
132.94052158145678
 11
17.485964011981309
 21
132.93807847844801
  0
LINE
  8
_0-0_
  6
CONTINUOUS
 62
    7
 10
17.547011988285362
 20
132.94499155665699
 11
17.506296112621499
 21
132.94052158145678
  0
LINE
  8
_0-0_
  6
CONTINUOUS
 62
    7
 10
17.587792027621731
 20
132.94890583125834
 11
17.547011988285362
 21
132.94499155665699
  0
LINE
  8
_0-0_
  6
CONTINUOUS
 62
    7
 10
17.628630548419665
 20
132.95226353444377
 11
17.587792027621731
 21
132.94890583125834
  0
LINE
  8
_0-0_
  6
CONTINUOUS
 62
    7
 10
17.669521868989364
 20
132.9550637956313
 11
17.628630548419665
 21
132.95226353444377
  0
LINE
  8
_0-0_
  6
CONTINUOUS
 62
    7
 10
17.710460308202641
 20
132.95730574387289
 11
17.669521868989364
 21
132.9550637956313
  0
LINE
  8
_0-0_
  6
CONTINUOUS
 62
    7
 10
17.730945422103673
 20
132.95821707819687
 11
17.710460308202641
 21
132.95730574387289
  0
LINE
  8
_0-0_
  6
CONTINUOUS
 62
    7
 10
17.751440185497472
 20
132.95898850714866
 11
17.730945422103673
 21
132.95821707819687
  0
LINE
  8
_0-0_
  6
CONTINUOUS
 62
    7
 10
17.792455820824784
 20
132.96011121154015
 11
17.751440185497472
 21
132.95898850714866
  0
LINE
  8
_0-0_
  6
CONTINUOUS
 62
    7
 10
17.833501534529773
 20
132.96067298030357
 11
17.792455820824784
 21
132.96011121154015
  0
LINE
  8
_0-0_
  6
CONTINUOUS
 62
    7
 10
17.854033123500017
 20
132.96074323881703
 11
17.833501534529773
 21
132.96067298030357
  0
LINE
  8
_0-0_
  6
CONTINUOUS
 62
    7
 10
149.17574925113979
 20
112.0562188495046
 11
149.02259333762015
 21
112.02940847897526
  0
LINE
  8
_0-0_
  6
CONTINUOUS
 62
    7
 10
149.47794366805658
 20
112.11628811244373
 11
149.17574925113979
 21
112.0562188495046
  0
LINE
  8
_0-0_
  6
CONTINUOUS
 62
    7
 10
149.77453884349563
 20
112.18478261415976
 11
149.47794366805658
 21
112.11628811244373
  0
LINE
  8
_0-0_
  6
CONTINUOUS
 62
    7
 10
149.92071100227724
 20
112.22212385802322
 11
149.77453884349563
 21
112.18478261415976
  0
LINE
  8
_0-0_
  6
CONTINUOUS
 62
    7
 10
150.0660885522226
 20
112.26166933072091
 11
149.92071100227724
 21
112.22212385802322
  0
LINE
  8
_0-0_
  6
CONTINUOUS
 62
    7
 10
150.35540357375396
 20
112.34769571821244
 11
150.0660885522226
 21
112.26166933072091
  0
LINE
  8
_0-0_
  6
CONTINUOUS
 62
    7
 10
150.64259218319523
 20
112.44305532646831
 11
150.35540357375396
 21
112.34769571821244
  0
LINE
  8
_0-0_
  6
CONTINUOUS
 62
    7
 10
150.92741586531849
 20
112.54783675262524
 11
150.64259218319523
 21
112.44305532646831
  0
LINE
  8
_0-0_
  6
CONTINUOUS
 62
    7
 10
151.20964728857427
 20
112.66211227877329
 11
150.92741586531849
 21
112.54783675262524
  0
LINE
  8
_0-0_
  6
CONTINUOUS
 62
    7
 10
151.48907114264114
 20
112.7859383733894
 11
151.20964728857427
 21
112.66211227877329
  0
LINE
  8
_0-0_
  6
CONTINUOUS
 62
    7
 10
151.62766629230384
 20
112.85144630333662
 11
151.48907114264114
 21
112.7859383733894
  0
LINE
  8
_0-0_
  6
CONTINUOUS
 62
    7
 10
151.76548417523065
 20
112.91935599118415
 11
151.62766629230384
 21
112.85144630333662
  0
LINE
  8
_0-0_
  6
CONTINUOUS
 62
    7
 10
152.03869378107777
 20
113.06239011291336
 11
151.76548417523065
 21
112.91935599118415
  0
LINE
  8
_0-0_
  6
CONTINUOUS
 62
    7
 10
152.30851809426633
 20
113.21504982961733
 11
152.03869378107777
 21
113.06239011291336
  0
LINE
  8
_0-0_
  6
CONTINUOUS
 62
    7
 10
152.57478670313878
 20
113.37732884487968
 11
152.30851809426633
 21
113.21504982961733
  0
LINE
  8
_0-0_
  6
CONTINUOUS
 62
    7
 10
152.83734212887487
 20
113.54920669812191
 11
152.57478670313878
 21
113.37732884487968
  0
LINE
  8
_0-0_
  6
CONTINUOUS
 62
    7
 10
153.09604560412083
 20
113.73065355715744
 11
152.83734212887487
 21
113.54920669812191
  0
LINE
  8
_0-0_
  6
CONTINUOUS
 62
    7
 10
153.2239106513972
 20
113.82495102038274
 11
153.09604560412083
 21
113.73065355715744
  0
LINE
  8
_0-0_
  6
CONTINUOUS
 62
    7
 10
153.35076300186995
 20
113.92162141492099
 11
153.2239106513972
 21
113.82495102038274
  0
LINE
  8
_0-0_
  6
CONTINUOUS
 62
    7
 10
153.60136897620771
 20
114.12204625469667
 11
153.35076300186995
 21
113.92162141492099
  0
LINE
  8
_0-0_
  6
CONTINUOUS
 62
    7
 10
153.8477492708422
 20
114.33184979999442
 11
153.60136897620771
 21
114.12204625469667
  0
LINE
  8
_0-0_
  6
CONTINUOUS
 62
    7
 10
153.96932221481131
 20
114.44024040068643
 11
153.8477492708422
 21
114.33184979999442
  0
LINE
  8
_0-0_
  6
CONTINUOUS
 62
    7
 10
147.48464904300374
 20
112.00822823157432
 11
147.34049827578031
 21
112.02940847897526
  0
LINE
  8
_0-0_
  6
CONTINUOUS
 62
    7
 10
147.77019144389635
 20
111.97768285968823
 11
147.48464904300374
 21
112.00822823157432
  0
LINE
  8
_0-0_
  6
CONTINUOUS
 62
    7
 10
148.05156247858588
 20
111.96260647162808
 11
147.77019144389635
 21
111.97768285968823
  0
LINE
  8
_0-0_
  6
CONTINUOUS
 62
    7
 10
148.19050310336809
 20
111.96074323881703
 11
148.05156247858588
 21
111.96260647162808
  0
LINE
  8
_0-0_
  6
CONTINUOUS
 62
    7
 10
148.32886648606211
 20
111.96260405909152
 11
148.19050310336809
 21
111.96074323881703
  0
LINE
  8
_0-0_
  6
CONTINUOUS
 62
    7
 10
148.60620447291205
 20
111.97766816827152
 11
148.32886648606211
 21
111.96260405909152
  0
LINE
  8
_0-0_
  6
CONTINUOUS
 62
    7
 10
148.88385607045677
 20
112.00821450066496
 11
148.60620447291205
 21
111.97766816827152
  0
LINE
  8
_0-0_
  6
CONTINUOUS
 62
    7
 10
149.02259333762015
 20
112.02940847897526
 11
148.88385607045677
 21
112.00821450066496
  0
LINE
  8
_0-0_
  6
CONTINUOUS
 62
    7
 10
141.3383149243142
 20
114.33404059823761
 11
141.16069658350864
 21
114.44024030162745
  0
LINE
  8
_0-0_
  6
CONTINUOUS
 62
    7
 10
141.69342769969046
 20
114.12806316583692
 11
141.3383149243142
 21
114.33404059823761
  0
LINE
  8
_0-0_
  6
CONTINUOUS
 62
    7
 10
142.04825370363562
 20
113.93069984927297
 11
141.69342769969046
 21
114.12806316583692
  0
LINE
  8
_0-0_
  6
CONTINUOUS
 62
    7
 10
142.22548764976648
 20
113.83528181831207
 11
142.04825370363562
 21
113.93069984927297
  0
LINE
  8
_0-0_
  6
CONTINUOUS
 62
    7
 10
142.40256174104582
 20
113.74205764374437
 11
142.22548764976648
 21
113.83528181831207
  0
LINE
  8
_0-0_
  6
CONTINUOUS
 62
    7
 10
142.7561098096777
 20
113.56224146217119
 11
142.40256174104582
 21
113.74205764374437
  0
LINE
  8
_0-0_
  6
CONTINUOUS
 62
    7
 10
143.10865875727416
 20
113.39134607243841
 11
142.7561098096777
 21
113.56224146217119
  0
LINE
  8
_0-0_
  6
CONTINUOUS
 62
    7
 10
143.45997316506339
 20
113.22945566830504
 11
143.10865875727416
 21
113.39134607243841
  0
LINE
  8
_0-0_
  6
CONTINUOUS
 62
    7
 10
143.80982217360054
 20
113.07664353978225
 11
143.45997316506339
 21
113.22945566830504
  0
LINE
  8
_0-0_
  6
CONTINUOUS
 62
    7
 10
144.15797913121889
 20
112.93297228517804
 11
143.80982217360054
 21
113.07664353978225
  0
LINE
  8
_0-0_
  6
CONTINUOUS
 62
    7
 10
144.33135312305706
 20
112.86458123311104
 11
144.15797913121889
 21
112.93297228517804
  0
LINE
  8
_0-0_
  6
CONTINUOUS
 62
    7
 10
144.50422058121296
 20
112.79849417409332
 11
144.33135312305706
 21
112.86458123311104
  0
LINE
  8
_0-0_
  6
CONTINUOUS
 62
    7
 10
144.84832685772255
 20
112.67325075023064
 11
144.50422058121296
 21
112.79849417409332
  0
LINE
  8
_0-0_
  6
CONTINUOUS
 62
    7
 10
145.19008297088624
 20
112.55727238097688
 11
144.84832685772255
 21
112.67325075023064
  0
LINE
  8
_0-0_
  6
CONTINUOUS
 62
    7
 10
145.52927957081977
 20
112.45057787081942
 11
145.19008297088624
 21
112.55727238097688
  0
LINE
  8
_0-0_
  6
CONTINUOUS
 62
    7
 10
145.8657222119524
 20
112.35317188098134
 11
145.52927957081977
 21
112.45057787081942
  0
LINE
  8
_0-0_
  6
CONTINUOUS
 62
    7
 10
146.19921821939909
 20
112.26504935840831
 11
145.8657222119524
 21
112.35317188098134
  0
LINE
  8
_0-0_
  6
CONTINUOUS
 62
    7
 10
146.36480038595585
 20
112.22446529399031
 11
146.19921821939909
 21
112.26504935840831
  0
LINE
  8
_0-0_
  6
CONTINUOUS
 62
    7
 10
146.52957351399675
 20
112.18619569614884
 11
146.36480038595585
 21
112.22446529399031
  0
LINE
  8
_0-0_
  6
CONTINUOUS
 62
    7
 10
146.85659939072468
 20
112.11658436391053
 11
146.52957351399675
 21
112.18619569614884
  0
LINE
  8
_0-0_
  6
CONTINUOUS
 62
    7
 10
147.18011336942538
 20
112.05617657467201
 11
146.85659939072468
 21
112.11658436391053
  0
LINE
  8
_0-0_
  6
CONTINUOUS
 62
    7
 10
147.34049827578031
 20
112.02940847897526
 11
147.18011336942538
 21
112.05617657467201
  0
LINE
  8
_0-0_
  6
CONTINUOUS
 62
    7
 10
138.76584309114162
 20
119.77291204501171
 11
138.77694639523008
 21
119.96074323881749
  0
LINE
  8
_0-0_
  6
CONTINUOUS
 62
    7
 10
138.75755479837983
 20
119.39375802710538
 11
138.76584309114162
 21
119.77291204501171
  0
LINE
  8
_0-0_
  6
CONTINUOUS
 62
    7
 10
138.76859752360917
 20
119.0101402498226
 11
138.75755479837983
 21
119.39375802710538
  0
LINE
  8
_0-0_
  6
CONTINUOUS
 62
    7
 10
138.78162517190196
 20
118.81772887773286
 11
138.76859752360917
 21
119.0101402498226
  0
LINE
  8
_0-0_
  6
CONTINUOUS
 62
    7
 10
138.79973967617536
 20
118.62547289371332
 11
138.78162517190196
 21
118.81772887773286
  0
LINE
  8
_0-0_
  6
CONTINUOUS
 62
    7
 10
138.85132285640123
 20
118.24303570371285
 11
138.79973967617536
 21
118.62547289371332
  0
LINE
  8
_0-0_
  6
CONTINUOUS
 62
    7
 10
138.92327297111945
 20
117.86602527646573
 11
138.85132285640123
 21
118.24303570371285
  0
LINE
  8
_0-0_
  6
CONTINUOUS
 62
    7
 10
139.01510811432229
 20
117.49752711264136
 11
138.92327297111945
 21
117.86602527646573
  0
LINE
  8
_0-0_
  6
CONTINUOUS
 62
    7
 10
139.12606503572545
 20
117.14013946797104
 11
139.01510811432229
 21
117.49752711264136
  0
LINE
  8
_0-0_
  6
CONTINUOUS
 62
    7
 10
139.25501827604069
 20
116.79643987125701
 11
139.12606503572545
 21
117.14013946797104
  0
LINE
  8
_0-0_
  6
CONTINUOUS
 62
    7
 10
139.32578194137989
 20
116.63052167896831
 11
139.25501827604069
 21
116.79643987125701
  0
LINE
  8
_0-0_
  6
CONTINUOUS
 62
    7
 10
139.40045084602855
 20
116.46894610824302
 11
139.32578194137989
 21
116.63052167896831
  0
LINE
  8
_0-0_
  6
CONTINUOUS
 62
    7
 10
139.56053775298108
 20
116.15986340581094
 11
139.40045084602855
 21
116.46894610824302
  0
LINE
  8
_0-0_
  6
CONTINUOUS
 62
    7
 10
139.73313672302049
 20
115.87112651108919
 11
139.56053775298108
 21
116.15986340581094
  0
LINE
  8
_0-0_
  6
CONTINUOUS
 62
    7
 10
139.91601129859157
 20
115.60407525359369
 11
139.73313672302049
 21
115.87112651108919
  0
LINE
  8
_0-0_
  6
CONTINUOUS
 62
    7
 10
140.11263687334997
 20
115.35264758528501
 11
139.91601129859157
 21
115.60407525359369
  0
LINE
  8
_0-0_
  6
CONTINUOUS
 62
    7
 10
140.32423026657182
 20
115.1161214490071
 11
140.11263687334997
 21
115.35264758528501
  0
LINE
  8
_0-0_
  6
CONTINUOUS
 62
    7
 10
140.4352048924967
 20
115.00428716440319
 11
140.32423026657182
 21
115.1161214490071
  0
LINE
  8
_0-0_
  6
CONTINUOUS
 62
    7
 10
140.54937631490077
 20
114.89713698115111
 11
140.4352048924967
 21
115.00428716440319
  0
LINE
  8
_0-0_
  6
CONTINUOUS
 62
    7
 10
140.78649124592459
 20
114.6979328682246
 11
140.54937631490077
 21
114.89713698115111
  0
LINE
  8
_0-0_
  6
CONTINUOUS
 62
    7
 10
141.03380820348423
 20
114.52039474661751
 11
140.78649124592459
 21
114.6979328682246
  0
LINE
  8
_0-0_
  6
CONTINUOUS
 62
    7
 10
141.16069658350864
 20
114.44024030162745
 11
141.03380820348423
 21
114.52039474661751
  0
LINE
  8
_0-0_
  6
CONTINUOUS
 62
    7
 10
141.03380801473315
 20
125.40109160645079
 11
141.16069638635793
 21
125.48124605695239
  0
LINE
  8
_0-0_
  6
CONTINUOUS
 62
    7
 10
140.78649107450804
 20
125.22355347606754
 11
141.03380801473315
 21
125.40109160645079
  0
LINE
  8
_0-0_
  6
CONTINUOUS
 62
    7
 10
140.54937616125437
 20
125.02434935742531
 11
140.78649107450804
 21
125.22355347606754
  0
LINE
  8
_0-0_
  6
CONTINUOUS
 62
    7
 10
140.43520474778745
 20
124.91719917246382
 11
140.54937616125437
 21
125.02434935742531
  0
LINE
  8
_0-0_
  6
CONTINUOUS
 62
    7
 10
140.32423013077926
 20
124.80536488690814
 11
140.43520474778745
 21
124.91719917246382
  0
LINE
  8
_0-0_
  6
CONTINUOUS
 62
    7
 10
140.11263675518842
 20
124.56883875098538
 11
140.32423013077926
 21
124.80536488690814
  0
LINE
  8
_0-0_
  6
CONTINUOUS
 62
    7
 10
139.91601119753489
 20
124.31741108594133
 11
140.11263675518842
 21
124.56883875098538
  0
LINE
  8
_0-0_
  6
CONTINUOUS
 62
    7
 10
139.73313663530382
 20
124.05035982960226
 11
139.91601119753489
 21
124.31741108594133
  0
LINE
  8
_0-0_
  6
CONTINUOUS
 62
    7
 10
139.56053767798915
 20
123.76162293724246
 11
139.73313663530382
 21
124.05035982960226
  0
LINE
  8
_0-0_
  6
CONTINUOUS
 62
    7
 10
139.40045078372953
 20
123.4525402397262
 11
139.56053767798915
 21
123.76162293724246
  0
LINE
  8
_0-0_
  6
CONTINUOUS
 62
    7
 10
139.32578188528225
 20
123.2909646723715
 11
139.40045078372953
 21
123.4525402397262
  0
LINE
  8
_0-0_
  6
CONTINUOUS
 62
    7
 10
139.25501822598528
 20
123.12504648403865
 11
139.32578188528225
 21
123.2909646723715
  0
LINE
  8
_0-0_
  6
CONTINUOUS
 62
    7
 10
139.12606499711467
 20
122.78134689690069
 11
139.25501822598528
 21
123.12504648403865
  0
LINE
  8
_0-0_
  6
CONTINUOUS
 62
    7
 10
139.01510808604974
 20
122.42395926382642
 11
139.12606499711467
 21
122.78134689690069
  0
LINE
  8
_0-0_
  6
CONTINUOUS
 62
    7
 10
138.92327295179905
 20
122.05546111323065
 11
139.01510808604974
 21
122.42395926382642
  0
LINE
  8
_0-0_
  6
CONTINUOUS
 62
    7
 10
138.85132284448503
 20
121.67845070062185
 11
138.92327295179905
 21
122.05546111323065
  0
LINE
  8
_0-0_
  6
CONTINUOUS
 62
    7
 10
138.79973966997761
 20
121.29601352633517
 11
138.85132284448503
 21
121.67845070062185
  0
LINE
  8
_0-0_
  6
CONTINUOUS
 62
    7
 10
138.7816251679011
 20
121.10375755045015
 11
138.79973966997761
 21
121.29601352633517
  0
LINE
  8
_0-0_
  6
CONTINUOUS
 62
    7
 10
138.76859752135999
 20
120.91134618661272
 11
138.7816251679011
 21
121.10375755045015
  0
LINE
  8
_0-0_
  6
CONTINUOUS
 62
    7
 10
138.75755479830207
 20
120.52772842598597
 11
138.76859752135999
 21
120.91134618661272
  0
LINE
  8
_0-0_
  6
CONTINUOUS
 62
    7
 10
138.76584309151906
 20
120.14857442457424
 11
138.75755479830207
 21
120.52772842598597
  0
LINE
  8
_0-0_
  6
CONTINUOUS
 62
    7
 10
138.77694639523008
 20
119.96074323881749
 11
138.76584309151906
 21
120.14857442457424
  0
LINE
  8
_0-0_
  6
CONTINUOUS
 62
    7
 10
153.84774916336175
 20
125.58963677201928
 11
153.96932210537091
 21
125.48124617600661
  0
LINE
  8
_0-0_
  6
CONTINUOUS
 62
    7
 10
153.60136887288593
 20
125.79944030822207
 11
153.84774916336175
 21
125.58963677201928
  0
LINE
  8
_0-0_
  6
CONTINUOUS
 62
    7
 10
153.35076290302788
 20
125.99986513926888
 11
153.60136887288593
 21
125.79944030822207
  0
LINE
  8
_0-0_
  6
CONTINUOUS
 62
    7
 10
153.22391055491664
 20
126.0965355295848
 11
153.35076290302788
 21
125.99986513926888
  0
LINE
  8
_0-0_
  6
CONTINUOUS
 62
    7
 10
153.09604551008272
 20
126.190832988686
 11
153.22391055491664
 21
126.0965355295848
  0
LINE
  8
_0-0_
  6
CONTINUOUS
 62
    7
 10
152.83734203996721
 20
126.37227983977346
 11
153.09604551008272
 21
126.190832988686
  0
LINE
  8
_0-0_
  6
CONTINUOUS
 62
    7
 10
152.5747866196831
 20
126.54415768548552
 11
152.83734203996721
 21
126.37227983977346
  0
LINE
  8
_0-0_
  6
CONTINUOUS
 62
    7
 10
152.30851801658685
 20
126.70643669364699
 11
152.5747866196831
 21
126.54415768548552
  0
LINE
  8
_0-0_
  6
CONTINUOUS
 62
    7
 10
152.03869370950463
 20
126.85909640368982
 11
152.30851801658685
 21
126.70643669364699
  0
LINE
  8
_0-0_
  6
CONTINUOUS
 62
    7
 10
151.76548411009492
 20
127.00213051920809
 11
152.03869370950463
 21
126.85909640368982
  0
LINE
  8
_0-0_
  6
CONTINUOUS
 62
    7
 10
151.6276662305105
 20
127.07004020412251
 11
151.76548411009492
 21
127.00213051920809
  0
LINE
  8
_0-0_
  6
CONTINUOUS
 62
    7
 10
151.48907108427159
 20
127.13554813125393
 11
151.6276662305105
 21
127.07004020412251
  0
LINE
  8
_0-0_
  6
CONTINUOUS
 62
    7
 10
151.20964723729651
 20
127.25937422059496
 11
151.48907108427159
 21
127.13554813125393
  0
LINE
  8
_0-0_
  6
CONTINUOUS
 62
    7
 10
150.92741582145538
 20
127.37364974194998
 11
151.20964723729651
 21
127.25937422059496
  0
LINE
  8
_0-0_
  6
CONTINUOUS
 62
    7
 10
150.64259214706601
 20
127.47843116380409
 11
150.92741582145538
 21
127.37364974194998
  0
LINE
  8
_0-0_
  6
CONTINUOUS
 62
    7
 10
150.3554035456765
 20
127.57379076825373
 11
150.64259214706601
 21
127.47843116380409
  0
LINE
  8
_0-0_
  6
CONTINUOUS
 62
    7
 10
150.0660885325052
 20
127.65981715244197
 11
150.3554035456765
 21
127.57379076825373
  0
LINE
  8
_0-0_
  6
CONTINUOUS
 62
    7
 10
149.92071098685449
 20
127.69936262367855
 11
150.0660885325052
 21
127.65981715244197
  0
LINE
  8
_0-0_
  6
CONTINUOUS
 62
    7
 10
149.77453883073724
 20
127.73670386662889
 11
149.92071098685449
 21
127.69936262367855
  0
LINE
  8
_0-0_
  6
CONTINUOUS
 62
    7
 10
149.47794366018763
 20
127.80519836688109
 11
149.77453883073724
 21
127.73670386662889
  0
LINE
  8
_0-0_
  6
CONTINUOUS
 62
    7
 10
149.17574924844587
 20
127.86526762862195
 11
149.47794366018763
 21
127.80519836688109
  0
LINE
  8
_0-0_
  6
CONTINUOUS
 62
    7
 10
149.02259333762015
 20
127.89207799865881
 11
149.17574924844587
 21
127.86526762862195
  0
LINE
  8
_0-0_
  6
CONTINUOUS
 62
    7
 10
154.05441595683089
 20
114.52078908107023
 11
153.96932221481131
 21
114.44024040068643
  0
LINE
  8
_0-0_
  6
CONTINUOUS
 62
    7
 10
154.22056929833673
 20
114.69924787189848
 11
154.05441595683089
 21
114.52078908107023
  0
LINE
  8
_0-0_
  6
CONTINUOUS
 62
    7
 10
154.38049287156957
 20
114.89950082045698
 11
154.22056929833673
 21
114.69924787189848
  0
LINE
  8
_0-0_
  6
CONTINUOUS
 62
    7
 10
154.45782529818791
 20
115.00720177552239
 11
154.38049287156957
 21
114.89950082045698
  0
LINE
  8
_0-0_
  6
CONTINUOUS
 62
    7
 10
154.53326586925243
 20
115.11959139149349
 11
154.45782529818791
 21
115.00720177552239
  0
LINE
  8
_0-0_
  6
CONTINUOUS
 62
    7
 10
154.6780848847576
 20
115.35720038722548
 11
154.53326586925243
 21
115.11959139149349
  0
LINE
  8
_0-0_
  6
CONTINUOUS
 62
    7
 10
154.81423231153997
 20
115.60959648800872
 11
154.6780848847576
 21
115.35720038722548
  0
LINE
  8
_0-0_
  6
CONTINUOUS
 62
    7
 10
154.9426998639052
 20
115.87718705153202
 11
154.81423231153997
 21
115.60959648800872
  0
LINE
  8
_0-0_
  6
CONTINUOUS
 62
    7
 10
155.06642662406477
 20
116.1661796793851
 11
154.9426998639052
 21
115.87718705153202
  0
LINE
  8
_0-0_
  6
CONTINUOUS
 62
    7
 10
155.18436023385505
 20
116.47530232472263
 11
155.06642662406477
 21
116.1661796793851
  0
LINE
  8
_0-0_
  6
CONTINUOUS
 62
    7
 10
155.24081503699347
 20
116.63681725949982
 11
155.18436023385505
 21
116.47530232472263
  0
LINE
  8
_0-0_
  6
CONTINUOUS
 62
    7
 10
155.29543684253133
 20
116.80262261890266
 11
155.24081503699347
 21
116.63681725949982
  0
LINE
  8
_0-0_
  6
CONTINUOUS
 62
    7
 10
155.39875659085249
 20
117.14595147045657
 11
155.29543684253133
 21
116.80262261890266
  0
LINE
  8
_0-0_
  6
CONTINUOUS
 62
    7
 10
155.49355387211256
 20
117.50279923215476
 11
155.39875659085249
 21
117.14595147045657
  0
LINE
  8
_0-0_
  6
CONTINUOUS
 62
    7
 10
155.57924234783297
 20
117.87059752635741
 11
155.49355387211256
 21
117.50279923215476
  0
LINE
  8
_0-0_
  6
CONTINUOUS
 62
    7
 10
155.6554033082549
 20
118.24679686441141
 11
155.57924234783297
 21
117.87059752635741
  0
LINE
  8
_0-0_
  6
CONTINUOUS
 62
    7
 10
155.72167466087387
 20
118.62837480226153
 11
155.6554033082549
 21
118.24679686441141
  0
LINE
  8
_0-0_
  6
CONTINUOUS
 62
    7
 10
155.75102865587371
 20
118.82020069882537
 11
155.72167466087387
 21
118.62837480226153
  0
LINE
  8
_0-0_
  6
CONTINUOUS
 62
    7
 10
155.77784251396281
 20
119.01219185911441
 11
155.75102865587371
 21
118.82020069882537
  0
LINE
  8
_0-0_
  6
CONTINUOUS
 62
    7
 10
155.82384550304243
 20
119.39503687691922
 11
155.77784251396281
 21
119.01219185911441
  0
LINE
  8
_0-0_
  6
CONTINUOUS
 62
    7
 10
155.85977131715538
 20
119.77356852944422
 11
155.82384550304243
 21
119.39503687691922
  0
LINE
  8
_0-0_
  6
CONTINUOUS
 62
    7
 10
155.87406977652665
 20
119.96074323881749
 11
155.85977131715538
 21
119.77356852944422
  0
LINE
  8
_0-0_
  6
CONTINUOUS
 62
    7
 10
155.8597713166065
 20
120.14791795484552
 11
155.87406977652665
 21
119.96074323881749
  0
LINE
  8
_0-0_
  6
CONTINUOUS
 62
    7
 10
155.82384550086419
 20
120.52644962100112
 11
155.8597713166065
 21
120.14791795484552
  0
LINE
  8
_0-0_
  6
CONTINUOUS
 62
    7
 10
155.77784250943307
 20
120.90929465256386
 11
155.82384550086419
 21
120.52644962100112
  0
LINE
  8
_0-0_
  6
CONTINUOUS
 62
    7
 10
155.75102864989606
 20
121.10128581966819
 11
155.77784250943307
 21
120.90929465256386
  0
LINE
  8
_0-0_
  6
CONTINUOUS
 62
    7
 10
155.7216746532705
 20
121.29311172295093
 11
155.75102864989606
 21
121.10128581966819
  0
LINE
  8
_0-0_
  6
CONTINUOUS
 62
    7
 10
155.65540329687894
 20
121.67468967378682
 11
155.7216746532705
 21
121.29311172295093
  0
LINE
  8
_0-0_
  6
CONTINUOUS
 62
    7
 10
155.57924233203096
 20
122.05088902394846
 11
155.65540329687894
 21
121.67468967378682
  0
LINE
  8
_0-0_
  6
CONTINUOUS
 62
    7
 10
155.4935538512874
 20
122.41868732911325
 11
155.57924233203096
 21
122.05088902394846
  0
LINE
  8
_0-0_
  6
CONTINUOUS
 62
    7
 10
155.39875656446713
 20
122.77553510043299
 11
155.4935538512874
 21
122.41868732911325
  0
LINE
  8
_0-0_
  6
CONTINUOUS
 62
    7
 10
155.29543681016696
 20
123.1188639599568
 11
155.39875656446713
 21
122.77553510043299
  0
LINE
  8
_0-0_
  6
CONTINUOUS
 62
    7
 10
155.24081500151954
 20
123.28466932266247
 11
155.29543681016696
 21
123.1188639599568
  0
LINE
  8
_0-0_
  6
CONTINUOUS
 62
    7
 10
155.18436019521289
 20
123.446184260265
 11
155.24081500151954
 21
123.28466932266247
  0
LINE
  8
_0-0_
  6
CONTINUOUS
 62
    7
 10
155.06642657898749
 20
123.75530690974983
 11
155.18436019521289
 21
123.446184260265
  0
LINE
  8
_0-0_
  6
CONTINUOUS
 62
    7
 10
154.94269981241325
 20
124.04429953965291
 11
155.06642657898749
 21
123.75530690974983
  0
LINE
  8
_0-0_
  6
CONTINUOUS
 62
    7
 10
154.81423225318633
 20
124.31189010437356
 11
154.94269981241325
 21
124.04429953965291
  0
LINE
  8
_0-0_
  6
CONTINUOUS
 62
    7
 10
154.67808481742952
 20
124.56428620796987
 11
154.81423225318633
 21
124.31189010437356
  0
LINE
  8
_0-0_
  6
CONTINUOUS
 62
    7
 10
154.53326579265297
 20
124.80189520406748
 11
154.67808481742952
 21
124.56428620796987
  0
LINE
  8
_0-0_
  6
CONTINUOUS
 62
    7
 10
154.45782521688091
 20
124.91428481927232
 11
154.53326579265297
 21
124.80189520406748
  0
LINE
  8
_0-0_
  6
CONTINUOUS
 62
    7
 10
154.38049278552637
 20
125.02198577293029
 11
154.45782521688091
 21
124.91428481927232
  0
LINE
  8
_0-0_
  6
CONTINUOUS
 62
    7
 10
154.22056920281523
 20
125.22223871673714
 11
154.38049278552637
 21
125.02198577293029
  0
LINE
  8
_0-0_
  6
CONTINUOUS
 62
    7
 10
154.05441585196252
 20
125.40069750023531
 11
154.22056920281523
 21
125.22223871673714
  0
LINE
  8
_0-0_
  6
CONTINUOUS
 62
    7
 10
153.96932210537091
 20
125.48124617600661
 11
154.05441585196252
 21
125.40069750023531
  0
LINE
  8
_0-0_
  6
CONTINUOUS
 62
    7
 10
147.18011336446637
 20
127.86530990210213
 11
147.34049827578031
 21
127.89207799865881
  0
LINE
  8
_0-0_
  6
CONTINUOUS
 62
    7
 10
146.85659937568118
 20
127.80490211071765
 11
147.18011336446637
 21
127.86530990210213
  0
LINE
  8
_0-0_
  6
CONTINUOUS
 62
    7
 10
146.5295734886605
 20
127.73529077576404
 11
146.85659937568118
 21
127.80490211071765
  0
LINE
  8
_0-0_
  6
CONTINUOUS
 62
    7
 10
146.36480035540046
 20
127.69702117635052
 11
146.5295734886605
 21
127.73529077576404
  0
LINE
  8
_0-0_
  6
CONTINUOUS
 62
    7
 10
146.19921818357864
 20
127.65643711021767
 11
146.36480035540046
 21
127.69702117635052
  0
LINE
  8
_0-0_
  6
CONTINUOUS
 62
    7
 10
145.8657221654754
 20
127.56831458378383
 11
146.19921818357864
 21
127.65643711021767
  0
LINE
  8
_0-0_
  6
CONTINUOUS
 62
    7
 10
145.52927951353161
 20
127.4709085895106
 11
145.8657221654754
 21
127.56831458378383
  0
LINE
  8
_0-0_
  6
CONTINUOUS
 62
    7
 10
145.19008290264821
 20
127.364214074345
 11
145.52927951353161
 21
127.4709085895106
  0
LINE
  8
_0-0_
  6
CONTINUOUS
 62
    7
 10
144.84832677841825
 20
127.24823569951332
 11
145.19008290264821
 21
127.364214074345
  0
LINE
  8
_0-0_
  6
CONTINUOUS
 62
    7
 10
144.50422049074734
 20
127.12299226950836
 11
144.84832677841825
 21
127.24823569951332
  0
LINE
  8
_0-0_
  6
CONTINUOUS
 62
    7
 10
144.33135302698076
 20
127.05690520720827
 11
144.50422049074734
 21
127.12299226950836
  0
LINE
  8
_0-0_
  6
CONTINUOUS
 62
    7
 10
144.15797902951601
 20
126.98851415171976
 11
144.33135302698076
 21
127.05690520720827
  0
LINE
  8
_0-0_
  6
CONTINUOUS
 62
    7
 10
143.8098220606081
 20
126.84484288985959
 11
144.15797902951601
 21
126.98851415171976
  0
LINE
  8
_0-0_
  6
CONTINUOUS
 62
    7
 10
143.45997304074956
 20
126.69203075353562
 11
143.8098220606081
 21
126.84484288985959
  0
LINE
  8
_0-0_
  6
CONTINUOUS
 62
    7
 10
143.10865862162939
 20
126.53014034106536
 11
143.45997304074956
 21
126.69203075353562
  0
LINE
  8
_0-0_
  6
CONTINUOUS
 62
    7
 10
142.75610966271609
 20
126.35924494247138
 11
143.10865862162939
 21
126.53014034106536
  0
LINE
  8
_0-0_
  6
CONTINUOUS
 62
    7
 10
142.40256158280511
 20
126.17942875152266
 11
142.75610966271609
 21
126.35924494247138
  0
LINE
  8
_0-0_
  6
CONTINUOUS
 62
    7
 10
142.22548748590737
 20
126.08620457208008
 11
142.40256158280511
 21
126.17942875152266
  0
LINE
  8
_0-0_
  6
CONTINUOUS
 62
    7
 10
142.0482535341763
 20
125.99078653612059
 11
142.22548748590737
 21
126.08620457208008
  0
LINE
  8
_0-0_
  6
CONTINUOUS
 62
    7
 10
141.69342751909619
 20
125.79342320919704
 11
142.0482535341763
 21
125.99078653612059
  0
LINE
  8
_0-0_
  6
CONTINUOUS
 62
    7
 10
141.33831473266366
 20
125.58744576594927
 11
141.69342751909619
 21
125.79342320919704
  0
LINE
  8
_0-0_
  6
CONTINUOUS
 62
    7
 10
141.16069638635793
 20
125.48124605695239
 11
141.33831473266366
 21
125.58744576594927
  0
LINE
  8
_0-0_
  6
CONTINUOUS
 62
    7
 10
148.88385607045677
 20
127.9132719769691
 11
149.02259333762015
 21
127.89207799865881
  0
LINE
  8
_0-0_
  6
CONTINUOUS
 62
    7
 10
148.60620447291205
 20
127.94381830936254
 11
148.88385607045677
 21
127.9132719769691
  0
LINE
  8
_0-0_
  6
CONTINUOUS
 62
    7
 10
148.32886648606211
 20
127.95888241854254
 11
148.60620447291205
 21
127.94381830936254
  0
LINE
  8
_0-0_
  6
CONTINUOUS
 62
    7
 10
148.19050310336809
 20
127.96074323881703
 11
148.32886648606211
 21
127.95888241854254
  0
LINE
  8
_0-0_
  6
CONTINUOUS
 62
    7
 10
148.05156247858588
 20
127.95888000600598
 11
148.19050310336809
 21
127.96074323881703
  0
LINE
  8
_0-0_
  6
CONTINUOUS
 62
    7
 10
147.77019144389635
 20
127.94380361794583
 11
148.05156247858588
 21
127.95888000600598
  0
LINE
  8
_0-0_
  6
CONTINUOUS
 62
    7
 10
147.48464904300374
 20
127.91325824605974
 11
147.77019144389635
 21
127.94380361794583
  0
LINE
  8
_0-0_
  6
CONTINUOUS
 62
    7
 10
147.34049827578031
 20
127.89207799865881
 11
147.48464904300374
 21
127.91325824605974
  0
LINE
  8
_0-0_
  6
CONTINUOUS
 62
    7
 10
155.16117978248406
 20
109.7123186162803
 11
156.0127581992457
 21
119.96074323881749
  0
LINE
  8
_0-0_
  6
CONTINUOUS
 62
    7
 10
156.0127581992457
 20
119.96074323881749
 11
155.16117978248406
 21
130.20916786135376
  0
LINE
  8
_0-0_
  6
CONTINUOUS
 62
    7
 10
155.15937404372164
 20
109.69146874293529
 11
155.16117978248406
 21
109.7123186162803
  0
LINE
  8
_0-0_
  6
CONTINUOUS
 62
    7
 10
155.15532898094773
 20
109.64983360075212
 11
155.15937404372164
 21
109.69146874293529
  0
LINE
  8
_0-0_
  6
CONTINUOUS
 62
    7
 10
155.15070738165525
 20
109.60828938045961
 11
155.15532898094773
 21
109.64983360075212
  0
LINE
  8
_0-0_
  6
CONTINUOUS
 62
    7
 10
155.1481809695016
 20
109.58755315923736
 11
155.15070738165525
 21
109.60828938045961
  0
LINE
  8
_0-0_
  6
CONTINUOUS
 62
    7
 10
155.14551112833544
 20
109.56684182027266
 11
155.1481809695016
 21
109.58755315923736
  0
LINE
  8
_0-0_
  6
CONTINUOUS
 62
    7
 10
155.13974209353466
 20
109.52549665797369
 11
155.14551112833544
 21
109.56684182027266
  0
LINE
  8
_0-0_
  6
CONTINUOUS
 62
    7
 10
155.13340214151015
 20
109.48425963137925
 11
155.13974209353466
 21
109.52549665797369
  0
LINE
  8
_0-0_
  6
CONTINUOUS
 62
    7
 10
155.12649312977339
 20
109.44313647868148
 11
155.13340214151015
 21
109.48425963137925
  0
LINE
  8
_0-0_
  6
CONTINUOUS
 62
    7
 10
155.11901691052128
 20
109.40213293868146
 11
155.12649312977339
 21
109.44313647868148
  0
LINE
  8
_0-0_
  6
CONTINUOUS
 62
    7
 10
155.11097533194209
 20
109.36125475092103
 11
155.11901691052128
 21
109.40213293868146
  0
LINE
  8
_0-0_
  6
CONTINUOUS
 62
    7
 10
155.10674310966272
 20
109.34086445795492
 11
155.11097533194209
 21
109.36125475092103
  0
LINE
  8
_0-0_
  6
CONTINUOUS
 62
    7
 10
155.10237023940238
 20
109.32050765573649
 11
155.10674310966272
 21
109.34086445795492
  0
LINE
  8
_0-0_
  6
CONTINUOUS
 62
    7
 10
155.09320347650112
 20
109.27989739423492
 11
155.10237023940238
 21
109.32050765573649
  0
LINE
  8
_0-0_
  6
CONTINUOUS
 62
    7
 10
155.08347688600054
 20
109.23942970820872
 11
155.09320347650112
 21
109.27989739423492
  0
LINE
  8
_0-0_
  6
CONTINUOUS
 62
    7
 10
155.07319231062149
 20
109.19911034001325
 11
155.08347688600054
 21
109.23942970820872
  0
LINE
  8
_0-0_
  6
CONTINUOUS
 62
    7
 10
155.06235159371283
 20
109.15894503240224
 11
155.07319231062149
 21
109.19911034001325
  0
LINE
  8
_0-0_
  6
CONTINUOUS
 62
    7
 10
155.05095657978666
 20
109.11893952834316
 11
155.06235159371283
 21
109.15894503240224
  0
LINE
  8
_0-0_
  6
CONTINUOUS
 62
    7
 10
155.04505178827287
 20
109.09899849733529
 11
155.05095657978666
 21
109.11893952834316
  0
LINE
  8
_0-0_
  6
CONTINUOUS
 62
    7
 10
155.03900911492576
 20
109.07909957082848
 11
155.04505178827287
 21
109.09899849733529
  0
LINE
  8
_0-0_
  6
CONTINUOUS
 62
    7
 10
155.02651104706104
 20
109.03943090268467
 11
155.03900911492576
 21
109.07909957082848
  0
LINE
  8
_0-0_
  6
CONTINUOUS
 62
    7
 10
155.01346422612244
 20
108.99993926640354
 11
155.02651104706104
 21
109.03943090268467
  0
LINE
  8
_0-0_
  6
CONTINUOUS
 62
    7
 10
155.00673561191036
 20
108.98026162961105
 11
155.01346422612244
 21
108.99993926640354
  0
LINE
  8
_0-0_
  6
CONTINUOUS
 62
    7
 10
154.99987050407037
 20
108.96063040399258
 11
155.00673561191036
 21
108.98026162961105
  0
LINE
  8
_0-0_
  6
CONTINUOUS
 62
    7
 10
154.98573173480338
 20
108.92151005687674
 11
154.99987050407037
 21
108.96063040399258
  0
LINE
  8
_0-0_
  6
CONTINUOUS
 62
    7
 10
154.97104977394895
 20
108.88258396583888
 11
154.98573173480338
 21
108.92151005687674
  0
LINE
  8
_0-0_
  6
CONTINUOUS
 62
    7
 10
154.96350567695947
 20
108.86319556016906
 11
154.97104977394895
 21
108.88258396583888
  0
LINE
  8
_0-0_
  6
CONTINUOUS
 62
    7
 10
154.95582647855292
 20
108.84385787102974
 11
154.96350567695947
 21
108.86319556016906
  0
LINE
  8
_0-0_
  6
CONTINUOUS
 62
    7
 10
154.94006370664795
 20
108.8053375120503
 11
154.95582647855292
 21
108.84385787102974
  0
LINE
  8
_0-0_
  6
CONTINUOUS
 62
    7
 10
154.92376331673825
 20
108.7670286281168
 11
154.94006370664795
 21
108.8053375120503
  0
LINE
  8
_0-0_
  6
CONTINUOUS
 62
    7
 10
154.90692716718206
 20
108.72893695831999
 11
154.92376331673825
 21
108.7670286281168
  0
LINE
  8
_0-0_
  6
CONTINUOUS
 62
    7
 10
154.88955711549318
 20
108.69106824198661
 11
154.90692716718206
 21
108.72893695831999
  0
LINE
  8
_0-0_
  6
CONTINUOUS
 62
    7
 10
154.87165501756192
 20
108.65342821916056
 11
154.88955711549318
 21
108.69106824198661
  0
LINE
  8
_0-0_
  6
CONTINUOUS
 62
    7
 10
154.86250503057011
 20
108.63469576191528
 11
154.87165501756192
 21
108.65342821916056
  0
LINE
  8
_0-0_
  6
CONTINUOUS
 62
    7
 10
154.85322272680889
 20
108.61602263119539
 11
154.86250503057011
 21
108.63469576191528
  0
LINE
  8
_0-0_
  6
CONTINUOUS
 62
    7
 10
154.83427580262708
 20
108.57888363858046
 11
154.85322272680889
 21
108.61602263119539
  0
LINE
  8
_0-0_
  6
CONTINUOUS
 62
    7
 10
154.81483206291216
 20
108.54204412152876
 11
154.83427580262708
 21
108.57888363858046
  0
LINE
  8
_0-0_
  6
CONTINUOUS
 62
    7
 10
154.79489551967129
 20
108.50550848302646
 11
154.81483206291216
 21
108.54204412152876
  0
LINE
  8
_0-0_
  6
CONTINUOUS
 62
    7
 10
154.77447016722283
 20
108.46928112435808
 11
154.79489551967129
 21
108.50550848302646
  0
LINE
  8
_0-0_
  6
CONTINUOUS
 62
    7
 10
154.75355998736507
 20
108.4333664511787
 11
154.77447016722283
 21
108.46928112435808
  0
LINE
  8
_0-0_
  6
CONTINUOUS
 62
    7
 10
154.74292432852928
 20
108.41552774958063
 11
154.75355998736507
 21
108.4333664511787
  0
LINE
  8
_0-0_
  6
CONTINUOUS
 62
    7
 10
154.73216895132748
 20
108.39776887338348
 11
154.74292432852928
 21
108.41552774958063
  0
LINE
  8
_0-0_
  6
CONTINUOUS
 62
    7
 10
154.7103010215834
 20
108.362492804878
 11
154.73216895132748
 21
108.39776887338348
  0
LINE
  8
_0-0_
  6
CONTINUOUS
 62
    7
 10
154.68796015349938
 20
108.32754266328129
 11
154.7103010215834
 21
108.362492804878
  0
LINE
  8
_0-0_
  6
CONTINUOUS
 62
    7
 10
154.66515029685172
 20
108.29292286956797
 11
154.68796015349938
 21
108.32754266328129
  0
LINE
  8
_0-0_
  6
CONTINUOUS
 62
    7
 10
154.64187539717761
 20
108.25863784765079
 11
154.66515029685172
 21
108.29292286956797
  0
LINE
  8
_0-0_
  6
CONTINUOUS
 62
    7
 10
154.61813939699152
 20
108.22469202393995
 11
154.64187539717761
 21
108.25863784765079
  0
LINE
  8
_0-0_
  6
CONTINUOUS
 62
    7
 10
154.60609971568067
 20
108.20784769523152
 11
154.61813939699152
 21
108.22469202393995
  0
LINE
  8
_0-0_
  6
CONTINUOUS
 62
    7
 10
154.59394623685068
 20
108.19108982687021
 11
154.60609971568067
 21
108.20784769523152
  0
LINE
  8
_0-0_
  6
CONTINUOUS
 62
    7
 10
154.56929985628187
 20
108.15783568642155
 11
154.59394623685068
 21
108.19108982687021
  0
LINE
  8
_0-0_
  6
CONTINUOUS
 62
    7
 10
154.54420419456449
 20
108.12493403363851
 11
154.56929985628187
 21
108.15783568642155
  0
LINE
  8
_0-0_
  6
CONTINUOUS
 62
    7
 10
154.51866319138674
 20
108.09238930016727
 11
154.54420419456449
 21
108.12493403363851
  0
LINE
  8
_0-0_
  6
CONTINUOUS
 62
    7
 10
154.49268078736316
 20
108.06020591780589
 11
154.51866319138674
 21
108.09238930016727
  0
LINE
  8
_0-0_
  6
CONTINUOUS
 62
    7
 10
154.4662609244366
 20
108.02838831810368
 11
154.49268078736316
 21
108.06020591780589
  0
LINE
  8
_0-0_
  6
CONTINUOUS
 62
    7
 10
154.45288817817402
 20
108.01261807144965
 11
154.4662609244366
 21
108.02838831810368
  0
LINE
  8
_0-0_
  6
CONTINUOUS
 62
    7
 10
154.43940754615107
 20
107.99694093199469
 11
154.45288817817402
 21
108.01261807144965
  0
LINE
  8
_0-0_
  6
CONTINUOUS
 62
    7
 10
154.41212459782275
 20
107.96586818949299
 11
154.43940754615107
 21
107.99694093199469
  0
LINE
  8
_0-0_
  6
CONTINUOUS
 62
    7
 10
154.38441602659407
 20
107.93517451944899
 11
154.41212459782275
 21
107.96586818949299
  0
LINE
  8
_0-0_
  6
CONTINUOUS
 62
    7
 10
154.35628578139415
 20
107.90486434938475
 11
154.38441602659407
 21
107.93517451944899
  0
LINE
  8
_0-0_
  6
CONTINUOUS
 62
    7
 10
154.32773781280969
 20
107.87494210540626
 11
154.35628578139415
 21
107.90486434938475
  0
LINE
  8
_0-0_
  6
CONTINUOUS
 62
    7
 10
154.2987760728671
 20
107.8454122122148
 11
154.32773781280969
 21
107.87494210540626
  0
LINE
  8
_0-0_
  6
CONTINUOUS
 62
    7
 10
154.28414127396911
 20
107.8307957795223
 11
154.2987760728671
 21
107.8454122122148
  0
LINE
  8
_0-0_
  6
CONTINUOUS
 62
    7
 10
154.26940451474331
 20
107.81627909321014
 11
154.28414127396911
 21
107.8307957795223
  0
LINE
  8
_0-0_
  6
CONTINUOUS
 62
    7
 10
154.23962709241061
 20
107.78754717070206
 11
154.26940451474331
 21
107.81627909321014
  0
LINE
  8
_0-0_
  6
CONTINUOUS
 62
    7
 10
154.20944776021736
 20
107.75922086624087
 11
154.23962709241061
 21
107.78754717070206
  0
LINE
  8
_0-0_
  6
CONTINUOUS
 62
    7
 10
154.19420861364927
 20
107.74521120240979
 11
154.20944776021736
 21
107.75922086624087
  0
LINE
  8
_0-0_
  6
CONTINUOUS
 62
    7
 10
154.17887047243414
 20
107.73130460105631
 11
154.19420861364927
 21
107.74521120240979
  0
LINE
  8
_0-0_
  6
CONTINUOUS
 62
    7
 10
154.14789947567363
 20
107.7038030531503
 11
154.17887047243414
 21
107.73130460105631
  0
LINE
  8
_0-0_
  6
CONTINUOUS
 62
    7
 10
154.11656331487313
 20
107.67674156665225
 11
154.14789947567363
 21
107.7038030531503
  0
LINE
  8
_0-0_
  6
CONTINUOUS
 62
    7
 10
154.10076568457919
 20
107.66338184276901
 11
154.11656331487313
 21
107.67674156665225
  0
LINE
  8
_0-0_
  6
CONTINUOUS
 62
    7
 10
154.08488255746818
 20
107.65013656830433
 11
154.10076568457919
 21
107.66338184276901
  0
LINE
  8
_0-0_
  6
CONTINUOUS
 62
    7
 10
154.05286241820988
 20
107.62399068035893
 11
154.08488255746818
 21
107.65013656830433
  0
LINE
  8
_0-0_
  6
CONTINUOUS
 62
    7
 10
154.02050810226967
 20
107.5983065331875
 11
154.05286241820988
 21
107.62399068035893
  0
LINE
  8
_0-0_
  6
CONTINUOUS
 62
    7
 10
153.9878248068768
 20
107.57308676445882
 11
154.02050810226967
 21
107.5983065331875
  0
LINE
  8
_0-0_
  6
CONTINUOUS
 62
    7
 10
153.95481772280402
 20
107.54833401829865
 11
153.9878248068768
 21
107.57308676445882
  0
LINE
  8
_0-0_
  6
CONTINUOUS
 62
    7
 10
153.92149203569318
 20
107.52405094444202
 11
153.95481772280402
 21
107.54833401829865
  0
LINE
  8
_0-0_
  6
CONTINUOUS
 62
    7
 10
153.90471133540098
 20
107.51208636399633
 11
153.92149203569318
 21
107.52405094444202
  0
LINE
  8
_0-0_
  6
CONTINUOUS
 62
    7
 10
153.88785292723026
 20
107.50024019739021
 11
153.90471133540098
 21
107.51208636399633
  0
LINE
  8
_0-0_
  6
CONTINUOUS
 62
    7
 10
153.85390557617268
 20
107.47690443557622
 11
153.88785292723026
 21
107.50024019739021
  0
LINE
  8
_0-0_
  6
CONTINUOUS
 62
    7
 10
153.8196551592365
 20
107.45404632056352
 11
153.85390557617268
 21
107.47690443557622
  0
LINE
  8
_0-0_
  6
CONTINUOUS
 62
    7
 10
153.78510685184995
 20
107.43166851627484
 11
153.8196551592365
 21
107.45404632056352
  0
LINE
  8
_0-0_
  6
CONTINUOUS
 62
    7
 10
153.75026582878502
 20
107.40977368826725
 11
153.78510685184995
 21
107.43166851627484
  0
LINE
  8
_0-0_
  6
CONTINUOUS
 62
    7
 10
153.71513726466003
 20
107.38836450305962
 11
153.75026582878502
 21
107.40977368826725
  0
LINE
  8
_0-0_
  6
CONTINUOUS
 62
    7
 10
153.69746677182741
 20
107.37784285990483
 11
153.71513726466003
 21
107.38836450305962
  0
LINE
  8
_0-0_
  6
CONTINUOUS
 62
    7
 10
153.67972633433976
 20
107.36744362752552
 11
153.69746677182741
 21
107.37784285990483
  0
LINE
  8
_0-0_
  6
CONTINUOUS
 62
    7
 10
153.64403821322514
 20
107.3470137283507
 11
153.67972633433976
 21
107.36744362752552
  0
LINE
  8
_0-0_
  6
CONTINUOUS
 62
    7
 10
153.60807807745243
 20
107.32707747157565
 11
153.64403821322514
 21
107.3470137283507
  0
LINE
  8
_0-0_
  6
CONTINUOUS
 62
    7
 10
153.57185110400235
 20
107.30763752221446
 11
153.60807807745243
 21
107.32707747157565
  0
LINE
  8
_0-0_
  6
CONTINUOUS
 62
    7
 10
153.535362470731
 20
107.28869654397295
 11
153.57185110400235
 21
107.30763752221446
  0
LINE
  8
_0-0_
  6
CONTINUOUS
 62
    7
 10
153.49861735633397
 20
107.27025719905851
 11
153.535362470731
 21
107.28869654397295
  0
LINE
  8
_0-0_
  6
CONTINUOUS
 62
    7
 10
153.48015023726214
 20
107.26122647060447
 11
153.49861735633397
 21
107.27025719905851
  0
LINE
  8
_0-0_
  6
CONTINUOUS
 62
    7
 10
153.46162094024896
 20
107.25232214809239
 11
153.48015023726214
 21
107.26122647060447
  0
LINE
  8
_0-0_
  6
CONTINUOUS
 62
    7
 10
153.42437840251125
 20
107.23489405013515
 11
153.46162094024896
 21
107.25232214809239
  0
LINE
  8
_0-0_
  6
CONTINUOUS
 62
    7
 10
153.38689492356218
 20
107.21797556281626
 11
153.42437840251125
 21
107.23489405013515
  0
LINE
  8
_0-0_
  6
CONTINUOUS
 62
    7
 10
153.34917568403819
 20
107.20156934258102
 11
153.38689492356218
 21
107.21797556281626
  0
LINE
  8
_0-0_
  6
CONTINUOUS
 62
    7
 10
153.31122586452977
 20
107.18567804506165
 11
153.34917568403819
 21
107.20156934258102
  0
LINE
  8
_0-0_
  6
CONTINUOUS
 62
    7
 10
153.27305064533459
 20
107.17030432556476
 11
153.31122586452977
 21
107.18567804506165
  0
LINE
  8
_0-0_
  6
CONTINUOUS
 62
    7
 10
153.2538801295583
 20
107.16281238741612
 11
153.27305064533459
 21
107.17030432556476
  0
LINE
  8
_0-0_
  6
CONTINUOUS
 62
    7
 10
153.23465520621642
 20
107.15545083968027
 11
153.2538801295583
 21
107.16281238741612
  0
LINE
  8
_0-0_
  6
CONTINUOUS
 62
    7
 10
153.19606615824216
 20
107.14112803185162
 11
153.23465520621642
 21
107.15545083968027
  0
LINE
  8
_0-0_
  6
CONTINUOUS
 62
    7
 10
153.15731061786857
 20
107.12734519935384
 11
153.19606615824216
 21
107.14112803185162
  0
LINE
  8
_0-0_
  6
CONTINUOUS
 62
    7
 10
153.11839428083806
 20
107.11410319360493
 11
153.15731061786857
 21
107.12734519935384
  0
LINE
  8
_0-0_
  6
CONTINUOUS
 62
    7
 10
153.07932283895127
 20
107.10140287325885
 11
153.11839428083806
 21
107.11410319360493
  0
LINE
  8
_0-0_
  6
CONTINUOUS
 62
    7
 10
153.04010198102344
 20
107.08924510308179
 11
153.07932283895127
 21
107.10140287325885
  0
LINE
  8
_0-0_
  6
CONTINUOUS
 62
    7
 10
153.02043729817217
 20
107.08336994594674
 11
153.04010198102344
 21
107.08924510308179
  0
LINE
  8
_0-0_
  6
CONTINUOUS
 62
    7
 10
153.00073739364518
 20
107.07763075285766
 11
153.02043729817217
 21
107.08336994594674
  0
LINE
  8
_0-0_
  6
CONTINUOUS
 62
    7
 10
152.96123476181594
 20
107.06656069636119
 11
153.00073739364518
 21
107.07763075285766
  0
LINE
  8
_0-0_
  6
CONTINUOUS
 62
    7
 10
152.92159976946061
 20
107.05603581039622
 11
152.96123476181594
 21
107.06656069636119
  0
LINE
  8
_0-0_
  6
CONTINUOUS
 62
    7
 10
152.9017344141231
 20
107.05097808097435
 11
152.92159976946061
 21
107.05603581039622
  0
LINE
  8
_0-0_
  6
CONTINUOUS
 62
    7
 10
152.8818380998465
 20
107.04605697391617
 11
152.9017344141231
 21
107.05097808097435
  0
LINE
  8
_0-0_
  6
CONTINUOUS
 62
    7
 10
152.84195543589851
 20
107.03662506722276
 11
152.8818380998465
 21
107.04605697391617
  0
LINE
  8
_0-0_
  6
CONTINUOUS
 62
    7
 10
152.80195746043148
 20
107.0277409712603
 11
152.84195543589851
 21
107.03662506722276
  0
LINE
  8
_0-0_
  6
CONTINUOUS
 62
    7
 10
152.78191700676791
 20
107.02350462761979
 11
152.80195746043148
 21
107.0277409712603
  0
LINE
  8
_0-0_
  6
CONTINUOUS
 62
    7
 10
152.76184985630618
 20
107.01940556699765
 11
152.78191700676791
 21
107.02350462761979
  0
LINE
  8
_0-0_
  6
CONTINUOUS
 62
    7
 10
152.721638306508
 20
107.01161973491025
 11
152.76184985630618
 21
107.01940556699765
  0
LINE
  8
_0-0_
  6
CONTINUOUS
 62
    7
 10
152.68132849418237
 20
107.00438435456999
 11
152.721638306508
 21
107.01161973491025
  0
LINE
  8
_0-0_
  6
CONTINUOUS
 62
    7
 10
152.64092610260843
 20
106.99770030433228
 11
152.68132849418237
 21
107.00438435456999
  0
LINE
  8
_0-0_
  6
CONTINUOUS
 62
    7
 10
152.60043681514173
 20
106.9915684611401
 11
152.64092610260843
 21
106.99770030433228
  0
LINE
  8
_0-0_
  6
CONTINUOUS
 62
    7
 10
152.55986631512644
 20
106.98598970043167
 11
152.60043681514173
 21
106.9915684611401
  0
LINE
  8
_0-0_
  6
CONTINUOUS
 62
    7
 10
152.53955238643005
 20
106.98340799917651
 11
152.55986631512644
 21
106.98598970043167
  0
LINE
  8
_0-0_
  6
CONTINUOUS
 62
    7
 10
152.51922028579168
 20
106.98096489616773
 11
152.53955238643005
 21
106.98340799917651
  0
LINE
  8
_0-0_
  6
CONTINUOUS
 62
    7
 10
152.4785044101319
 20
106.97649492096934
 11
152.51922028579168
 21
106.98096489616773
  0
LINE
  8
_0-0_
  6
CONTINUOUS
 62
    7
 10
152.43772437080145
 20
106.97258064636981
 11
152.4785044101319
 21
106.97649492096934
  0
LINE
  8
_0-0_
  6
CONTINUOUS
 62
    7
 10
152.39688585001034
 20
106.96922294318529
 11
152.43772437080145
 21
106.97258064636981
  0
LINE
  8
_0-0_
  6
CONTINUOUS
 62
    7
 10
152.35599452945019
 20
106.96642268200003
 11
152.39688585001034
 21
106.96922294318529
  0
LINE
  8
_0-0_
  6
CONTINUOUS
 62
    7
 10
152.31505609024691
 20
106.96418073375889
 11
152.35599452945019
 21
106.96642268200003
  0
LINE
  8
_0-0_
  6
CONTINUOUS
 62
    7
 10
152.29457097635134
 20
106.96326939943583
 11
152.31505609024691
 21
106.96418073375889
  0
LINE
  8
_0-0_
  6
CONTINUOUS
 62
    7
 10
152.27407621296391
 20
106.96249797048495
 11
152.29457097635134
 21
106.96326939943583
  0
LINE
  8
_0-0_
  6
CONTINUOUS
 62
    7
 10
152.2330605776516
 20
106.96137526609391
 11
152.27407621296391
 21
106.96249797048495
  0
LINE
  8
_0-0_
  6
CONTINUOUS
 62
    7
 10
152.19201486396207
 20
106.96081349733095
 11
152.2330605776516
 21
106.96137526609391
  0
LINE
  8
_0-0_
  6
CONTINUOUS
 62
    7
 10
152.17148327499046
 20
106.96074323881703
 11
152.19201486396207
 21
106.96081349733095
  0
LINE
  8
_0-0_
  6
CONTINUOUS
 62
    7
 10
152.19201486396207
 20
132.96067298030357
 11
152.17148327499046
 21
132.96074323881703
  0
LINE
  8
_0-0_
  6
CONTINUOUS
 62
    7
 10
152.2330605776516
 20
132.96011121154015
 11
152.19201486396207
 21
132.96067298030357
  0
LINE
  8
_0-0_
  6
CONTINUOUS
 62
    7
 10
152.27407621296527
 20
132.95898850714912
 11
152.2330605776516
 21
132.96011121154015
  0
LINE
  8
_0-0_
  6
CONTINUOUS
 62
    7
 10
152.29457097635225
 20
132.95821707819823
 11
152.27407621296527
 21
132.95898850714912
  0
LINE
  8
_0-0_
  6
CONTINUOUS
 62
    7
 10
152.31505609024782
 20
132.95730574387517
 11
152.29457097635225
 21
132.95821707819823
  0
LINE
  8
_0-0_
  6
CONTINUOUS
 62
    7
 10
152.35599452945064
 20
132.95506379563403
 11
152.31505609024782
 21
132.95730574387517
  0
LINE
  8
_0-0_
  6
CONTINUOUS
 62
    7
 10
152.3968858500117
 20
132.95226353444878
 11
152.35599452945064
 21
132.95506379563403
  0
LINE
  8
_0-0_
  6
CONTINUOUS
 62
    7
 10
152.43772437080281
 20
132.94890583126426
 11
152.3968858500117
 21
132.95226353444878
  0
LINE
  8
_0-0_
  6
CONTINUOUS
 62
    7
 10
152.47850441013372
 20
132.94499155666472
 11
152.43772437080281
 21
132.94890583126426
  0
LINE
  8
_0-0_
  6
CONTINUOUS
 62
    7
 10
152.51922028579349
 20
132.94052158146542
 11
152.47850441013372
 21
132.94499155666472
  0
LINE
  8
_0-0_
  6
CONTINUOUS
 62
    7
 10
152.53955238643232
 20
132.93807847845756
 11
152.51922028579349
 21
132.94052158146542
  0
LINE
  8
_0-0_
  6
CONTINUOUS
 62
    7
 10
152.55986631512872
 20
132.93549677720239
 11
152.53955238643232
 21
132.93807847845756
  0
LINE
  8
_0-0_
  6
CONTINUOUS
 62
    7
 10
152.60043681514355
 20
132.92991801649396
 11
152.55986631512872
 21
132.93549677720239
  0
LINE
  8
_0-0_
  6
CONTINUOUS
 62
    7
 10
152.64092610261025
 20
132.92378617330178
 11
152.60043681514355
 21
132.92991801649396
  0
LINE
  8
_0-0_
  6
CONTINUOUS
 62
    7
 10
152.68132849418419
 20
132.91710212306407
 11
152.64092610261025
 21
132.92378617330178
  0
LINE
  8
_0-0_
  6
CONTINUOUS
 62
    7
 10
152.72163830651027
 20
132.90986674272381
 11
152.68132849418419
 21
132.91710212306407
  0
LINE
  8
_0-0_
  6
CONTINUOUS
 62
    7
 10
152.76184985630755
 20
132.90208091063641
 11
152.72163830651027
 21
132.90986674272381
  0
LINE
  8
_0-0_
  6
CONTINUOUS
 62
    7
 10
152.78191700677019
 20
132.89798185001428
 11
152.76184985630755
 21
132.90208091063641
  0
LINE
  8
_0-0_
  6
CONTINUOUS
 62
    7
 10
152.80195746043375
 20
132.89374550637376
 11
152.78191700677019
 21
132.89798185001428
  0
LINE
  8
_0-0_
  6
CONTINUOUS
 62
    7
 10
152.84195543590033
 20
132.88486141041085
 11
152.80195746043375
 21
132.89374550637376
  0
LINE
  8
_0-0_
  6
CONTINUOUS
 62
    7
 10
152.88183809984787
 20
132.8754295037179
 11
152.84195543590033
 21
132.88486141041085
  0
LINE
  8
_0-0_
  6
CONTINUOUS
 62
    7
 10
152.90173441412537
 20
132.87050839665972
 11
152.88183809984787
 21
132.8754295037179
  0
LINE
  8
_0-0_
  6
CONTINUOUS
 62
    7
 10
152.92159976946243
 20
132.86545066723784
 11
152.90173441412537
 21
132.87050839665972
  0
LINE
  8
_0-0_
  6
CONTINUOUS
 62
    7
 10
152.96123476181776
 20
132.85492578127287
 11
152.92159976946243
 21
132.86545066723784
  0
LINE
  8
_0-0_
  6
CONTINUOUS
 62
    7
 10
153.00073739364655
 20
132.8438557247764
 11
152.96123476181776
 21
132.85492578127287
  0
LINE
  8
_0-0_
  6
CONTINUOUS
 62
    7
 10
153.02043729817353
 20
132.83811653168686
 11
153.00073739364655
 21
132.8438557247764
  0
LINE
  8
_0-0_
  6
CONTINUOUS
 62
    7
 10
153.0401019810248
 20
132.83224137455227
 11
153.02043729817353
 21
132.83811653168686
  0
LINE
  8
_0-0_
  6
CONTINUOUS
 62
    7
 10
153.07932283895263
 20
132.8200836043743
 11
153.0401019810248
 21
132.83224137455227
  0
LINE
  8
_0-0_
  6
CONTINUOUS
 62
    7
 10
153.11839428083942
 20
132.80738328402867
 11
153.07932283895263
 21
132.8200836043743
  0
LINE
  8
_0-0_
  6
CONTINUOUS
 62
    7
 10
153.15731061786994
 20
132.79414127828022
 11
153.11839428083942
 21
132.80738328402867
  0
LINE
  8
_0-0_
  6
CONTINUOUS
 62
    7
 10
153.19606615824353
 20
132.78035844578153
 11
153.15731061786994
 21
132.79414127828022
  0
LINE
  8
_0-0_
  6
CONTINUOUS
 62
    7
 10
153.23465520621687
 20
132.76603563795334
 11
153.19606615824353
 21
132.78035844578153
  0
LINE
  8
_0-0_
  6
CONTINUOUS
 62
    7
 10
153.25388012955966
 20
132.75867409021794
 11
153.23465520621687
 21
132.76603563795334
  0
LINE
  8
_0-0_
  6
CONTINUOUS
 62
    7
 10
153.27305064533596
 20
132.7511821520693
 11
153.25388012955966
 21
132.75867409021794
  0
LINE
  8
_0-0_
  6
CONTINUOUS
 62
    7
 10
153.31122586453114
 20
132.7358084325715
 11
153.27305064533596
 21
132.7511821520693
  0
LINE
  8
_0-0_
  6
CONTINUOUS
 62
    7
 10
153.34917568403955
 20
132.71991713505304
 11
153.31122586453114
 21
132.7358084325715
  0
LINE
  8
_0-0_
  6
CONTINUOUS
 62
    7
 10
153.38689492356355
 20
132.7035109148178
 11
153.34917568403955
 21
132.71991713505304
  0
LINE
  8
_0-0_
  6
CONTINUOUS
 62
    7
 10
153.42437840251171
 20
132.686592427498
 11
153.38689492356355
 21
132.7035109148178
  0
LINE
  8
_0-0_
  6
CONTINUOUS
 62
    7
 10
153.46162094025033
 20
132.66916432954122
 11
153.42437840251171
 21
132.686592427498
  0
LINE
  8
_0-0_
  6
CONTINUOUS
 62
    7
 10
153.4801502372635
 20
132.66026000702868
 11
153.46162094025033
 21
132.66916432954122
  0
LINE
  8
_0-0_
  6
CONTINUOUS
 62
    7
 10
153.49861735633488
 20
132.65122927857556
 11
153.4801502372635
 21
132.66026000702868
  0
LINE
  8
_0-0_
  6
CONTINUOUS
 62
    7
 10
153.53536247073237
 20
132.63278993366112
 11
153.49861735633488
 21
132.65122927857556
  0
LINE
  8
_0-0_
  6
CONTINUOUS
 62
    7
 10
153.57185110400326
 20
132.61384895541914
 11
153.53536247073237
 21
132.63278993366112
  0
LINE
  8
_0-0_
  6
CONTINUOUS
 62
    7
 10
153.6080780774538
 20
132.59440900605841
 11
153.57185110400326
 21
132.61384895541914
  0
LINE
  8
_0-0_
  6
CONTINUOUS
 62
    7
 10
153.64403821322605
 20
132.57447274928245
 11
153.6080780774538
 21
132.59440900605841
  0
LINE
  8
_0-0_
  6
CONTINUOUS
 62
    7
 10
153.67972633434067
 20
132.55404285010809
 11
153.64403821322605
 21
132.57447274928245
  0
LINE
  8
_0-0_
  6
CONTINUOUS
 62
    7
 10
153.69746677182786
 20
132.54364361772832
 11
153.67972633434067
 21
132.55404285010809
  0
LINE
  8
_0-0_
  6
CONTINUOUS
 62
    7
 10
153.71513726466139
 20
132.53312197457399
 11
153.69746677182786
 21
132.54364361772832
  0
LINE
  8
_0-0_
  6
CONTINUOUS
 62
    7
 10
153.75026582878593
 20
132.51171278936681
 11
153.71513726466139
 21
132.53312197457399
  0
LINE
  8
_0-0_
  6
CONTINUOUS
 62
    7
 10
153.78510685185131
 20
132.48981796135922
 11
153.75026582878593
 21
132.51171278936681
  0
LINE
  8
_0-0_
  6
CONTINUOUS
 62
    7
 10
153.81965515923696
 20
132.46744015707009
 11
153.78510685185131
 21
132.48981796135922
  0
LINE
  8
_0-0_
  6
CONTINUOUS
 62
    7
 10
153.85390557617359
 20
132.44458204205739
 11
153.81965515923696
 21
132.46744015707009
  0
LINE
  8
_0-0_
  6
CONTINUOUS
 62
    7
 10
153.88785292723162
 20
132.42124628024339
 11
153.85390557617359
 21
132.44458204205739
  0
LINE
  8
_0-0_
  6
CONTINUOUS
 62
    7
 10
153.90471133540188
 20
132.40940011363728
 11
153.88785292723162
 21
132.42124628024339
  0
LINE
  8
_0-0_
  6
CONTINUOUS
 62
    7
 10
153.92149203569454
 20
132.39743553319113
 11
153.90471133540188
 21
132.40940011363728
  0
LINE
  8
_0-0_
  6
CONTINUOUS
 62
    7
 10
153.95481772280448
 20
132.37315245933496
 11
153.92149203569454
 21
132.39743553319113
  0
LINE
  8
_0-0_
  6
CONTINUOUS
 62
    7
 10
153.98782480687771
 20
132.34839971317524
 11
153.95481772280448
 21
132.37315245933496
  0
LINE
  8
_0-0_
  6
CONTINUOUS
 62
    7
 10
154.02050810227058
 20
132.32317994444611
 11
153.98782480687771
 21
132.34839971317524
  0
LINE
  8
_0-0_
  6
CONTINUOUS
 62
    7
 10
154.05286241821079
 20
132.29749579727422
 11
154.02050810227058
 21
132.32317994444611
  0
LINE
  8
_0-0_
  6
CONTINUOUS
 62
    7
 10
154.08488255746863
 20
132.27134990932882
 11
154.05286241821079
 21
132.29749579727422
  0
LINE
  8
_0-0_
  6
CONTINUOUS
 62
    7
 10
154.10076568457964
 20
132.25810463486505
 11
154.08488255746863
 21
132.27134990932882
  0
LINE
  8
_0-0_
  6
CONTINUOUS
 62
    7
 10
154.11656331487404
 20
132.2447449109809
 11
154.10076568457964
 21
132.25810463486505
  0
LINE
  8
_0-0_
  6
CONTINUOUS
 62
    7
 10
154.14789947567454
 20
132.21768342448331
 11
154.11656331487404
 21
132.2447449109809
  0
LINE
  8
_0-0_
  6
CONTINUOUS
 62
    7
 10
154.17887047243505
 20
132.1901818765773
 11
154.14789947567454
 21
132.21768342448331
  0
LINE
  8
_0-0_
  6
CONTINUOUS
 62
    7
 10
154.19420861364972
 20
132.17627527522427
 11
154.17887047243505
 21
132.1901818765773
  0
LINE
  8
_0-0_
  6
CONTINUOUS
 62
    7
 10
154.20944776021781
 20
132.1622656113932
 11
154.19420861364972
 21
132.17627527522427
  0
LINE
  8
_0-0_
  6
CONTINUOUS
 62
    7
 10
154.23962709241061
 20
132.1339393069311
 11
154.20944776021781
 21
132.1622656113932
  0
LINE
  8
_0-0_
  6
CONTINUOUS
 62
    7
 10
154.26940451474422
 20
132.10520738442301
 11
154.23962709241061
 21
132.1339393069311
  0
LINE
  8
_0-0_
  6
CONTINUOUS
 62
    7
 10
154.28414127396957
 20
132.09069069811085
 11
154.26940451474422
 21
132.10520738442301
  0
LINE
  8
_0-0_
  6
CONTINUOUS
 62
    7
 10
154.29877607286755
 20
132.07607426541836
 11
154.28414127396957
 21
132.09069069811085
  0
LINE
  8
_0-0_
  6
CONTINUOUS
 62
    7
 10
154.32773781280969
 20
132.04654437222734
 11
154.29877607286755
 21
132.07607426541836
  0
LINE
  8
_0-0_
  6
CONTINUOUS
 62
    7
 10
154.3562857813946
 20
132.01662212824931
 11
154.32773781280969
 21
132.04654437222734
  0
LINE
  8
_0-0_
  6
CONTINUOUS
 62
    7
 10
154.38441602659452
 20
131.98631195818461
 11
154.3562857813946
 21
132.01662212824931
  0
LINE
  8
_0-0_
  6
CONTINUOUS
 62
    7
 10
154.41212459782366
 20
131.95561828814061
 11
154.38441602659452
 21
131.98631195818461
  0
LINE
  8
_0-0_
  6
CONTINUOUS
 62
    7
 10
154.43940754615198
 20
131.92454554563892
 11
154.41212459782366
 21
131.95561828814061
  0
LINE
  8
_0-0_
  6
CONTINUOUS
 62
    7
 10
154.45288817817448
 20
131.90886840618441
 11
154.43940754615198
 21
131.92454554563892
  0
LINE
  8
_0-0_
  6
CONTINUOUS
 62
    7
 10
154.4662609244366
 20
131.89309815953038
 11
154.45288817817448
 21
131.90886840618441
  0
LINE
  8
_0-0_
  6
CONTINUOUS
 62
    7
 10
154.49268078736361
 20
131.86128055982817
 11
154.4662609244366
 21
131.89309815953038
  0
LINE
  8
_0-0_
  6
CONTINUOUS
 62
    7
 10
154.51866319138674
 20
131.82909717746679
 11
154.49268078736361
 21
131.86128055982817
  0
LINE
  8
_0-0_
  6
CONTINUOUS
 62
    7
 10
154.5442041945654
 20
131.79655244399464
 11
154.51866319138674
 21
131.82909717746679
  0
LINE
  8
_0-0_
  6
CONTINUOUS
 62
    7
 10
154.56929985628233
 20
131.76365079121251
 11
154.5442041945654
 21
131.79655244399464
  0
LINE
  8
_0-0_
  6
CONTINUOUS
 62
    7
 10
154.59394623685114
 20
131.73039665076385
 11
154.56929985628233
 21
131.76365079121251
  0
LINE
  8
_0-0_
  6
CONTINUOUS
 62
    7
 10
154.60609971568158
 20
131.71363878240254
 11
154.59394623685114
 21
131.73039665076385
  0
LINE
  8
_0-0_
  6
CONTINUOUS
 62
    7
 10
154.61813939699198
 20
131.69679445369411
 11
154.60609971568158
 21
131.71363878240254
  0
LINE
  8
_0-0_
  6
CONTINUOUS
 62
    7
 10
154.64187539717761
 20
131.66284862998327
 11
154.61813939699198
 21
131.69679445369411
  0
LINE
  8
_0-0_
  6
CONTINUOUS
 62
    7
 10
154.66515029685218
 20
131.62856360806563
 11
154.64187539717761
 21
131.66284862998327
  0
LINE
  8
_0-0_
  6
CONTINUOUS
 62
    7
 10
154.68796015350028
 20
131.59394381435186
 11
154.66515029685218
 21
131.62856360806563
  0
LINE
  8
_0-0_
  6
CONTINUOUS
 62
    7
 10
154.7103010215834
 20
131.55899367275606
 11
154.68796015350028
 21
131.59394381435186
  0
LINE
  8
_0-0_
  6
CONTINUOUS
 62
    7
 10
154.73216895132839
 20
131.52371760425058
 11
154.7103010215834
 21
131.55899367275606
  0
LINE
  8
_0-0_
  6
CONTINUOUS
 62
    7
 10
154.74292432852928
 20
131.50595872805343
 11
154.73216895132839
 21
131.52371760425058
  0
LINE
  8
_0-0_
  6
CONTINUOUS
 62
    7
 10
154.75355998736507
 20
131.48812002645445
 11
154.74292432852928
 21
131.50595872805343
  0
LINE
  8
_0-0_
  6
CONTINUOUS
 62
    7
 10
154.77447016722374
 20
131.45220535327599
 11
154.75355998736507
 21
131.48812002645445
  0
LINE
  8
_0-0_
  6
CONTINUOUS
 62
    7
 10
154.79489551967129
 20
131.4159779946076
 11
154.77447016722374
 21
131.45220535327599
  0
LINE
  8
_0-0_
  6
CONTINUOUS
 62
    7
 10
154.81483206291216
 20
131.3794423561053
 11
154.79489551967129
 21
131.4159779946076
  0
LINE
  8
_0-0_
  6
CONTINUOUS
 62
    7
 10
154.83427580262708
 20
131.3426028390536
 11
154.81483206291216
 21
131.3794423561053
  0
LINE
  8
_0-0_
  6
CONTINUOUS
 62
    7
 10
154.85322272680889
 20
131.30546384643822
 11
154.83427580262708
 21
131.3426028390536
  0
LINE
  8
_0-0_
  6
CONTINUOUS
 62
    7
 10
154.86250503057056
 20
131.28679071571878
 11
154.85322272680889
 21
131.30546384643822
  0
LINE
  8
_0-0_
  6
CONTINUOUS
 62
    7
 10
154.87165501756192
 20
131.2680582584735
 11
154.86250503057056
 21
131.28679071571878
  0
LINE
  8
_0-0_
  6
CONTINUOUS
 62
    7
 10
154.88955711549318
 20
131.23041823564654
 11
154.87165501756192
 21
131.2680582584735
  0
LINE
  8
_0-0_
  6
CONTINUOUS
 62
    7
 10
154.90692716718206
 20
131.19254951931407
 11
154.88955711549318
 21
131.23041823564654
  0
LINE
  8
_0-0_
  6
CONTINUOUS
 62
    7
 10
154.92376331673825
 20
131.15445784951726
 11
154.90692716718206
 21
131.19254951931407
  0
LINE
  8
_0-0_
  6
CONTINUOUS
 62
    7
 10
154.94006370664795
 20
131.11614896558376
 11
154.92376331673825
 21
131.15445784951726
  0
LINE
  8
_0-0_
  6
CONTINUOUS
 62
    7
 10
154.95582647855292
 20
131.07762860660432
 11
154.94006370664795
 21
131.11614896558376
  0
LINE
  8
_0-0_
  6
CONTINUOUS
 62
    7
 10
154.96350567695947
 20
131.058290917465
 11
154.95582647855292
 21
131.07762860660432
  0
LINE
  8
_0-0_
  6
CONTINUOUS
 62
    7
 10
154.97104977394986
 20
131.03890251179519
 11
154.96350567695947
 21
131.058290917465
  0
LINE
  8
_0-0_
  6
CONTINUOUS
 62
    7
 10
154.98573173480338
 20
130.99997642075641
 11
154.97104977394986
 21
131.03890251179519
  0
LINE
  8
_0-0_
  6
CONTINUOUS
 62
    7
 10
154.99987050407037
 20
130.96085607364057
 11
154.98573173480338
 21
130.99997642075641
  0
LINE
  8
_0-0_
  6
CONTINUOUS
 62
    7
 10
155.00673561191036
 20
130.94122484802301
 11
154.99987050407037
 21
130.96085607364057
  0
LINE
  8
_0-0_
  6
CONTINUOUS
 62
    7
 10
155.01346422612244
 20
130.92154721123052
 11
155.00673561191036
 21
130.94122484802301
  0
LINE
  8
_0-0_
  6
CONTINUOUS
 62
    7
 10
155.02651104706104
 20
130.88205557494939
 11
155.01346422612244
 21
130.92154721123052
  0
LINE
  8
_0-0_
  6
CONTINUOUS
 62
    7
 10
155.03900911492576
 20
130.84238690680559
 11
155.02651104706104
 21
130.88205557494939
  0
LINE
  8
_0-0_
  6
CONTINUOUS
 62
    7
 10
155.04505178827378
 20
130.82248798029877
 11
155.03900911492576
 21
130.84238690680559
  0
LINE
  8
_0-0_
  6
CONTINUOUS
 62
    7
 10
155.05095657978666
 20
130.80254694929044
 11
155.04505178827378
 21
130.82248798029877
  0
LINE
  8
_0-0_
  6
CONTINUOUS
 62
    7
 10
155.06235159371283
 20
130.76254144523182
 11
155.05095657978666
 21
130.80254694929044
  0
LINE
  8
_0-0_
  6
CONTINUOUS
 62
    7
 10
155.07319231062149
 20
130.72237613762081
 11
155.06235159371283
 21
130.76254144523182
  0
LINE
  8
_0-0_
  6
CONTINUOUS
 62
    7
 10
155.08347688600054
 20
130.68205676942534
 11
155.07319231062149
 21
130.72237613762081
  0
LINE
  8
_0-0_
  6
CONTINUOUS
 62
    7
 10
155.09320347650112
 20
130.64158908339914
 11
155.08347688600054
 21
130.68205676942534
  0
LINE
  8
_0-0_
  6
CONTINUOUS
 62
    7
 10
155.10237023940238
 20
130.60097882189757
 11
155.09320347650112
 21
130.64158908339914
  0
LINE
  8
_0-0_
  6
CONTINUOUS
 62
    7
 10
155.10674310966272
 20
130.58062201967914
 11
155.10237023940238
 21
130.60097882189757
  0
LINE
  8
_0-0_
  6
CONTINUOUS
 62
    7
 10
155.11097533194209
 20
130.56023172671303
 11
155.10674310966272
 21
130.58062201967914
  0
LINE
  8
_0-0_
  6
CONTINUOUS
 62
    7
 10
155.11901691052128
 20
130.5193535389526
 11
155.11097533194209
 21
130.56023172671303
  0
LINE
  8
_0-0_
  6
CONTINUOUS
 62
    7
 10
155.12649312977339
 20
130.47834999895258
 11
155.11901691052128
 21
130.5193535389526
  0
LINE
  8
_0-0_
  6
CONTINUOUS
 62
    7
 10
155.13340214151015
 20
130.43722684625482
 11
155.12649312977339
 21
130.47834999895258
  0
LINE
  8
_0-0_
  6
CONTINUOUS
 62
    7
 10
155.13974209353466
 20
130.39598981966037
 11
155.13340214151015
 21
130.43722684625482
  0
LINE
  8
_0-0_
  6
CONTINUOUS
 62
    7
 10
155.14551112833544
 20
130.3546446573614
 11
155.13974209353466
 21
130.39598981966037
  0
LINE
  8
_0-0_
  6
CONTINUOUS
 62
    7
 10
155.1481809695016
 20
130.3339333183967
 11
155.14551112833544
 21
130.3546446573614
  0
LINE
  8
_0-0_
  6
CONTINUOUS
 62
    7
 10
155.15070738165525
 20
130.31319709717445
 11
155.1481809695016
 21
130.3339333183967
  0
LINE
  8
_0-0_
  6
CONTINUOUS
 62
    7
 10
155.15532898094773
 20
130.27165287688194
 11
155.15070738165525
 21
130.31319709717445
  0
LINE
  8
_0-0_
  6
CONTINUOUS
 62
    7
 10
155.15937404372164
 20
130.23001773469878
 11
155.15532898094773
 21
130.27165287688194
  0
LINE
  8
_0-0_
  6
CONTINUOUS
 62
    7
 10
155.16117978248406
 20
130.20916786135376
 11
155.15937404372164
 21
130.23001773469878
  0
CIRCLE
  8
_0-0_
  6
CONTINUOUS
 62
    7
 10
24.012758199245695
 20
119.96074323881749
 40
2.5499999999999998
  0
CIRCLE
  8
_0-0_
  6
CONTINUOUS
 62
    7
 10
146.0127581992457
 20
119.96074323881749
 40
2.5499999999999998
  0
CIRCLE
  8
_0-0_
  6
CONTINUOUS
 62
    7
 10
24.012758199245695
 20
119.96074323881749
 40
6
  0
CIRCLE
  8
_0-0_
  6
CONTINUOUS
 62
    7
 10
146.0127581992457
 20
119.96074323881749
 40
6
  0
LINE
  8
_0-0_
  6
CONTINUOUS
 62
    7
 10
156.01275819924615
 20
19.821044024929279
 11
156.01275819924615
 21
41.018022772873564
  0
LINE
  8
_0-0_
  6
CONTINUOUS
 62
    7
 10
130.51275819924615
 20
69.821044024928824
 11
39.512758199245695
 21
69.821044024928824
  0
LINE
  8
_0-0_
  6
CONTINUOUS
 62
    7
 10
14.01275819924615
 20
41.018022772873564
 11
14.01275819924615
 21
19.821044024929279
  0
LINE
  8
_0-0_
  6
CONTINUOUS
 62
    7
 10
14.01275819924615
 20
19.821044024929279
 11
36.01275819924615
 21
19.821044024929279
  0
LINE
  8
_0-0_
  6
CONTINUOUS
 62
    7
 10
36.01275819924615
 20
19.821044024929279
 11
38.142061140932242
 21
50.761800194338093
  0
LINE
  8
_0-0_
  6
CONTINUOUS
 62
    7
 10
47.092758199246532
 20
58.821044024929279
 11
122.93275819924622
 21
58.821044024929279
  0
LINE
  8
_0-0_
  6
CONTINUOUS
 62
    7
 10
131.88345525756097
 20
50.761800194337638
 11
134.0127581992457
 21
19.821044024929279
  0
LINE
  8
_0-0_
  6
CONTINUOUS
 62
    7
 10
134.0127581992457
 20
19.821044024929279
 11
156.01275819924615
 21
19.821044024929279
  0
ARC
  8
_0-0_
  6
CONTINUOUS
 62
    7
 10
97.694758199245939
 20
17.185044024928857
 40
63.000000000000128
 50
22.228497799129435
 51
55.396677714091147
  0
ARC
  8
_0-0_
  6
CONTINUOUS
 62
    7
 10
130.51275819924615
 20
63.821044024929279
 40
5.9999999999998863
 50
60.449281819131208
 51
90.000000000000028
  0
ARC
  8
_0-0_
  6
CONTINUOUS
 62
    7
 10
72.330758199245452
 20
17.185044024928857
 40
62.999999999999552
 50
130.69998651012034
 51
157.77150220087034
  0
ARC
  8
_0-0_
  6
CONTINUOUS
 62
    7
 10
39.512758199245695
 20
63.821044024929279
 40
5.9999999999998863
 50
90
 51
119.55071818091008
  0
ARC
  8
_0-0_
  6
CONTINUOUS
 62
    7
 10
72.330758199244087
 20
17.18504402493113
 40
62.999999999997016
 50
124.6033222859124
 51
130.69998651012051
  0
ARC
  8
_0-0_
  6
CONTINUOUS
 62
    7
 10
122.93275819924622
 20
49.821044024929279
 40
9.0000000000000284
 50
5.9999999999969846
 51
89.999999999999972
  0
ARC
  8
_0-0_
  6
CONTINUOUS
 62
    7
 10
47.092758199246532
 20
49.821044024929279
 40
9.0000000000000497
 50
90
 51
173.9999999999998
  0
LINE
  8
_0-0_
  6
CONTINUOUS
 62
    7
 10
204.99942033278001
 20
19.821044024929279
 11
230.99942033278046
 21
19.821044024929279
  0
LINE
  8
_0-0_
  6
CONTINUOUS
 62
    7
 10
230.99942033278046
 20
19.821044024929279
 11
230.99942033278046
 21
65.979769100674503
  0
LINE
  8
_0-0_
  6
CONTINUOUS
 62
    7
 10
228.41048172026046
 20
68.969465608167638
 11
228.41048172026046
 21
19.821044024929279
  0
LINE
  8
_0-0_
  6
CONTINUOUS
 62
    7
 10
217.99942033278046
 20
69.821044024929279
 11
207.75099571024418
 21
68.969465608167638
  0
LINE
  8
_0-0_
  6
CONTINUOUS
 62
    7
 10
207.91363247518746
 20
68.969465608167638
 11
207.91363247518746
 21
19.821044024929279
  0
LINE
  8
_0-0_
  6
CONTINUOUS
 62
    7
 10
204.99942033278001
 20
19.821044024929279
 11
204.99942033278001
 21
65.979769100674503
  0
LINE
  8
_0-0_
  6
CONTINUOUS
 62
    7
 10
217.99942033278046
 20
69.821044024929279
 11
228.24784495531719
 21
68.969465608167638
  0
LINE
  8
_0-0_
  6
CONTINUOUS
 62
    7
 10
225.93075509262223
 20
52.56651159837088
 11
225.90394472258583
 21
52.3472429865908
  0
LINE
  8
_0-0_
  6
CONTINUOUS
 62
    7
 10
225.90394472258583
 20
52.3472429865908
 11
225.84387546084497
 21
51.909628393278808
  0
LINE
  8
_0-0_
  6
CONTINUOUS
 62
    7
 10
225.84387546084497
 20
51.909628393278808
 11
225.77538096059277
 21
51.473544157867536
  0
LINE
  8
_0-0_
  6
CONTINUOUS
 62
    7
 10
225.77538096059277
 20
51.473544157867536
 11
225.73803971764198
 21
51.256169666029336
  0
LINE
  8
_0-0_
  6
CONTINUOUS
 62
    7
 10
225.73803971764198
 20
51.256169666029336
 11
225.69849424640495
 21
51.038335207193313
  0
LINE
  8
_0-0_
  6
CONTINUOUS
 62
    7
 10
225.69849424640495
 20
51.038335207193313
 11
225.61246786221716
 21
50.599854810853458
  0
LINE
  8
_0-0_
  6
CONTINUOUS
 62
    7
 10
225.61246786221716
 20
50.599854810853458
 11
225.51710825776797
 21
50.157888327179762
  0
LINE
  8
_0-0_
  6
CONTINUOUS
 62
    7
 10
225.51710825776797
 20
50.157888327179762
 11
225.4123268359134
 21
49.71275500453271
  0
LINE
  8
_0-0_
  6
CONTINUOUS
 62
    7
 10
225.4123268359134
 20
49.71275500453271
 11
225.29805131455839
 21
49.264777559469394
  0
LINE
  8
_0-0_
  6
CONTINUOUS
 62
    7
 10
225.29805131455839
 20
49.264777559469394
 11
225.1742252252169
 21
48.814280703312534
  0
LINE
  8
_0-0_
  6
CONTINUOUS
 62
    7
 10
225.1742252252169
 20
48.814280703312534
 11
225.10871729808593
 21
48.588189354633641
  0
LINE
  8
_0-0_
  6
CONTINUOUS
 62
    7
 10
225.10871729808593
 20
48.588189354633641
 11
225.04080761317152
 21
48.361590819740059
  0
LINE
  8
_0-0_
  6
CONTINUOUS
 62
    7
 10
225.04080761317152
 20
48.361590819740059
 11
224.89777349765325
 21
47.907038014154523
  0
LINE
  8
_0-0_
  6
CONTINUOUS
 62
    7
 10
224.89777349765325
 20
47.907038014154523
 11
224.74511378761042
 21
47.450955775384273
  0
LINE
  8
_0-0_
  6
CONTINUOUS
 62
    7
 10
224.74511378761042
 20
47.450955775384273
 11
224.5828347794494
 21
46.993679499208838
  0
LINE
  8
_0-0_
  6
CONTINUOUS
 62
    7
 10
224.5828347794494
 20
46.993679499208838
 11
224.41095693373688
 21
46.535543499897585
  0
LINE
  8
_0-0_
  6
CONTINUOUS
 62
    7
 10
224.41095693373688
 20
46.535543499897585
 11
224.22951008264943
 21
46.076870027036648
  0
LINE
  8
_0-0_
  6
CONTINUOUS
 62
    7
 10
224.22951008264943
 20
46.076870027036648
 11
224.13521262354777
 21
45.847435895546141
  0
LINE
  8
_0-0_
  6
CONTINUOUS
 62
    7
 10
224.13521262354777
 20
45.847435895546141
 11
224.03854223323185
 21
45.617993258278375
  0
LINE
  8
_0-0_
  6
CONTINUOUS
 62
    7
 10
224.03854223323185
 20
45.617993258278375
 11
223.83811740218596
 21
45.159252039976082
  0
LINE
  8
_0-0_
  6
CONTINUOUS
 62
    7
 10
223.83811740218596
 20
45.159252039976082
 11
223.62831386598361
 21
44.70098530365226
  0
LINE
  8
_0-0_
  6
CONTINUOUS
 62
    7
 10
223.62831386598361
 20
44.70098530365226
 11
223.51992326996958
 21
44.472135457261857
  0
LINE
  8
_0-0_
  6
CONTINUOUS
 62
    7
 10
223.51992315091582
 20
62.153078453982516
 11
223.62612285991315
 21
61.968390939717892
  0
LINE
  8
_0-0_
  6
CONTINUOUS
 62
    7
 10
223.62612285991315
 20
61.968390939717892
 11
223.83210030316138
 21
61.595459943419655
  0
LINE
  8
_0-0_
  6
CONTINUOUS
 62
    7
 10
223.83210030316138
 20
61.595459943419655
 11
224.02946363008402
 21
61.217818271178885
  0
LINE
  8
_0-0_
  6
CONTINUOUS
 62
    7
 10
224.02946363008402
 20
61.217818271178885
 11
224.12488166604351
 21
61.027271462215367
  0
LINE
  8
_0-0_
  6
CONTINUOUS
 62
    7
 10
224.12488166604351
 20
61.027271462215367
 11
224.21810584548609
 21
60.835599368695739
  0
LINE
  8
_0-0_
  6
CONTINUOUS
 62
    7
 10
224.21810584548609
 20
60.835599368695739
 11
224.39792203643435
 21
60.448958504716984
  0
LINE
  8
_0-0_
  6
CONTINUOUS
 62
    7
 10
224.39792203643435
 20
60.448958504716984
 11
224.56881743502879
 21
60.058058875856887
  0
LINE
  8
_0-0_
  6
CONTINUOUS
 62
    7
 10
224.56881743502879
 20
60.058058875856887
 11
224.73070784749859
 21
59.663070964529879
  0
LINE
  8
_0-0_
  6
CONTINUOUS
 62
    7
 10
224.73070784749859
 20
59.663070964529879
 11
224.88351998382302
 21
59.2641718845573
  0
LINE
  8
_0-0_
  6
CONTINUOUS
 62
    7
 10
224.88351998382302
 20
59.2641718845573
 11
225.02719124568273
 21
58.861546019304342
  0
LINE
  8
_0-0_
  6
CONTINUOUS
 62
    7
 10
225.02719124568273
 20
58.861546019304342
 11
225.0955823011717
 21
58.65889555291119
  0
LINE
  8
_0-0_
  6
CONTINUOUS
 62
    7
 10
225.0955823011717
 20
58.65889555291119
 11
225.16166936347224
 21
58.455386475207206
  0
LINE
  8
_0-0_
  6
CONTINUOUS
 62
    7
 10
225.16166936347224
 20
58.455386475207206
 11
225.2869127934772
 21
58.045894712237669
  0
LINE
  8
_0-0_
  6
CONTINUOUS
 62
    7
 10
225.2869127934772
 20
58.045894712237669
 11
225.40289116830797
 21
57.633279766743044
  0
LINE
  8
_0-0_
  6
CONTINUOUS
 62
    7
 10
225.40289116830797
 20
57.633279766743044
 11
225.50958568347403
 21
57.217757285792004
  0
LINE
  8
_0-0_
  6
CONTINUOUS
 62
    7
 10
225.50958568347403
 20
57.217757285792004
 11
225.60699167774771
 21
56.7995380610962
  0
LINE
  8
_0-0_
  6
CONTINUOUS
 62
    7
 10
225.60699167774771
 20
56.7995380610962
 11
225.69511420418064
 21
56.378843986634593
  0
LINE
  8
_0-0_
  6
CONTINUOUS
 62
    7
 10
225.69511420418064
 20
56.378843986634593
 11
225.73569827031486
 21
56.167642807390394
  0
LINE
  8
_0-0_
  6
CONTINUOUS
 62
    7
 10
225.73569827031486
 20
56.167642807390394
 11
225.77396786972793
 21
55.955912607996424
  0
LINE
  8
_0-0_
  6
CONTINUOUS
 62
    7
 10
225.77396786972793
 20
55.955912607996424
 11
225.84357920468108
 21
55.530989023445045
  0
LINE
  8
_0-0_
  6
CONTINUOUS
 62
    7
 10
225.84357920468108
 20
55.530989023445045
 11
225.9039869960651
 21
55.10432489125219
  0
LINE
  8
_0-0_
  6
CONTINUOUS
 62
    7
 10
225.9039869960651
 20
55.10432489125219
 11
225.93075509262223
 21
54.89042029802772
  0
LINE
  8
_0-0_
  6
CONTINUOUS
 62
    7
 10
225.93075509262223
 20
54.89042029802772
 11
225.95193534002362
 21
54.696938771330906
  0
LINE
  8
_0-0_
  6
CONTINUOUS
 62
    7
 10
225.95193534002362
 20
54.696938771330906
 11
225.98248071190926
 21
54.310641935169997
  0
LINE
  8
_0-0_
  6
CONTINUOUS
 62
    7
 10
225.98248071190926
 20
54.310641935169997
 11
225.99755709996941
 21
53.925962828361435
  0
LINE
  8
_0-0_
  6
CONTINUOUS
 62
    7
 10
225.99755709996941
 20
53.925962828361435
 11
225.99942033278046
 21
53.734507721092768
  0
LINE
  8
_0-0_
  6
CONTINUOUS
 62
    7
 10
225.99942033278046
 20
53.734507721092768
 11
225.99755951250597
 21
53.542847929383925
  0
LINE
  8
_0-0_
  6
CONTINUOUS
 62
    7
 10
225.99755951250597
 20
53.542847929383925
 11
225.98249540332642
 21
53.155636471529078
  0
LINE
  8
_0-0_
  6
CONTINUOUS
 62
    7
 10
225.98249540332642
 20
53.155636471529078
 11
225.95194907093344
 21
52.763852248057674
  0
LINE
  8
_0-0_
  6
CONTINUOUS
 62
    7
 10
225.95194907093344
 20
52.763852248057674
 11
225.93075509262223
 21
52.56651159837088
  0
LINE
  8
_0-0_
  6
CONTINUOUS
 62
    7
 10
223.51992326996958
 20
44.472135457261857
 11
223.43937459419874
 21
44.311380364015122
  0
LINE
  8
_0-0_
  6
CONTINUOUS
 62
    7
 10
223.43937459419874
 20
44.311380364015122
 11
223.26091581070148
 21
43.998045809123823
  0
LINE
  8
_0-0_
  6
CONTINUOUS
 62
    7
 10
223.26091581070148
 20
43.998045809123823
 11
223.06066286689372
 21
43.697573189605237
  0
LINE
  8
_0-0_
  6
CONTINUOUS
 62
    7
 10
223.06066286689372
 20
43.697573189605237
 11
222.9529619132353
 21
43.552848075340307
  0
LINE
  8
_0-0_
  6
CONTINUOUS
 62
    7
 10
222.9529619132353
 20
43.552848075340307
 11
222.84057229803136
 21
43.412129595647684
  0
LINE
  8
_0-0_
  6
CONTINUOUS
 62
    7
 10
222.84057229803136
 20
43.412129595647684
 11
222.60296330193421
 21
43.143639376428155
  0
LINE
  8
_0-0_
  6
CONTINUOUS
 62
    7
 10
222.60296330193421
 20
43.143639376428155
 11
222.35056719833744
 21
42.89381292973826
  0
LINE
  8
_0-0_
  6
CONTINUOUS
 62
    7
 10
222.35056719833744
 20
42.89381292973826
 11
222.08297663361634
 21
42.661196200893983
  0
LINE
  8
_0-0_
  6
CONTINUOUS
 62
    7
 10
222.08297663361634
 20
42.661196200893983
 11
221.79398400371326
 21
42.440989644938554
  0
LINE
  8
_0-0_
  6
CONTINUOUS
 62
    7
 10
221.79398400371326
 20
42.440989644938554
 11
221.48486135422888
 21
42.235746532628809
  0
LINE
  8
_0-0_
  6
CONTINUOUS
 62
    7
 10
221.48486135422888
 20
42.235746532628809
 11
221.3233464166259
 21
42.139538900139314
  0
LINE
  8
_0-0_
  6
CONTINUOUS
 62
    7
 10
221.3233464166259
 20
42.139538900139314
 11
221.15754105392068
 21
42.047984691234205
  0
LINE
  8
_0-0_
  6
CONTINUOUS
 62
    7
 10
221.15754105392068
 20
42.047984691234205
 11
220.81421219439733
 21
41.879840859001661
  0
LINE
  8
_0-0_
  6
CONTINUOUS
 62
    7
 10
220.81421219439733
 20
41.879840859001661
 11
220.45736442307668
 21
41.733094253062745
  0
LINE
  8
_0-0_
  6
CONTINUOUS
 62
    7
 10
220.45736442307668
 20
41.733094253062745
 11
220.08956611791189
 21
41.609074562697742
  0
LINE
  8
_0-0_
  6
CONTINUOUS
 62
    7
 10
220.08956611791189
 20
41.609074562697742
 11
219.7133667677507
 21
41.508679423486456
  0
LINE
  8
_0-0_
  6
CONTINUOUS
 62
    7
 10
219.7133667677507
 20
41.508679423486456
 11
219.33178881691481
 21
41.432509915191304
  0
LINE
  8
_0-0_
  6
CONTINUOUS
 62
    7
 10
219.33178881691481
 20
41.432509915191304
 11
219.13996291363208
 21
41.403574094937312
  0
LINE
  8
_0-0_
  6
CONTINUOUS
 62
    7
 10
219.13996291363208
 20
41.403574094937312
 11
218.94797174652729
 21
41.380712909759268
  0
LINE
  8
_0-0_
  6
CONTINUOUS
 62
    7
 10
218.94797174652729
 20
41.380712909759268
 11
218.56512671496409
 21
41.352968854998153
  0
LINE
  8
_0-0_
  6
CONTINUOUS
 62
    7
 10
218.56512671496409
 20
41.352968854998153
 11
218.18659504880986
 21
41.348483566777531
  0
LINE
  8
_0-0_
  6
CONTINUOUS
 62
    7
 10
218.18659504880986
 20
41.348483566777531
 11
217.99942033278046
 21
41.354605551645136
  0
LINE
  8
_0-0_
  6
CONTINUOUS
 62
    7
 10
217.99942033278046
 20
41.354605551645136
 11
217.81224562340765
 21
41.348483566897585
  0
LINE
  8
_0-0_
  6
CONTINUOUS
 62
    7
 10
217.81224562340765
 20
41.348483566897585
 11
217.4337139708831
 21
41.352968854150504
  0
LINE
  8
_0-0_
  6
CONTINUOUS
 62
    7
 10
217.4337139708831
 20
41.352968854150504
 11
217.05086895307784
 21
41.380712906239978
  0
LINE
  8
_0-0_
  6
CONTINUOUS
 62
    7
 10
217.05086895307784
 20
41.380712906239978
 11
216.8588777927888
 21
41.403574089426229
  0
LINE
  8
_0-0_
  6
CONTINUOUS
 62
    7
 10
216.8588777927888
 20
41.403574089426229
 11
216.66705189622542
 21
41.432509907249596
  0
LINE
  8
_0-0_
  6
CONTINUOUS
 62
    7
 10
216.66705189622542
 20
41.432509907249596
 11
216.28547395837529
 21
41.508679409383831
  0
LINE
  8
_0-0_
  6
CONTINUOUS
 62
    7
 10
216.28547395837529
 20
41.508679409383831
 11
215.9092746203213
 21
41.609074540779829
  0
LINE
  8
_0-0_
  6
CONTINUOUS
 62
    7
 10
215.9092746203213
 20
41.609074540779829
 11
215.54147632611864
 21
41.733094221806596
  0
LINE
  8
_0-0_
  6
CONTINUOUS
 62
    7
 10
215.54147632611864
 20
41.733094221806596
 11
215.18462856441954
 21
41.879840817043487
  0
LINE
  8
_0-0_
  6
CONTINUOUS
 62
    7
 10
215.18462856441954
 20
41.879840817043487
 11
214.84129971286609
 21
42.047984637478976
  0
LINE
  8
_0-0_
  6
CONTINUOUS
 62
    7
 10
214.84129971286609
 20
42.047984637478976
 11
214.67549435346325
 21
42.139538840167234
  0
LINE
  8
_0-0_
  6
CONTINUOUS
 62
    7
 10
214.67549435346325
 20
42.139538840167234
 11
214.51397941868606
 21
42.235746466278897
  0
LINE
  8
_0-0_
  6
CONTINUOUS
 62
    7
 10
214.51397941868606
 20
42.235746466278897
 11
214.20485677334807
 21
42.440989565537848
  0
LINE
  8
_0-0_
  6
CONTINUOUS
 62
    7
 10
214.20485677334807
 20
42.440989565537848
 11
213.91586414549499
 21
42.661196108392915
  0
LINE
  8
_0-0_
  6
CONTINUOUS
 62
    7
 10
213.91586414549499
 20
42.661196108392915
 11
213.6482735819726
 21
42.893812823319649
  0
LINE
  8
_0-0_
  6
CONTINUOUS
 62
    7
 10
213.6482735819726
 20
42.893812823319649
 11
213.3958774811889
 21
43.143639252195271
  0
LINE
  8
_0-0_
  6
CONTINUOUS
 62
    7
 10
213.3958774811889
 20
43.143639252195271
 11
213.15826848545737
 21
43.412129453031184
  0
LINE
  8
_0-0_
  6
CONTINUOUS
 62
    7
 10
213.15826848545737
 20
43.412129453031184
 11
213.04587886948582
 21
43.552847923415584
  0
LINE
  8
_0-0_
  6
CONTINUOUS
 62
    7
 10
213.04587886948582
 20
43.552847923415584
 11
212.93817791442041
 21
43.697573028342276
  0
LINE
  8
_0-0_
  6
CONTINUOUS
 62
    7
 10
212.93817791442041
 20
43.697573028342276
 11
212.73792496586145
 21
43.998045629271701
  0
LINE
  8
_0-0_
  6
CONTINUOUS
 62
    7
 10
212.73792496586145
 20
43.998045629271701
 11
212.55946617503366
 21
44.311380165995843
  0
LINE
  8
_0-0_
  6
CONTINUOUS
 62
    7
 10
212.55946617503366
 20
44.311380165995843
 11
212.47891749464986
 21
44.4721352504273
  0
LINE
  8
_0-0_
  6
CONTINUOUS
 62
    7
 10
217.99942033278046
 20
64.947516877888802
 11
218.18725151853766
 21
64.936480399187758
  0
LINE
  8
_0-0_
  6
CONTINUOUS
 62
    7
 10
218.18725151853766
 20
64.936480399187758
 11
218.5664055199494
 21
64.902050822860247
  0
LINE
  8
_0-0_
  6
CONTINUOUS
 62
    7
 10
218.5664055199494
 20
64.902050822860247
 11
218.9500232805766
 21
64.850475386399239
  0
LINE
  8
_0-0_
  6
CONTINUOUS
 62
    7
 10
218.9500232805766
 20
64.850475386399239
 11
219.14243464441358
 21
64.818133999796146
  0
LINE
  8
_0-0_
  6
CONTINUOUS
 62
    7
 10
219.14243464441358
 20
64.818133999796146
 11
219.3346906202986
 21
64.781396886474568
  0
LINE
  8
_0-0_
  6
CONTINUOUS
 62
    7
 10
219.3346906202986
 20
64.781396886474568
 11
219.71712779458619
 21
64.694764269115012
  0
LINE
  8
_0-0_
  6
CONTINUOUS
 62
    7
 10
219.71712779458619
 20
64.694764269115012
 11
220.09413820719408
 21
64.590830650709222
  0
LINE
  8
_0-0_
  6
CONTINUOUS
 62
    7
 10
220.09413820719408
 20
64.590830650709222
 11
220.46263635778985
 21
64.470149683372483
  0
LINE
  8
_0-0_
  6
CONTINUOUS
 62
    7
 10
220.46263635778985
 20
64.470149683372483
 11
220.82002399086457
 21
64.333433317277695
  0
LINE
  8
_0-0_
  6
CONTINUOUS
 62
    7
 10
220.82002399086457
 20
64.333433317277695
 11
221.16372357800253
 21
64.181685624815827
  0
LINE
  8
_0-0_
  6
CONTINUOUS
 62
    7
 10
221.16372357800253
 20
64.181685624815827
 11
221.32964176633584
 21
64.100582101848204
  0
LINE
  8
_0-0_
  6
CONTINUOUS
 62
    7
 10
221.32964176633584
 20
64.100582101848204
 11
221.49121733368963
 21
64.016240894566408
  0
LINE
  8
_0-0_
  6
CONTINUOUS
 62
    7
 10
221.49121733368963
 20
64.016240894566408
 11
221.80030003120635
 21
63.838680905745832
  0
LINE
  8
_0-0_
  6
CONTINUOUS
 62
    7
 10
221.80030003120635
 20
63.838680905745832
 11
222.08903692356569
 21
63.650867800257174
  0
LINE
  8
_0-0_
  6
CONTINUOUS
 62
    7
 10
222.08903692356569
 20
63.650867800257174
 11
222.35608817990567
 21
63.454725658399866
  0
LINE
  8
_0-0_
  6
CONTINUOUS
 62
    7
 10
222.35608817990567
 20
63.454725658399866
 11
222.60751584494926
 21
63.246138120500518
  0
LINE
  8
_0-0_
  6
CONTINUOUS
 62
    7
 10
222.60751584494926
 20
63.246138120500518
 11
222.84404198087202
 21
63.023543029548136
  0
LINE
  8
_0-0_
  6
CONTINUOUS
 62
    7
 10
222.84404198087202
 20
63.023543029548136
 11
222.95587626642725
 21
62.907366617497928
  0
LINE
  8
_0-0_
  6
CONTINUOUS
 62
    7
 10
222.95587626642725
 20
62.907366617497928
 11
223.06302645138828
 21
62.788156271980142
  0
LINE
  8
_0-0_
  6
CONTINUOUS
 62
    7
 10
223.06302645138828
 20
62.788156271980142
 11
223.26223057003142
 21
62.541336448116226
  0
LINE
  8
_0-0_
  6
CONTINUOUS
 62
    7
 10
223.26223057003142
 20
62.541336448116226
 11
223.43976870041467
 21
62.284620501872496
  0
LINE
  8
_0-0_
  6
CONTINUOUS
 62
    7
 10
223.43976870041467
 20
62.284620501872496
 11
223.51992315091582
 21
62.153078453982516
  0
LINE
  8
_0-0_
  6
CONTINUOUS
 62
    7
 10
212.47891739559134
 20
62.153078249659529
 11
212.55907184058094
 21
62.284620306134229
  0
LINE
  8
_0-0_
  6
CONTINUOUS
 62
    7
 10
212.55907184058094
 20
62.284620306134229
 11
212.73660996218848
 21
62.541336269974863
  0
LINE
  8
_0-0_
  6
CONTINUOUS
 62
    7
 10
212.73660996218848
 20
62.541336269974863
 11
212.93581407511454
 21
62.788156111736726
  0
LINE
  8
_0-0_
  6
CONTINUOUS
 62
    7
 10
212.93581407511454
 20
62.788156111736726
 11
213.04296425836662
 21
62.907366466214398
  0
LINE
  8
_0-0_
  6
CONTINUOUS
 62
    7
 10
213.04296425836662
 20
62.907366466214398
 11
213.15479854297052
 21
63.023542887179929
  0
LINE
  8
_0-0_
  6
CONTINUOUS
 62
    7
 10
213.15479854297052
 20
63.023542887179929
 11
213.3913246792489
 21
63.246137995716936
  0
LINE
  8
_0-0_
  6
CONTINUOUS
 62
    7
 10
213.3913246792489
 20
63.246137995716936
 11
213.64275234755758
 21
63.454725550651119
  0
LINE
  8
_0-0_
  6
CONTINUOUS
 62
    7
 10
213.64275234755758
 20
63.454725550651119
 11
213.90980360505262
 21
63.65086770555331
  0
LINE
  8
_0-0_
  6
CONTINUOUS
 62
    7
 10
213.90980360505262
 20
63.65086770555331
 11
214.19854049977482
 21
63.838680823425648
  0
LINE
  8
_0-0_
  6
CONTINUOUS
 62
    7
 10
214.19854049977482
 20
63.838680823425648
 11
214.50762320220645
 21
64.016240824658553
  0
LINE
  8
_0-0_
  6
CONTINUOUS
 62
    7
 10
214.50762320220645
 20
64.016240824658553
 11
214.66919877293265
 21
64.10058203803851
  0
LINE
  8
_0-0_
  6
CONTINUOUS
 62
    7
 10
214.66919877293265
 20
64.10058203803851
 11
214.83511696522044
 21
64.181685566980605
  0
LINE
  8
_0-0_
  6
CONTINUOUS
 62
    7
 10
214.83511696522044
 20
64.181685566980605
 11
215.17881656193447
 21
64.333433270874821
  0
LINE
  8
_0-0_
  6
CONTINUOUS
 62
    7
 10
215.17881656193447
 20
64.333433270874821
 11
215.53620420660525
 21
64.470149647502467
  0
LINE
  8
_0-0_
  6
CONTINUOUS
 62
    7
 10
215.53620420660525
 20
64.470149647502467
 11
215.90470237042962
 21
64.590830624222463
  0
LINE
  8
_0-0_
  6
CONTINUOUS
 62
    7
 10
215.90470237042962
 20
64.590830624222463
 11
216.28171279767582
 21
64.694764250734579
  0
LINE
  8
_0-0_
  6
CONTINUOUS
 62
    7
 10
216.28171279767582
 20
64.694764250734579
 11
216.66414998767675
 21
64.781396874799384
  0
LINE
  8
_0-0_
  6
CONTINUOUS
 62
    7
 10
216.66414998767675
 20
64.781396874799384
 11
216.85640597169629
 21
64.818133990919023
  0
LINE
  8
_0-0_
  6
CONTINUOUS
 62
    7
 10
216.85640597169629
 20
64.818133990919023
 11
217.04881734378603
 21
64.850475379942282
  0
LINE
  8
_0-0_
  6
CONTINUOUS
 62
    7
 10
217.04881734378603
 20
64.850475379942282
 11
217.43243512106881
 21
64.902050820102204
  0
LINE
  8
_0-0_
  6
CONTINUOUS
 62
    7
 10
217.43243512106881
 20
64.902050820102204
 11
217.81158913897514
 21
64.936480398629783
  0
LINE
  8
_0-0_
  6
CONTINUOUS
 62
    7
 10
217.81158913897514
 20
64.936480398629783
 11
217.99942033278046
 21
64.947516877888802
  0
LINE
  8
_0-0_
  6
CONTINUOUS
 62
    7
 10
210.06808557293823
 20
54.89042029802772
 11
210.09485366863498
 21
55.104324884662901
  0
LINE
  8
_0-0_
  6
CONTINUOUS
 62
    7
 10
210.09485366863498
 20
55.104324884662901
 11
210.15526145787351
 21
55.530989003751301
  0
LINE
  8
_0-0_
  6
CONTINUOUS
 62
    7
 10
210.15526145787351
 20
55.530989003751301
 11
210.22487279011273
 21
55.955912575318735
  0
LINE
  8
_0-0_
  6
CONTINUOUS
 62
    7
 10
210.22487279011273
 20
55.955912575318735
 11
210.26314238795374
 21
56.167642768272117
  0
LINE
  8
_0-0_
  6
CONTINUOUS
 62
    7
 10
210.26314238795374
 20
56.167642768272117
 11
210.30372645237173
 21
56.378843941113928
  0
LINE
  8
_0-0_
  6
CONTINUOUS
 62
    7
 10
210.30372645237173
 20
56.378843941113928
 11
210.39184897494431
 21
56.799538002896725
  0
LINE
  8
_0-0_
  6
CONTINUOUS
 62
    7
 10
210.39184897494431
 20
56.799538002896725
 11
210.48925496478239
 21
57.2177572150988
  0
LINE
  8
_0-0_
  6
CONTINUOUS
 62
    7
 10
210.48925496478239
 20
57.2177572150988
 11
210.59594947494122
 21
57.633279683757564
  0
LINE
  8
_0-0_
  6
CONTINUOUS
 62
    7
 10
210.59594947494122
 20
57.633279683757564
 11
210.71192784419497
 21
58.045894617182284
  0
LINE
  8
_0-0_
  6
CONTINUOUS
 62
    7
 10
210.71192784419497
 20
58.045894617182284
 11
210.8371712680563
 21
58.455386368322934
  0
LINE
  8
_0-0_
  6
CONTINUOUS
 62
    7
 10
210.8371712680563
 20
58.455386368322934
 11
210.90325832707447
 21
58.65889544020979
  0
LINE
  8
_0-0_
  6
CONTINUOUS
 62
    7
 10
210.90325832707447
 20
58.65889544020979
 11
210.97164937914192
 21
58.861545900851297
  0
LINE
  8
_0-0_
  6
CONTINUOUS
 62
    7
 10
210.97164937914192
 20
58.861545900851297
 11
211.11532063374568
 21
59.264171754811059
  0
LINE
  8
_0-0_
  6
CONTINUOUS
 62
    7
 10
211.11532063374568
 20
59.264171754811059
 11
211.26813276226846
 21
59.663070823781027
  0
LINE
  8
_0-0_
  6
CONTINUOUS
 62
    7
 10
211.26813276226846
 20
59.663070823781027
 11
211.43002316640184
 21
60.058058724411012
  0
LINE
  8
_0-0_
  6
CONTINUOUS
 62
    7
 10
211.43002316640184
 20
60.058058724411012
 11
211.60091855613416
 21
60.44895834289332
  0
LINE
  8
_0-0_
  6
CONTINUOUS
 62
    7
 10
211.60091855613416
 20
60.44895834289332
 11
211.78073473770826
 21
60.835599196825797
  0
LINE
  8
_0-0_
  6
CONTINUOUS
 62
    7
 10
211.78073473770826
 20
60.835599196825797
 11
211.87395891227595
 21
61.02727128545007
  0
LINE
  8
_0-0_
  6
CONTINUOUS
 62
    7
 10
211.87395891227595
 20
61.02727128545007
 11
211.96937694323594
 21
61.217818089605544
  0
LINE
  8
_0-0_
  6
CONTINUOUS
 62
    7
 10
211.96937694323594
 20
61.217818089605544
 11
212.16674025980035
 21
61.595459752498982
  0
LINE
  8
_0-0_
  6
CONTINUOUS
 62
    7
 10
212.16674025980035
 20
61.595459752498982
 11
212.37271769220104
 21
61.968390739782308
  0
LINE
  8
_0-0_
  6
CONTINUOUS
 62
    7
 10
212.37271769220104
 20
61.968390739782308
 11
212.47891739559134
 21
62.153078249659529
  0
LINE
  8
_0-0_
  6
CONTINUOUS
 62
    7
 10
210.06808557293823
 20
52.56651159837088
 11
210.04689159462794
 21
52.763852248057674
  0
LINE
  8
_0-0_
  6
CONTINUOUS
 62
    7
 10
210.04689159462794
 20
52.763852248057674
 11
210.01634526223449
 21
53.155636471529078
  0
LINE
  8
_0-0_
  6
CONTINUOUS
 62
    7
 10
210.01634526223449
 20
53.155636471529078
 11
210.00128115305495
 21
53.542847929383925
  0
LINE
  8
_0-0_
  6
CONTINUOUS
 62
    7
 10
210.00128115305495
 20
53.542847929383925
 11
209.99942033278046
 21
53.734507721092768
  0
LINE
  8
_0-0_
  6
CONTINUOUS
 62
    7
 10
209.99942033278046
 20
53.734507721092768
 11
210.00128356559151
 21
53.925962828361435
  0
LINE
  8
_0-0_
  6
CONTINUOUS
 62
    7
 10
210.00128356559151
 20
53.925962828361435
 11
210.01635995365166
 21
54.310641935169997
  0
LINE
  8
_0-0_
  6
CONTINUOUS
 62
    7
 10
210.01635995365166
 20
54.310641935169997
 11
210.0469053255373
 21
54.696938771330906
  0
LINE
  8
_0-0_
  6
CONTINUOUS
 62
    7
 10
210.0469053255373
 20
54.696938771330906
 11
210.06808557293823
 21
54.89042029802772
  0
LINE
  8
_0-0_
  6
CONTINUOUS
 62
    7
 10
212.47891749464986
 20
44.4721352504273
 11
212.3705268939583
 21
44.700985102135519
  0
LINE
  8
_0-0_
  6
CONTINUOUS
 62
    7
 10
212.3705268939583
 20
44.700985102135519
 11
212.1607233486601
 21
45.159251849323709
  0
LINE
  8
_0-0_
  6
CONTINUOUS
 62
    7
 10
212.1607233486601
 20
45.159251849323709
 11
211.96029850888488
 21
45.617993078782774
  0
LINE
  8
_0-0_
  6
CONTINUOUS
 62
    7
 10
211.96029850888488
 20
45.617993078782774
 11
211.86362811434617
 21
45.847435721733063
  0
LINE
  8
_0-0_
  6
CONTINUOUS
 62
    7
 10
211.86362811434617
 20
45.847435721733063
 11
211.76933065112087
 21
46.076869858972032
  0
LINE
  8
_0-0_
  6
CONTINUOUS
 62
    7
 10
211.76933065112087
 20
46.076869858972032
 11
211.58788379208534
 21
46.535543343518611
  0
LINE
  8
_0-0_
  6
CONTINUOUS
 62
    7
 10
211.58788379208534
 20
46.535543343518611
 11
211.41600593884311
 21
46.993679354741062
  0
LINE
  8
_0-0_
  6
CONTINUOUS
 62
    7
 10
211.41600593884311
 20
46.993679354741062
 11
211.25372692358076
 21
47.450955643037332
  0
LINE
  8
_0-0_
  6
CONTINUOUS
 62
    7
 10
211.25372692358076
 20
47.450955643037332
 11
211.10106720687679
 21
47.907037894129871
  0
LINE
  8
_0-0_
  6
CONTINUOUS
 62
    7
 10
211.10106720687679
 20
47.907037894129871
 11
210.95803308514758
 21
48.361590712222778
  0
LINE
  8
_0-0_
  6
CONTINUOUS
 62
    7
 10
210.95803308514758
 20
48.361590712222778
 11
210.89012339730004
 21
48.588189253432802
  0
LINE
  8
_0-0_
  6
CONTINUOUS
 62
    7
 10
210.89012339730004
 20
48.588189253432802
 11
210.82461546735328
 21
48.814280608466788
  0
LINE
  8
_0-0_
  6
CONTINUOUS
 62
    7
 10
210.82461546735328
 20
48.814280608466788
 11
210.70078937273672
 21
49.264777477441612
  0
LINE
  8
_0-0_
  6
CONTINUOUS
 62
    7
 10
210.70078937273672
 20
49.264777477441612
 11
210.58651384658867
 21
49.712754935448856
  0
LINE
  8
_0-0_
  6
CONTINUOUS
 62
    7
 10
210.58651384658867
 20
49.712754935448856
 11
210.48173242043129
 21
50.157888271151251
  0
LINE
  8
_0-0_
  6
CONTINUOUS
 62
    7
 10
210.48173242043129
 20
50.157888271151251
 11
210.38637281217541
 21
50.599854767973511
  0
LINE
  8
_0-0_
  6
CONTINUOUS
 62
    7
 10
210.38637281217541
 20
50.599854767973511
 11
210.30034642468388
 21
51.03833517753651
  0
LINE
  8
_0-0_
  6
CONTINUOUS
 62
    7
 10
210.30034642468388
 20
51.03833517753651
 11
210.2608009519862
 21
51.256169643006842
  0
LINE
  8
_0-0_
  6
CONTINUOUS
 62
    7
 10
210.2608009519862
 20
51.256169643006842
 11
210.22345970812364
 21
51.473544138965963
  0
LINE
  8
_0-0_
  6
CONTINUOUS
 62
    7
 10
210.22345970812364
 20
51.473544138965963
 11
210.15496520640716
 21
51.909628381795983
  0
LINE
  8
_0-0_
  6
CONTINUOUS
 62
    7
 10
210.15496520640716
 20
51.909628381795983
 11
210.09489594346758
 21
52.347242982719081
  0
LINE
  8
_0-0_
  6
CONTINUOUS
 62
    7
 10
210.09489594346758
 20
52.347242982719081
 11
210.06808557293823
 21
52.56651159837088
  0
ARC
  8
_0-0_
  6
CONTINUOUS
 62
    7
 10
227.99942033278046
 20
65.979769100674503
 40
3.0000000000000142
 50
0
 51
85.249999999999673
  0
ARC
  8
_0-0_
  6
CONTINUOUS
 62
    7
 10
207.99942033278001
 20
65.979769100674503
 40
3
 50
94.749999999999957
 51
180
  0
LINE
  8
_0-0_
  6
CONTINUOUS
 62
    7
 10
205.16205709772373
 20
40.251061834886741
 11
205.16212735623765
 21
40.255229013532926
  0
LINE
  8
_0-0_
  6
CONTINUOUS
 62
    7
 10
205.16212735623765
 20
40.255229013532926
 11
205.16268912500061
 21
40.263557570462808
  0
LINE
  8
_0-0_
  6
CONTINUOUS
 62
    7
 10
205.16268912500061
 20
40.263557570462808
 11
205.16381182939165
 21
40.27187702299193
  0
LINE
  8
_0-0_
  6
CONTINUOUS
 62
    7
 10
205.16381182939165
 20
40.27187702299193
 11
205.16458325834299
 21
40.27603297830251
  0
LINE
  8
_0-0_
  6
CONTINUOUS
 62
    7
 10
205.16458325834299
 20
40.27603297830251
 11
205.1654945926656
 21
40.280186229543006
  0
LINE
  8
_0-0_
  6
CONTINUOUS
 62
    7
 10
205.1654945926656
 20
40.280186229543006
 11
205.16773654090673
 21
40.288484050085799
  0
LINE
  8
_0-0_
  6
CONTINUOUS
 62
    7
 10
205.16773654090673
 20
40.288484050085799
 11
205.1705368020929
 21
40.296769346111205
  0
LINE
  8
_0-0_
  6
CONTINUOUS
 62
    7
 10
205.1705368020929
 20
40.296769346111205
 11
205.17389450527651
 21
40.305040980604417
  0
LINE
  8
_0-0_
  6
CONTINUOUS
 62
    7
 10
205.17389450527651
 20
40.305040980604417
 11
205.17780877987605
 21
40.31329781804402
  0
LINE
  8
_0-0_
  6
CONTINUOUS
 62
    7
 10
205.17780877987605
 20
40.31329781804402
 11
205.18227875507534
 21
40.321538724395168
  0
LINE
  8
_0-0_
  6
CONTINUOUS
 62
    7
 10
205.18227875507534
 20
40.321538724395168
 11
205.18472185808321
 21
40.325652849435073
  0
LINE
  8
_0-0_
  6
CONTINUOUS
 62
    7
 10
205.18472185808321
 20
40.325652849435073
 11
205.18730355933837
 21
40.329762567117314
  0
LINE
  8
_0-0_
  6
CONTINUOUS
 62
    7
 10
205.18730355933837
 20
40.329762567117314
 11
205.19288232004681
 21
40.337968215174669
  0
LINE
  8
_0-0_
  6
CONTINUOUS
 62
    7
 10
205.19288232004681
 20
40.337968215174669
 11
205.19901416323899
 21
40.346154539044846
  0
LINE
  8
_0-0_
  6
CONTINUOUS
 62
    7
 10
205.19901416323899
 20
40.346154539044846
 11
205.20569821347669
 21
40.354320410733862
  0
LINE
  8
_0-0_
  6
CONTINUOUS
 62
    7
 10
205.20569821347669
 20
40.354320410733862
 11
205.21293359381696
 21
40.362464703779779
  0
LINE
  8
_0-0_
  6
CONTINUOUS
 62
    7
 10
205.21293359381696
 20
40.362464703779779
 11
205.22071942590435
 21
40.370586293263614
  0
LINE
  8
_0-0_
  6
CONTINUOUS
 62
    7
 10
205.22071942590435
 20
40.370586293263614
 11
205.22481848652649
 21
40.374638223052671
  0
LINE
  8
_0-0_
  6
CONTINUOUS
 62
    7
 10
205.22481848652649
 20
40.374638223052671
 11
205.229054830167
 21
40.378684055802978
  0
LINE
  8
_0-0_
  6
CONTINUOUS
 62
    7
 10
205.229054830167
 20
40.378684055802978
 11
205.23793892612946
 21
40.386756869545252
  0
LINE
  8
_0-0_
  6
CONTINUOUS
 62
    7
 10
205.23793892612946
 20
40.386756869545252
 11
205.24737083282287
 21
40.394803614145303
  0
LINE
  8
_0-0_
  6
CONTINUOUS
 62
    7
 10
205.24737083282287
 20
40.394803614145303
 11
205.25229193988105
 21
40.398816860815032
  0
LINE
  8
_0-0_
  6
CONTINUOUS
 62
    7
 10
205.25229193988105
 20
40.398816860815032
 11
205.25734966930293
 21
40.402823170736838
  0
LINE
  8
_0-0_
  6
CONTINUOUS
 62
    7
 10
205.25734966930293
 20
40.402823170736838
 11
205.26787455526789
 21
40.410814421881014
  0
LINE
  8
_0-0_
  6
CONTINUOUS
 62
    7
 10
205.26787455526789
 20
40.410814421881014
 11
205.27894461176436
 21
40.418776251507779
  0
LINE
  8
_0-0_
  6
CONTINUOUS
 62
    7
 10
205.27894461176436
 20
40.418776251507779
 11
205.28468380485344
 21
40.422745784835797
  0
LINE
  8
_0-0_
  6
CONTINUOUS
 62
    7
 10
205.28468380485344
 20
40.422745784835797
 11
205.29055896198849
 21
40.426707544835836
  0
LINE
  8
_0-0_
  6
CONTINUOUS
 62
    7
 10
205.29055896198849
 20
40.426707544835836
 11
205.30271673216646
 21
40.43460718827032
  0
LINE
  8
_0-0_
  6
CONTINUOUS
 62
    7
 10
205.30271673216646
 20
40.43460718827032
 11
205.31541705251209
 21
40.442474069283662
  0
LINE
  8
_0-0_
  6
CONTINUOUS
 62
    7
 10
205.31541705251209
 20
40.442474069283662
 11
205.32865905826054
 21
40.450307076268246
  0
LINE
  8
_0-0_
  6
CONTINUOUS
 62
    7
 10
205.32865905826054
 20
40.450307076268246
 11
205.34244189075923
 21
40.458105098368151
  0
LINE
  8
_0-0_
  6
CONTINUOUS
 62
    7
 10
205.34244189075923
 20
40.458105098368151
 11
205.35676469858697
 21
40.465867025271791
  0
LINE
  8
_0-0_
  6
CONTINUOUS
 62
    7
 10
205.35676469858697
 20
40.465867025271791
 11
205.36412624632283
 21
40.469733023398248
  0
LINE
  8
_0-0_
  6
CONTINUOUS
 62
    7
 10
205.36412624632283
 20
40.469733023398248
 11
205.37161818447146
 21
40.473587441492555
  0
LINE
  8
_0-0_
  6
CONTINUOUS
 62
    7
 10
205.37161818447146
 20
40.473587441492555
 11
205.38699190396835
 21
40.48126104009566
  0
LINE
  8
_0-0_
  6
CONTINUOUS
 62
    7
 10
205.38699190396835
 20
40.48126104009566
 11
205.40288320148773
 21
40.488886826656426
  0
LINE
  8
_0-0_
  6
CONTINUOUS
 62
    7
 10
205.40288320148773
 20
40.488886826656426
 11
205.41928942172297
 21
40.496463807656028
  0
LINE
  8
_0-0_
  6
CONTINUOUS
 62
    7
 10
205.41928942172297
 20
40.496463807656028
 11
205.43620790904185
 21
40.503990990506054
  0
LINE
  8
_0-0_
  6
CONTINUOUS
 62
    7
 10
205.43620790904185
 20
40.503990990506054
 11
205.45363600699955
 21
40.511467383574427
  0
LINE
  8
_0-0_
  6
CONTINUOUS
 62
    7
 10
205.45363600699955
 20
40.511467383574427
 11
205.46254032951208
 21
40.515186224323998
  0
LINE
  8
_0-0_
  6
CONTINUOUS
 62
    7
 10
205.46254032951208
 20
40.515186224323998
 11
205.47157105796521
 21
40.518891996212687
  0
LINE
  8
_0-0_
  6
CONTINUOUS
 62
    7
 10
205.47157105796521
 20
40.518891996212687
 11
205.49001040287965
 21
40.52626383877373
  0
LINE
  8
_0-0_
  6
CONTINUOUS
 62
    7
 10
205.49001040287965
 20
40.52626383877373
 11
205.50895138112116
 21
40.533581922625444
  0
LINE
  8
_0-0_
  6
CONTINUOUS
 62
    7
 10
205.50895138112116
 20
40.533581922625444
 11
205.52839133048235
 21
40.540845260158449
  0
LINE
  8
_0-0_
  6
CONTINUOUS
 62
    7
 10
205.52839133048235
 20
40.540845260158449
 11
205.5483275872574
 21
40.548052864779265
  0
LINE
  8
_0-0_
  6
CONTINUOUS
 62
    7
 10
205.5483275872574
 20
40.548052864779265
 11
205.56875748643222
 21
40.555203750891678
  0
LINE
  8
_0-0_
  6
CONTINUOUS
 62
    7
 10
205.56875748643222
 20
40.555203750891678
 11
205.57915671881244
 21
40.55875761677521
  0
LINE
  8
_0-0_
  6
CONTINUOUS
 62
    7
 10
205.57915671881244
 20
40.55875761677521
 11
205.58967836196632
 21
40.562296933868993
  0
LINE
  8
_0-0_
  6
CONTINUOUS
 62
    7
 10
205.58967836196632
 20
40.562296933868993
 11
205.61108754717395
 21
40.569331430001284
  0
LINE
  8
_0-0_
  6
CONTINUOUS
 62
    7
 10
205.61108754717395
 20
40.569331430001284
 11
205.63298237518154
 21
40.576306256433554
  0
LINE
  8
_0-0_
  6
CONTINUOUS
 62
    7
 10
205.63298237518154
 20
40.576306256433554
 11
205.65536017947022
 21
40.583220431079781
  0
LINE
  8
_0-0_
  6
CONTINUOUS
 62
    7
 10
205.65536017947022
 20
40.583220431079781
 11
205.67821829448292
 21
40.590072972519238
  0
LINE
  8
_0-0_
  6
CONTINUOUS
 62
    7
 10
205.67821829448292
 20
40.590072972519238
 11
205.70155405629737
 21
40.596862899865982
  0
LINE
  8
_0-0_
  6
CONTINUOUS
 62
    7
 10
205.70155405629737
 20
40.596862899865982
 11
205.71340022290303
 21
40.600234076836614
  0
LINE
  8
_0-0_
  6
CONTINUOUS
 62
    7
 10
205.71340022290303
 20
40.600234076836614
 11
205.72536480334963
 21
40.603589232616059
  0
LINE
  8
_0-0_
  6
CONTINUOUS
 62
    7
 10
205.72536480334963
 20
40.603589232616059
 11
205.74964787720535
 21
40.610250990473787
  0
LINE
  8
_0-0_
  6
CONTINUOUS
 62
    7
 10
205.74964787720535
 20
40.610250990473787
 11
205.77440062336552
 21
40.616847193141666
  0
LINE
  8
_0-0_
  6
CONTINUOUS
 62
    7
 10
205.77440062336552
 20
40.616847193141666
 11
205.7996203920942
 21
40.623376860092549
  0
LINE
  8
_0-0_
  6
CONTINUOUS
 62
    7
 10
205.7996203920942
 20
40.623376860092549
 11
205.82530453926563
 21
40.629839010306796
  0
LINE
  8
_0-0_
  6
CONTINUOUS
 62
    7
 10
205.82530453926563
 20
40.629839010306796
 11
205.85145042721103
 21
40.636232661977147
  0
LINE
  8
_0-0_
  6
CONTINUOUS
 62
    7
 10
205.85145042721103
 20
40.636232661977147
 11
205.86469570167571
 21
40.639403493750024
  0
LINE
  8
_0-0_
  6
CONTINUOUS
 62
    7
 10
205.86469570167571
 20
40.639403493750024
 11
205.87805542555986
 21
40.642556832188575
  0
LINE
  8
_0-0_
  6
CONTINUOUS
 62
    7
 10
205.87805542555986
 20
40.642556832188575
 11
205.905116912057
 21
40.648810536563133
  0
LINE
  8
_0-0_
  6
CONTINUOUS
 62
    7
 10
205.905116912057
 20
40.648810536563133
 11
205.93261845996301
 21
40.6549897284483
  0
LINE
  8
_0-0_
  6
CONTINUOUS
 62
    7
 10
205.93261845996301
 20
40.6549897284483
 11
205.94652506131649
 21
40.6580493220888
  0
LINE
  8
_0-0_
  6
CONTINUOUS
 62
    7
 10
205.94652506131649
 20
40.6580493220888
 11
205.96053472514757
 21
40.661088773756319
  0
LINE
  8
_0-0_
  6
CONTINUOUS
 62
    7
 10
205.96053472514757
 20
40.661088773756319
 11
205.98886102960967
 21
40.667106888221269
  0
LINE
  8
_0-0_
  6
CONTINUOUS
 62
    7
 10
205.98886102960967
 20
40.667106888221269
 11
206.01759295211684
 21
40.673043345823544
  0
LINE
  8
_0-0_
  6
CONTINUOUS
 62
    7
 10
206.01759295211684
 20
40.673043345823544
 11
206.03210963842992
 21
40.675980726382704
  0
LINE
  8
_0-0_
  6
CONTINUOUS
 62
    7
 10
206.03210963842992
 20
40.675980726382704
 11
206.04672607112241
 21
40.678897420415296
  0
LINE
  8
_0-0_
  6
CONTINUOUS
 62
    7
 10
206.04672607112241
 20
40.678897420415296
 11
206.07625596431342
 21
40.684668385786836
  0
LINE
  8
_0-0_
  6
CONTINUOUS
 62
    7
 10
206.07625596431342
 20
40.684668385786836
 11
206.10617820829145
 21
40.690355515723013
  0
LINE
  8
_0-0_
  6
CONTINUOUS
 62
    7
 10
206.10617820829145
 20
40.690355515723013
 11
206.13648837835569
 21
40.695958084048698
  0
LINE
  8
_0-0_
  6
CONTINUOUS
 62
    7
 10
206.13648837835569
 20
40.695958084048698
 11
206.1671820483997
 21
40.701475364660155
  0
LINE
  8
_0-0_
  6
CONTINUOUS
 62
    7
 10
206.1671820483997
 20
40.701475364660155
 11
206.19825479090184
 21
40.706906631543234
  0
LINE
  8
_0-0_
  6
CONTINUOUS
 62
    7
 10
206.19825479090184
 20
40.706906631543234
 11
206.21393193035635
 21
40.709589782981084
  0
LINE
  8
_0-0_
  6
CONTINUOUS
 62
    7
 10
206.21393193035635
 20
40.709589782981084
 11
206.22970217701038
 21
40.712251158771096
  0
LINE
  8
_0-0_
  6
CONTINUOUS
 62
    7
 10
206.22970217701038
 20
40.712251158771096
 11
206.26151977671259
 21
40.717508220485115
  0
LINE
  8
_0-0_
  6
CONTINUOUS
 62
    7
 10
206.26151977671259
 20
40.717508220485115
 11
206.29370315907397
 21
40.722677090859861
  0
LINE
  8
_0-0_
  6
CONTINUOUS
 62
    7
 10
206.29370315907397
 20
40.722677090859861
 11
206.32624789254521
 21
40.727757044039436
  0
LINE
  8
_0-0_
  6
CONTINUOUS
 62
    7
 10
206.32624789254521
 20
40.727757044039436
 11
206.35914954532825
 21
40.732747354054254
  0
LINE
  8
_0-0_
  6
CONTINUOUS
 62
    7
 10
206.35914954532825
 20
40.732747354054254
 11
206.39240368577691
 21
40.737647294719636
  0
LINE
  8
_0-0_
  6
CONTINUOUS
 62
    7
 10
206.39240368577691
 20
40.737647294719636
 11
206.40916155413822
 21
40.740063149521347
  0
LINE
  8
_0-0_
  6
CONTINUOUS
 62
    7
 10
206.40916155413822
 20
40.740063149521347
 11
206.42600588284665
 21
40.742456139499382
  0
LINE
  8
_0-0_
  6
CONTINUOUS
 62
    7
 10
206.42600588284665
 20
40.742456139499382
 11
206.45995170655749
 21
40.747173161351157
  0
LINE
  8
_0-0_
  6
CONTINUOUS
 62
    7
 10
206.45995170655749
 20
40.747173161351157
 11
206.49423672847468
 21
40.75179763254323
  0
LINE
  8
_0-0_
  6
CONTINUOUS
 62
    7
 10
206.49423672847468
 20
40.75179763254323
 11
206.52885652218799
 21
40.756328824439379
  0
LINE
  8
_0-0_
  6
CONTINUOUS
 62
    7
 10
206.52885652218799
 20
40.756328824439379
 11
206.5638066637847
 21
40.760766007264237
  0
LINE
  8
_0-0_
  6
CONTINUOUS
 62
    7
 10
206.5638066637847
 20
40.760766007264237
 11
206.59908273229019
 21
40.76510844983045
  0
LINE
  8
_0-0_
  6
CONTINUOUS
 62
    7
 10
206.59908273229019
 20
40.76510844983045
 11
206.61684160848733
 21
40.767243914561959
  0
LINE
  8
_0-0_
  6
CONTINUOUS
 62
    7
 10
206.61684160848733
 20
40.767243914561959
 11
206.63468031008631
 21
40.769355419242629
  0
LINE
  8
_0-0_
  6
CONTINUOUS
 62
    7
 10
206.63468031008631
 20
40.769355419242629
 11
206.67059498326478
 21
40.773506180570848
  0
LINE
  8
_0-0_
  6
CONTINUOUS
 62
    7
 10
206.67059498326478
 20
40.773506180570848
 11
206.70682234193316
 21
40.7775599964923
  0
LINE
  8
_0-0_
  6
CONTINUOUS
 62
    7
 10
206.70682234193316
 20
40.7775599964923
 11
206.74335798043546
 21
40.781516126905672
  0
LINE
  8
_0-0_
  6
CONTINUOUS
 62
    7
 10
206.74335798043546
 20
40.781516126905672
 11
206.78019749748717
 21
40.785373828515958
  0
LINE
  8
_0-0_
  6
CONTINUOUS
 62
    7
 10
206.78019749748717
 20
40.785373828515958
 11
206.81733649010209
 21
40.789132353778541
  0
LINE
  8
_0-0_
  6
CONTINUOUS
 62
    7
 10
206.81733649010209
 20
40.789132353778541
 11
206.83600962082198
 21
40.790973477686066
  0
LINE
  8
_0-0_
  6
CONTINUOUS
 62
    7
 10
206.83600962082198
 20
40.790973477686066
 11
206.85474207806726
 21
40.792788216331928
  0
LINE
  8
_0-0_
  6
CONTINUOUS
 62
    7
 10
206.85474207806726
 20
40.792788216331928
 11
206.89238210089422
 21
40.796338378516566
  0
LINE
  8
_0-0_
  6
CONTINUOUS
 62
    7
 10
206.89238210089422
 20
40.796338378516566
 11
206.93025081722669
 21
40.799782520532744
  0
LINE
  8
_0-0_
  6
CONTINUOUS
 62
    7
 10
206.93025081722669
 20
40.799782520532744
 11
206.96834248702351
 21
40.803120320855442
  0
LINE
  8
_0-0_
  6
CONTINUOUS
 62
    7
 10
206.96834248702351
 20
40.803120320855442
 11
207.006651370957
 21
40.806351456384391
  0
LINE
  8
_0-0_
  6
CONTINUOUS
 62
    7
 10
207.006651370957
 20
40.806351456384391
 11
207.04517172993644
 21
40.809475602586872
  0
LINE
  8
_0-0_
  6
CONTINUOUS
 62
    7
 10
207.04517172993644
 20
40.809475602586872
 11
207.06450941907576
 21
40.81099745291408
  0
LINE
  8
_0-0_
  6
CONTINUOUS
 62
    7
 10
207.06450941907576
 20
40.81099745291408
 11
207.08389782474558
 21
40.812492433623675
  0
LINE
  8
_0-0_
  6
CONTINUOUS
 62
    7
 10
207.08389782474558
 20
40.812492433623675
 11
207.12282391578435
 21
40.815401622455056
  0
LINE
  8
_0-0_
  6
CONTINUOUS
 62
    7
 10
207.12282391578435
 20
40.815401622455056
 11
207.16194426290019
 21
40.818202840931235
  0
LINE
  8
_0-0_
  6
CONTINUOUS
 62
    7
 10
207.16194426290019
 20
40.818202840931235
 11
207.18157548851775
 21
40.81956285845331
  0
LINE
  8
_0-0_
  6
CONTINUOUS
 62
    7
 10
207.18157548851775
 20
40.81956285845331
 11
207.20125312531025
 21
40.820895759860605
  0
LINE
  8
_0-0_
  6
CONTINUOUS
 62
    7
 10
207.20125312531025
 20
40.820895759860605
 11
207.24074476159137
 21
40.823480049060663
  0
LINE
  8
_0-0_
  6
CONTINUOUS
 62
    7
 10
207.24074476159137
 20
40.823480049060663
 11
207.28041342973518
 21
40.825955377379842
  0
LINE
  8
_0-0_
  6
CONTINUOUS
 62
    7
 10
207.28041342973518
 20
40.825955377379842
 11
207.30031235624199
 21
40.827152077462188
  0
LINE
  8
_0-0_
  6
CONTINUOUS
 62
    7
 10
207.30031235624199
 20
40.827152077462188
 11
207.32025338725032
 21
40.8283214127066
  0
LINE
  8
_0-0_
  6
CONTINUOUS
 62
    7
 10
207.32025338725032
 20
40.8283214127066
 11
207.36025889130894
 21
40.830577821944871
  0
LINE
  8
_0-0_
  6
CONTINUOUS
 62
    7
 10
207.36025889130894
 20
40.830577821944871
 11
207.40042419891995
 21
40.832724270968583
  0
LINE
  8
_0-0_
  6
CONTINUOUS
 62
    7
 10
207.40042419891995
 20
40.832724270968583
 11
207.44074356711542
 21
40.83476042455618
  0
LINE
  8
_0-0_
  6
CONTINUOUS
 62
    7
 10
207.44074356711542
 20
40.83476042455618
 11
207.48121125314162
 21
40.836685946288753
  0
LINE
  8
_0-0_
  6
CONTINUOUS
 62
    7
 10
207.48121125314162
 20
40.836685946288753
 11
207.52182151464319
 21
40.838500498434541
  0
LINE
  8
_0-0_
  6
CONTINUOUS
 62
    7
 10
207.52182151464319
 20
40.838500498434541
 11
207.54217831686162
 21
40.839366054975244
  0
LINE
  8
_0-0_
  6
CONTINUOUS
 62
    7
 10
207.54217831686162
 20
40.839366054975244
 11
207.56256860982774
 21
40.84020374179795
  0
LINE
  8
_0-0_
  6
CONTINUOUS
 62
    7
 10
207.56256860982774
 20
40.84020374179795
 11
207.60344679758816
 21
40.841795335546294
  0
LINE
  8
_0-0_
  6
CONTINUOUS
 62
    7
 10
207.60344679758816
 20
40.841795335546294
 11
207.64445033758818
 21
40.843274937012893
  0
LINE
  8
_0-0_
  6
CONTINUOUS
 62
    7
 10
207.64445033758818
 20
40.843274937012893
 11
207.68557349028595
 21
40.844642201470151
  0
LINE
  8
_0-0_
  6
CONTINUOUS
 62
    7
 10
207.68557349028595
 20
40.844642201470151
 11
207.72681051688039
 21
40.845896781880356
  0
LINE
  8
_0-0_
  6
CONTINUOUS
 62
    7
 10
207.72681051688039
 20
40.845896781880356
 11
207.76815567917936
 21
40.847038328622375
  0
LINE
  8
_0-0_
  6
CONTINUOUS
 62
    7
 10
207.76815567917936
 20
40.847038328622375
 11
207.78886701814406
 21
40.847566604330268
  0
LINE
  8
_0-0_
  6
CONTINUOUS
 62
    7
 10
207.78886701814406
 20
40.847566604330268
 11
207.80960323936631
 21
40.848066489189705
  0
LINE
  8
_0-0_
  6
CONTINUOUS
 62
    7
 10
207.80960323936631
 20
40.848066489189705
 11
207.85114745965882
 21
40.848980907871237
  0
LINE
  8
_0-0_
  6
CONTINUOUS
 62
    7
 10
207.85114745965882
 20
40.848980907871237
 11
207.89278260184244
 21
40.849781225406559
  0
LINE
  8
_0-0_
  6
CONTINUOUS
 62
    7
 10
207.89278260184244
 20
40.849781225406559
 11
207.91363247518746
 21
40.850138482916236
  0
LINE
  8
_0-0_
  6
CONTINUOUS
 62
    7
 10
207.91363247518746
 20
40.850138482916236
 11
209.61667216190824
 21
40.878119197366004
  0
LINE
  8
_0-0_
  6
CONTINUOUS
 62
    7
 10
209.61667216190824
 20
40.878119197366004
 11
213.02878883579331
 21
40.934080626917648
  0
LINE
  8
_0-0_
  6
CONTINUOUS
 62
    7
 10
213.02878883579331
 20
40.934080626917648
 11
216.4489552435997
 21
40.990042057338314
  0
LINE
  8
_0-0_
  6
CONTINUOUS
 62
    7
 10
216.4489552435997
 20
40.990042057338314
 11
218.16205709772464
 21
41.018022772874019
  0
LINE
  8
_0-0_
  6
CONTINUOUS
 62
    7
 10
218.16205709772464
 20
41.018022772874019
 11
219.87515895184868
 21
40.990042057338314
  0
LINE
  8
_0-0_
  6
CONTINUOUS
 62
    7
 10
219.87515895184868
 20
40.990042057338314
 11
223.29532535965507
 21
40.934080626917648
  0
LINE
  8
_0-0_
  6
CONTINUOUS
 62
    7
 10
223.29532535965507
 20
40.934080626917648
 11
226.70744203353922
 21
40.878119197366004
  0
LINE
  8
_0-0_
  6
CONTINUOUS
 62
    7
 10
226.70744203353922
 20
40.878119197366004
 11
228.41048172026046
 21
40.850138482916236
  0
LINE
  8
_0-0_
  6
CONTINUOUS
 62
    7
 10
228.41048172026046
 20
40.850138482916236
 11
228.43133159360593
 21
40.849781225406559
  0
LINE
  8
_0-0_
  6
CONTINUOUS
 62
    7
 10
228.43133159360593
 20
40.849781225406559
 11
228.47296673578865
 21
40.848980907871237
  0
LINE
  8
_0-0_
  6
CONTINUOUS
 62
    7
 10
228.47296673578865
 20
40.848980907871237
 11
228.51451095608161
 21
40.848066489189705
  0
LINE
  8
_0-0_
  6
CONTINUOUS
 62
    7
 10
228.51451095608161
 20
40.848066489189705
 11
228.53524717730386
 21
40.847566604330723
  0
LINE
  8
_0-0_
  6
CONTINUOUS
 62
    7
 10
228.53524717730386
 20
40.847566604330723
 11
228.55595851626811
 21
40.847038328622375
  0
LINE
  8
_0-0_
  6
CONTINUOUS
 62
    7
 10
228.55595851626811
 20
40.847038328622375
 11
228.59730367856707
 21
40.845896781880356
  0
LINE
  8
_0-0_
  6
CONTINUOUS
 62
    7
 10
228.59730367856707
 20
40.845896781880356
 11
228.63854070516197
 21
40.844642201470151
  0
LINE
  8
_0-0_
  6
CONTINUOUS
 62
    7
 10
228.63854070516197
 20
40.844642201470151
 11
228.67966385785974
 21
40.843274937012893
  0
LINE
  8
_0-0_
  6
CONTINUOUS
 62
    7
 10
228.67966385785974
 20
40.843274937012893
 11
228.72066739785976
 21
40.841795335546294
  0
LINE
  8
_0-0_
  6
CONTINUOUS
 62
    7
 10
228.72066739785976
 20
40.841795335546294
 11
228.76154558562018
 21
40.84020374179795
  0
LINE
  8
_0-0_
  6
CONTINUOUS
 62
    7
 10
228.76154558562018
 20
40.84020374179795
 11
228.7819358785863
 21
40.839366054976153
  0
LINE
  8
_0-0_
  6
CONTINUOUS
 62
    7
 10
228.7819358785863
 20
40.839366054976153
 11
228.80229268080427
 21
40.838500498434541
  0
LINE
  8
_0-0_
  6
CONTINUOUS
 62
    7
 10
228.80229268080427
 20
40.838500498434541
 11
228.84290294230584
 21
40.836685946288753
  0
LINE
  8
_0-0_
  6
CONTINUOUS
 62
    7
 10
228.84290294230584
 20
40.836685946288753
 11
228.88337062833205
 21
40.83476042455618
  0
LINE
  8
_0-0_
  6
CONTINUOUS
 62
    7
 10
228.88337062833205
 20
40.83476042455618
 11
228.92368999652797
 21
40.832724270968583
  0
LINE
  8
_0-0_
  6
CONTINUOUS
 62
    7
 10
228.92368999652797
 20
40.832724270968583
 11
228.96385530413852
 21
40.830577821943962
  0
LINE
  8
_0-0_
  6
CONTINUOUS
 62
    7
 10
228.96385530413852
 20
40.830577821943962
 11
229.0038608081976
 21
40.8283214127066
  0
LINE
  8
_0-0_
  6
CONTINUOUS
 62
    7
 10
229.0038608081976
 20
40.8283214127066
 11
229.02380183920548
 21
40.827152077462188
  0
LINE
  8
_0-0_
  6
CONTINUOUS
 62
    7
 10
229.02380183920548
 20
40.827152077462188
 11
229.04370076571274
 21
40.825955377379842
  0
LINE
  8
_0-0_
  6
CONTINUOUS
 62
    7
 10
229.04370076571274
 20
40.825955377379842
 11
229.08336943385609
 21
40.823480049060663
  0
LINE
  8
_0-0_
  6
CONTINUOUS
 62
    7
 10
229.08336943385609
 20
40.823480049060663
 11
229.12286107013722
 21
40.820895759860605
  0
LINE
  8
_0-0_
  6
CONTINUOUS
 62
    7
 10
229.12286107013722
 20
40.820895759860605
 11
229.14253870693017
 21
40.81956285845331
  0
LINE
  8
_0-0_
  6
CONTINUOUS
 62
    7
 10
229.14253870693017
 20
40.81956285845331
 11
229.16216993254773
 21
40.818202840931235
  0
LINE
  8
_0-0_
  6
CONTINUOUS
 62
    7
 10
229.16216993254773
 20
40.818202840931235
 11
229.20129027966311
 21
40.815401622455056
  0
LINE
  8
_0-0_
  6
CONTINUOUS
 62
    7
 10
229.20129027966311
 20
40.815401622455056
 11
229.24021637070189
 21
40.812492433623675
  0
LINE
  8
_0-0_
  6
CONTINUOUS
 62
    7
 10
229.24021637070189
 20
40.812492433623675
 11
229.2596047763717
 21
40.81099745291408
  0
LINE
  8
_0-0_
  6
CONTINUOUS
 62
    7
 10
229.2596047763717
 20
40.81099745291408
 11
229.27894246551102
 21
40.809475602586872
  0
LINE
  8
_0-0_
  6
CONTINUOUS
 62
    7
 10
229.27894246551102
 20
40.809475602586872
 11
229.31746282449046
 21
40.806351456384391
  0
LINE
  8
_0-0_
  6
CONTINUOUS
 62
    7
 10
229.31746282449046
 20
40.806351456384391
 11
229.35577170842396
 21
40.803120320855442
  0
LINE
  8
_0-0_
  6
CONTINUOUS
 62
    7
 10
229.35577170842396
 20
40.803120320855442
 11
229.39386337822077
 21
40.799782520532744
  0
LINE
  8
_0-0_
  6
CONTINUOUS
 62
    7
 10
229.39386337822077
 20
40.799782520532744
 11
229.43173209455369
 21
40.796338378516566
  0
LINE
  8
_0-0_
  6
CONTINUOUS
 62
    7
 10
229.43173209455369
 20
40.796338378516566
 11
229.46937211738066
 21
40.792788216331928
  0
LINE
  8
_0-0_
  6
CONTINUOUS
 62
    7
 10
229.46937211738066
 20
40.792788216331928
 11
229.48810457462594
 21
40.790973477686066
  0
LINE
  8
_0-0_
  6
CONTINUOUS
 62
    7
 10
229.48810457462594
 20
40.790973477686066
 11
229.50677770534537
 21
40.789132353778541
  0
LINE
  8
_0-0_
  6
CONTINUOUS
 62
    7
 10
229.50677770534537
 20
40.789132353778541
 11
229.5439166979603
 21
40.785373828515958
  0
LINE
  8
_0-0_
  6
CONTINUOUS
 62
    7
 10
229.5439166979603
 20
40.785373828515958
 11
229.580756215012
 21
40.781516126905672
  0
LINE
  8
_0-0_
  6
CONTINUOUS
 62
    7
 10
229.580756215012
 20
40.781516126905672
 11
229.61729185351476
 21
40.7775599964923
  0
LINE
  8
_0-0_
  6
CONTINUOUS
 62
    7
 10
229.61729185351476
 20
40.7775599964923
 11
229.65351921218269
 21
40.773506180570848
  0
LINE
  8
_0-0_
  6
CONTINUOUS
 62
    7
 10
229.65351921218269
 20
40.773506180570848
 11
229.68943388536161
 21
40.769355419242629
  0
LINE
  8
_0-0_
  6
CONTINUOUS
 62
    7
 10
229.68943388536161
 20
40.769355419242629
 11
229.70727258696013
 21
40.767243914561959
  0
LINE
  8
_0-0_
  6
CONTINUOUS
 62
    7
 10
229.70727258696013
 20
40.767243914561959
 11
229.72503146315728
 21
40.76510844983045
  0
LINE
  8
_0-0_
  6
CONTINUOUS
 62
    7
 10
229.72503146315728
 20
40.76510844983045
 11
229.76030753166276
 21
40.760766007264237
  0
LINE
  8
_0-0_
  6
CONTINUOUS
 62
    7
 10
229.76030753166276
 20
40.760766007264237
 11
229.79525767325856
 21
40.756328824439379
  0
LINE
  8
_0-0_
  6
CONTINUOUS
 62
    7
 10
229.79525767325856
 20
40.756328824439379
 11
229.82987746697279
 21
40.75179763254323
  0
LINE
  8
_0-0_
  6
CONTINUOUS
 62
    7
 10
229.82987746697279
 20
40.75179763254323
 11
229.86416248889043
 21
40.747173161351157
  0
LINE
  8
_0-0_
  6
CONTINUOUS
 62
    7
 10
229.86416248889043
 20
40.747173161351157
 11
229.89810831260081
 21
40.742456139499382
  0
LINE
  8
_0-0_
  6
CONTINUOUS
 62
    7
 10
229.89810831260081
 20
40.742456139499382
 11
229.91495264130924
 21
40.740063149521347
  0
LINE
  8
_0-0_
  6
CONTINUOUS
 62
    7
 10
229.91495264130924
 20
40.740063149521347
 11
229.93171050967055
 21
40.737647294719636
  0
LINE
  8
_0-0_
  6
CONTINUOUS
 62
    7
 10
229.93171050967055
 20
40.737647294719636
 11
229.96496465011921
 21
40.732747354054254
  0
LINE
  8
_0-0_
  6
CONTINUOUS
 62
    7
 10
229.96496465011921
 20
40.732747354054254
 11
229.99786630290134
 21
40.727757044039436
  0
LINE
  8
_0-0_
  6
CONTINUOUS
 62
    7
 10
229.99786630290134
 20
40.727757044039436
 11
230.03041103637395
 21
40.722677090859861
  0
LINE
  8
_0-0_
  6
CONTINUOUS
 62
    7
 10
230.03041103637395
 20
40.722677090859861
 11
230.06259441873488
 21
40.717508220485115
  0
LINE
  8
_0-0_
  6
CONTINUOUS
 62
    7
 10
230.06259441873488
 20
40.717508220485115
 11
230.09441201843754
 21
40.712251158771096
  0
LINE
  8
_0-0_
  6
CONTINUOUS
 62
    7
 10
230.09441201843754
 20
40.712251158771096
 11
230.11018226509157
 21
40.709589782981084
  0
LINE
  8
_0-0_
  6
CONTINUOUS
 62
    7
 10
230.11018226509157
 20
40.709589782981084
 11
230.12585940454562
 21
40.706906631543234
  0
LINE
  8
_0-0_
  6
CONTINUOUS
 62
    7
 10
230.12585940454562
 20
40.706906631543234
 11
230.15693214704777
 21
40.701475364660155
  0
LINE
  8
_0-0_
  6
CONTINUOUS
 62
    7
 10
230.15693214704777
 20
40.701475364660155
 11
230.18762581709132
 21
40.695958084048698
  0
LINE
  8
_0-0_
  6
CONTINUOUS
 62
    7
 10
230.18762581709132
 20
40.695958084048698
 11
230.21793598715601
 21
40.690355515723013
  0
LINE
  8
_0-0_
  6
CONTINUOUS
 62
    7
 10
230.21793598715601
 20
40.690355515723013
 11
230.24785823113405
 21
40.684668385786836
  0
LINE
  8
_0-0_
  6
CONTINUOUS
 62
    7
 10
230.24785823113405
 20
40.684668385786836
 11
230.27738812432551
 21
40.678897420415296
  0
LINE
  8
_0-0_
  6
CONTINUOUS
 62
    7
 10
230.27738812432551
 20
40.678897420415296
 11
230.292004557018
 21
40.675980726382704
  0
LINE
  8
_0-0_
  6
CONTINUOUS
 62
    7
 10
230.292004557018
 20
40.675980726382704
 11
230.30652124333108
 21
40.673043345823544
  0
LINE
  8
_0-0_
  6
CONTINUOUS
 62
    7
 10
230.30652124333108
 20
40.673043345823544
 11
230.33525316583825
 21
40.667106888221269
  0
LINE
  8
_0-0_
  6
CONTINUOUS
 62
    7
 10
230.33525316583825
 20
40.667106888221269
 11
230.36357947030035
 21
40.661088773756774
  0
LINE
  8
_0-0_
  6
CONTINUOUS
 62
    7
 10
230.36357947030035
 20
40.661088773756774
 11
230.37758913413097
 21
40.6580493220888
  0
LINE
  8
_0-0_
  6
CONTINUOUS
 62
    7
 10
230.37758913413097
 20
40.6580493220888
 11
230.39149573548445
 21
40.6549897284483
  0
LINE
  8
_0-0_
  6
CONTINUOUS
 62
    7
 10
230.39149573548445
 20
40.6549897284483
 11
230.41899728339092
 21
40.648810536563133
  0
LINE
  8
_0-0_
  6
CONTINUOUS
 62
    7
 10
230.41899728339092
 20
40.648810536563133
 11
230.4460587698876
 21
40.642556832188575
  0
LINE
  8
_0-0_
  6
CONTINUOUS
 62
    7
 10
230.4460587698876
 20
40.642556832188575
 11
230.4594184937722
 21
40.639403493750024
  0
LINE
  8
_0-0_
  6
CONTINUOUS
 62
    7
 10
230.4594184937722
 20
40.639403493750024
 11
230.47266376823598
 21
40.636232661977147
  0
LINE
  8
_0-0_
  6
CONTINUOUS
 62
    7
 10
230.47266376823598
 20
40.636232661977147
 11
230.49880965618092
 21
40.629839010306796
  0
LINE
  8
_0-0_
  6
CONTINUOUS
 62
    7
 10
230.49880965618092
 20
40.629839010306796
 11
230.52449380335281
 21
40.623376860093458
  0
LINE
  8
_0-0_
  6
CONTINUOUS
 62
    7
 10
230.52449380335281
 20
40.623376860093458
 11
230.5497135720824
 21
40.616847193141666
  0
LINE
  8
_0-0_
  6
CONTINUOUS
 62
    7
 10
230.5497135720824
 20
40.616847193141666
 11
230.57446631824212
 21
40.610250990474242
  0
LINE
  8
_0-0_
  6
CONTINUOUS
 62
    7
 10
230.57446631824212
 20
40.610250990474242
 11
230.59874939209828
 21
40.603589232616969
  0
LINE
  8
_0-0_
  6
CONTINUOUS
 62
    7
 10
230.59874939209828
 20
40.603589232616969
 11
230.61071397254443
 21
40.600234076837523
  0
LINE
  8
_0-0_
  6
CONTINUOUS
 62
    7
 10
230.61071397254443
 20
40.600234076837523
 11
230.62256013915055
 21
40.596862899866437
  0
LINE
  8
_0-0_
  6
CONTINUOUS
 62
    7
 10
230.62256013915055
 20
40.596862899866437
 11
230.64589590096409
 21
40.590072972520147
  0
LINE
  8
_0-0_
  6
CONTINUOUS
 62
    7
 10
230.64589590096409
 20
40.590072972520147
 11
230.66875401597724
 21
40.583220431079781
  0
LINE
  8
_0-0_
  6
CONTINUOUS
 62
    7
 10
230.66875401597724
 20
40.583220431079781
 11
230.69113182026638
 21
40.576306256433554
  0
LINE
  8
_0-0_
  6
CONTINUOUS
 62
    7
 10
230.69113182026638
 20
40.576306256433554
 11
230.71302664827351
 21
40.569331430001284
  0
LINE
  8
_0-0_
  6
CONTINUOUS
 62
    7
 10
230.71302664827351
 20
40.569331430001284
 11
230.73443583348114
 21
40.562296933869447
  0
LINE
  8
_0-0_
  6
CONTINUOUS
 62
    7
 10
230.73443583348114
 20
40.562296933869447
 11
230.74495747663502
 21
40.558757616775665
  0
LINE
  8
_0-0_
  6
CONTINUOUS
 62
    7
 10
230.74495747663502
 20
40.558757616775665
 11
230.75535670901525
 21
40.555203750892588
  0
LINE
  8
_0-0_
  6
CONTINUOUS
 62
    7
 10
230.75535670901525
 20
40.555203750892588
 11
230.77578660818915
 21
40.548052864779265
  0
LINE
  8
_0-0_
  6
CONTINUOUS
 62
    7
 10
230.77578660818915
 20
40.548052864779265
 11
230.79572286496557
 21
40.540845260158449
  0
LINE
  8
_0-0_
  6
CONTINUOUS
 62
    7
 10
230.79572286496557
 20
40.540845260158449
 11
230.81516281432584
 21
40.533581922625444
  0
LINE
  8
_0-0_
  6
CONTINUOUS
 62
    7
 10
230.81516281432584
 20
40.533581922625444
 11
230.83410379256827
 21
40.52626383877373
  0
LINE
  8
_0-0_
  6
CONTINUOUS
 62
    7
 10
230.83410379256827
 20
40.52626383877373
 11
230.85254313748271
 21
40.518891996212687
  0
LINE
  8
_0-0_
  6
CONTINUOUS
 62
    7
 10
230.85254313748271
 20
40.518891996212687
 11
230.86157386593538
 21
40.515186224323998
  0
LINE
  8
_0-0_
  6
CONTINUOUS
 62
    7
 10
230.86157386593538
 20
40.515186224323998
 11
230.87047818844792
 21
40.511467383574882
  0
LINE
  8
_0-0_
  6
CONTINUOUS
 62
    7
 10
230.87047818844792
 20
40.511467383574882
 11
230.88790628640515
 21
40.503990990506054
  0
LINE
  8
_0-0_
  6
CONTINUOUS
 62
    7
 10
230.88790628640515
 20
40.503990990506054
 11
230.9048247737245
 21
40.496463807656028
  0
LINE
  8
_0-0_
  6
CONTINUOUS
 62
    7
 10
230.9048247737245
 20
40.496463807656028
 11
230.92123099396019
 21
40.488886826656426
  0
LINE
  8
_0-0_
  6
CONTINUOUS
 62
    7
 10
230.92123099396019
 20
40.488886826656426
 11
230.93712229147866
 21
40.48126104009566
  0
LINE
  8
_0-0_
  6
CONTINUOUS
 62
    7
 10
230.93712229147866
 20
40.48126104009566
 11
230.95249601097646
 21
40.473587441493464
  0
LINE
  8
_0-0_
  6
CONTINUOUS
 62
    7
 10
230.95249601097646
 20
40.473587441493464
 11
230.95998794912509
 21
40.469733023399158
  0
LINE
  8
_0-0_
  6
CONTINUOUS
 62
    7
 10
230.95998794912509
 20
40.469733023399158
 11
230.96734949686095
 21
40.465867025271791
  0
LINE
  8
_0-0_
  6
CONTINUOUS
 62
    7
 10
230.96734949686095
 20
40.465867025271791
 11
230.98167230468869
 21
40.45810509836906
  0
LINE
  8
_0-0_
  6
CONTINUOUS
 62
    7
 10
230.98167230468869
 20
40.45810509836906
 11
230.99545513718738
 21
40.450307076268246
  0
LINE
  8
_0-0_
  6
CONTINUOUS
 62
    7
 10
230.99545513718738
 20
40.450307076268246
 11
231.00869714293538
 21
40.442474069283662
  0
LINE
  8
_0-0_
  6
CONTINUOUS
 62
    7
 10
231.00869714293538
 20
40.442474069283662
 11
231.02139746328146
 21
40.434607188271229
  0
LINE
  8
_0-0_
  6
CONTINUOUS
 62
    7
 10
231.02139746328146
 20
40.434607188271229
 11
231.03355523345897
 21
40.42670754483629
  0
LINE
  8
_0-0_
  6
CONTINUOUS
 62
    7
 10
231.03355523345897
 20
40.42670754483629
 11
231.03943039059402
 21
40.422745784835797
  0
LINE
  8
_0-0_
  6
CONTINUOUS
 62
    7
 10
231.03943039059402
 20
40.422745784835797
 11
231.04516958368356
 21
40.418776251507779
  0
LINE
  8
_0-0_
  6
CONTINUOUS
 62
    7
 10
231.04516958368356
 20
40.418776251507779
 11
231.05623964018002
 21
40.410814421881014
  0
LINE
  8
_0-0_
  6
CONTINUOUS
 62
    7
 10
231.05623964018002
 20
40.410814421881014
 11
231.06676452614454
 21
40.402823170736838
  0
LINE
  8
_0-0_
  6
CONTINUOUS
 62
    7
 10
231.06676452614454
 20
40.402823170736838
 11
231.07182225556687
 21
40.398816860815032
  0
LINE
  8
_0-0_
  6
CONTINUOUS
 62
    7
 10
231.07182225556687
 20
40.398816860815032
 11
231.07674336262505
 21
40.394803614146213
  0
LINE
  8
_0-0_
  6
CONTINUOUS
 62
    7
 10
231.07674336262505
 20
40.394803614146213
 11
231.08617526931801
 21
40.386756869545252
  0
LINE
  8
_0-0_
  6
CONTINUOUS
 62
    7
 10
231.08617526931801
 20
40.386756869545252
 11
231.09505936528046
 21
40.378684055803433
  0
LINE
  8
_0-0_
  6
CONTINUOUS
 62
    7
 10
231.09505936528046
 20
40.378684055803433
 11
231.09929570892098
 21
40.374638223052671
  0
LINE
  8
_0-0_
  6
CONTINUOUS
 62
    7
 10
231.09929570892098
 20
40.374638223052671
 11
231.10339476954312
 21
40.370586293263614
  0
LINE
  8
_0-0_
  6
CONTINUOUS
 62
    7
 10
231.10339476954312
 20
40.370586293263614
 11
231.11118060163051
 21
40.362464703780233
  0
LINE
  8
_0-0_
  6
CONTINUOUS
 62
    7
 10
231.11118060163051
 20
40.362464703780233
 11
231.11841598197122
 21
40.354320410733862
  0
LINE
  8
_0-0_
  6
CONTINUOUS
 62
    7
 10
231.11841598197122
 20
40.354320410733862
 11
231.12510003220893
 21
40.346154539045756
  0
LINE
  8
_0-0_
  6
CONTINUOUS
 62
    7
 10
231.12510003220893
 20
40.346154539045756
 11
231.13123187540066
 21
40.337968215174669
  0
LINE
  8
_0-0_
  6
CONTINUOUS
 62
    7
 10
231.13123187540066
 20
40.337968215174669
 11
231.13681063610954
 21
40.329762567117314
  0
LINE
  8
_0-0_
  6
CONTINUOUS
 62
    7
 10
231.13681063610954
 20
40.329762567117314
 11
231.13939233736426
 21
40.325652849435073
  0
LINE
  8
_0-0_
  6
CONTINUOUS
 62
    7
 10
231.13939233736426
 20
40.325652849435073
 11
231.14183544037212
 21
40.321538724395623
  0
LINE
  8
_0-0_
  6
CONTINUOUS
 62
    7
 10
231.14183544037212
 20
40.321538724395623
 11
231.14630541557187
 21
40.31329781804402
  0
LINE
  8
_0-0_
  6
CONTINUOUS
 62
    7
 10
231.14630541557187
 20
40.31329781804402
 11
231.15021969017096
 21
40.305040980605327
  0
LINE
  8
_0-0_
  6
CONTINUOUS
 62
    7
 10
231.15021969017096
 20
40.305040980605327
 11
231.15357739335548
 21
40.296769346111205
  0
LINE
  8
_0-0_
  6
CONTINUOUS
 62
    7
 10
231.15357739335548
 20
40.296769346111205
 11
231.15637765454164
 21
40.288484050086709
  0
LINE
  8
_0-0_
  6
CONTINUOUS
 62
    7
 10
231.15637765454164
 20
40.288484050086709
 11
231.15861960278187
 21
40.280186229543006
  0
LINE
  8
_0-0_
  6
CONTINUOUS
 62
    7
 10
231.15861960278187
 20
40.280186229543006
 11
231.15953093710493
 21
40.27603297830251
  0
LINE
  8
_0-0_
  6
CONTINUOUS
 62
    7
 10
231.15953093710493
 20
40.27603297830251
 11
231.16030236605718
 21
40.27187702299193
  0
LINE
  8
_0-0_
  6
CONTINUOUS
 62
    7
 10
231.16030236605718
 20
40.27187702299193
 11
231.16142507044685
 21
40.263557570462808
  0
LINE
  8
_0-0_
  6
CONTINUOUS
 62
    7
 10
231.16142507044685
 20
40.263557570462808
 11
231.16198683921073
 21
40.255229013531562
  0
LINE
  8
_0-0_
  6
CONTINUOUS
 62
    7
 10
231.16198683921073
 20
40.255229013531562
 11
231.16205709772373
 21
40.251061834886741
  0
LINE
  8
_0-0_
  6
CONTINUOUS
 62
    7
 10
266.97163031687876
 20
19.821044024929279
 11
292.97163031687921
 21
19.821044024929279
  0
LINE
  8
_0-0_
  6
CONTINUOUS
 62
    7
 10
292.97163031687921
 20
19.821044024929279
 11
292.97163031687921
 21
65.979769100674503
  0
LINE
  8
_0-0_
  6
CONTINUOUS
 62
    7
 10
290.38269170435922
 20
68.969465608167638
 11
290.38269170435922
 21
19.821044024929279
  0
LINE
  8
_0-0_
  6
CONTINUOUS
 62
    7
 10
279.97163031687921
 20
69.821044024929279
 11
269.72320569434294
 21
68.969465608167638
  0
LINE
  8
_0-0_
  6
CONTINUOUS
 62
    7
 10
269.88584245928621
 20
68.969465608167638
 11
269.88584245928621
 21
19.821044024929279
  0
LINE
  8
_0-0_
  6
CONTINUOUS
 62
    7
 10
266.97163031687876
 20
19.821044024929279
 11
266.97163031687876
 21
65.979769100674503
  0
LINE
  8
_0-0_
  6
CONTINUOUS
 62
    7
 10
279.97163031687921
 20
69.821044024929279
 11
290.22005493941595
 21
68.969465608167638
  0
LINE
  8
_0-0_
  6
CONTINUOUS
 62
    7
 10
287.90296507672099
 20
52.56651159837088
 11
287.87615470668459
 21
52.3472429865908
  0
LINE
  8
_0-0_
  6
CONTINUOUS
 62
    7
 10
287.87615470668459
 20
52.3472429865908
 11
287.81608544494372
 21
51.909628393278808
  0
LINE
  8
_0-0_
  6
CONTINUOUS
 62
    7
 10
287.81608544494372
 20
51.909628393278808
 11
287.74759094469152
 21
51.473544157867536
  0
LINE
  8
_0-0_
  6
CONTINUOUS
 62
    7
 10
287.74759094469152
 20
51.473544157867536
 11
287.71024970174074
 21
51.256169666029336
  0
LINE
  8
_0-0_
  6
CONTINUOUS
 62
    7
 10
287.71024970174074
 20
51.256169666029336
 11
287.6707042305037
 21
51.038335207193313
  0
LINE
  8
_0-0_
  6
CONTINUOUS
 62
    7
 10
287.6707042305037
 20
51.038335207193313
 11
287.58467784631591
 21
50.599854810853458
  0
LINE
  8
_0-0_
  6
CONTINUOUS
 62
    7
 10
287.58467784631591
 20
50.599854810853458
 11
287.48931824186673
 21
50.157888327179762
  0
LINE
  8
_0-0_
  6
CONTINUOUS
 62
    7
 10
287.48931824186673
 20
50.157888327179762
 11
287.38453682001216
 21
49.71275500453271
  0
LINE
  8
_0-0_
  6
CONTINUOUS
 62
    7
 10
287.38453682001216
 20
49.71275500453271
 11
287.27026129865715
 21
49.264777559469394
  0
LINE
  8
_0-0_
  6
CONTINUOUS
 62
    7
 10
287.27026129865715
 20
49.264777559469394
 11
287.14643520931565
 21
48.814280703312534
  0
LINE
  8
_0-0_
  6
CONTINUOUS
 62
    7
 10
287.14643520931565
 20
48.814280703312534
 11
287.08092728218469
 21
48.588189354633641
  0
LINE
  8
_0-0_
  6
CONTINUOUS
 62
    7
 10
287.08092728218469
 20
48.588189354633641
 11
287.01301759727028
 21
48.361590819740059
  0
LINE
  8
_0-0_
  6
CONTINUOUS
 62
    7
 10
287.01301759727028
 20
48.361590819740059
 11
286.869983481752
 21
47.907038014154523
  0
LINE
  8
_0-0_
  6
CONTINUOUS
 62
    7
 10
286.869983481752
 20
47.907038014154523
 11
286.71732377170918
 21
47.450955775384273
  0
LINE
  8
_0-0_
  6
CONTINUOUS
 62
    7
 10
286.71732377170918
 20
47.450955775384273
 11
286.55504476354815
 21
46.993679499208838
  0
LINE
  8
_0-0_
  6
CONTINUOUS
 62
    7
 10
286.55504476354815
 20
46.993679499208838
 11
286.38316691783564
 21
46.535543499897585
  0
LINE
  8
_0-0_
  6
CONTINUOUS
 62
    7
 10
286.38316691783564
 20
46.535543499897585
 11
286.20172006674818
 21
46.076870027036648
  0
LINE
  8
_0-0_
  6
CONTINUOUS
 62
    7
 10
286.20172006674818
 20
46.076870027036648
 11
286.10742260764653
 21
45.847435895546141
  0
LINE
  8
_0-0_
  6
CONTINUOUS
 62
    7
 10
286.10742260764653
 20
45.847435895546141
 11
286.01075221733061
 21
45.617993258278375
  0
LINE
  8
_0-0_
  6
CONTINUOUS
 62
    7
 10
286.01075221733061
 20
45.617993258278375
 11
285.81032738628471
 21
45.159252039976082
  0
LINE
  8
_0-0_
  6
CONTINUOUS
 62
    7
 10
285.81032738628471
 20
45.159252039976082
 11
285.60052385008237
 21
44.70098530365226
  0
LINE
  8
_0-0_
  6
CONTINUOUS
 62
    7
 10
285.60052385008237
 20
44.70098530365226
 11
285.49213325406834
 21
44.472135457261857
  0
LINE
  8
_0-0_
  6
CONTINUOUS
 62
    7
 10
285.49213313501457
 20
62.153078453982516
 11
285.59833284401191
 21
61.968390939717892
  0
LINE
  8
_0-0_
  6
CONTINUOUS
 62
    7
 10
285.59833284401191
 20
61.968390939717892
 11
285.80431028726014
 21
61.595459943419655
  0
LINE
  8
_0-0_
  6
CONTINUOUS
 62
    7
 10
285.80431028726014
 20
61.595459943419655
 11
286.00167361418278
 21
61.217818271178885
  0
LINE
  8
_0-0_
  6
CONTINUOUS
 62
    7
 10
286.00167361418278
 20
61.217818271178885
 11
286.09709165014226
 21
61.027271462215367
  0
LINE
  8
_0-0_
  6
CONTINUOUS
 62
    7
 10
286.09709165014226
 20
61.027271462215367
 11
286.19031582958485
 21
60.835599368695739
  0
LINE
  8
_0-0_
  6
CONTINUOUS
 62
    7
 10
286.19031582958485
 20
60.835599368695739
 11
286.37013202053311
 21
60.448958504716984
  0
LINE
  8
_0-0_
  6
CONTINUOUS
 62
    7
 10
286.37013202053311
 20
60.448958504716984
 11
286.54102741912754
 21
60.058058875856887
  0
LINE
  8
_0-0_
  6
CONTINUOUS
 62
    7
 10
286.54102741912754
 20
60.058058875856887
 11
286.70291783159735
 21
59.663070964529879
  0
LINE
  8
_0-0_
  6
CONTINUOUS
 62
    7
 10
286.70291783159735
 20
59.663070964529879
 11
286.85572996792177
 21
59.2641718845573
  0
LINE
  8
_0-0_
  6
CONTINUOUS
 62
    7
 10
286.85572996792177
 20
59.2641718845573
 11
286.99940122978148
 21
58.861546019304342
  0
LINE
  8
_0-0_
  6
CONTINUOUS
 62
    7
 10
286.99940122978148
 20
58.861546019304342
 11
287.06779228527046
 21
58.65889555291119
  0
LINE
  8
_0-0_
  6
CONTINUOUS
 62
    7
 10
287.06779228527046
 20
58.65889555291119
 11
287.133879347571
 21
58.455386475207206
  0
LINE
  8
_0-0_
  6
CONTINUOUS
 62
    7
 10
287.133879347571
 20
58.455386475207206
 11
287.25912277757595
 21
58.045894712237669
  0
LINE
  8
_0-0_
  6
CONTINUOUS
 62
    7
 10
287.25912277757595
 20
58.045894712237669
 11
287.37510115240673
 21
57.633279766743044
  0
LINE
  8
_0-0_
  6
CONTINUOUS
 62
    7
 10
287.37510115240673
 20
57.633279766743044
 11
287.48179566757278
 21
57.217757285792004
  0
LINE
  8
_0-0_
  6
CONTINUOUS
 62
    7
 10
287.48179566757278
 20
57.217757285792004
 11
287.57920166184647
 21
56.7995380610962
  0
LINE
  8
_0-0_
  6
CONTINUOUS
 62
    7
 10
287.57920166184647
 20
56.7995380610962
 11
287.66732418827939
 21
56.378843986634593
  0
LINE
  8
_0-0_
  6
CONTINUOUS
 62
    7
 10
287.66732418827939
 20
56.378843986634593
 11
287.70790825441361
 21
56.167642807390394
  0
LINE
  8
_0-0_
  6
CONTINUOUS
 62
    7
 10
287.70790825441361
 20
56.167642807390394
 11
287.74617785382668
 21
55.955912607996424
  0
LINE
  8
_0-0_
  6
CONTINUOUS
 62
    7
 10
287.74617785382668
 20
55.955912607996424
 11
287.81578918877983
 21
55.530989023445045
  0
LINE
  8
_0-0_
  6
CONTINUOUS
 62
    7
 10
287.81578918877983
 20
55.530989023445045
 11
287.87619698016385
 21
55.10432489125219
  0
LINE
  8
_0-0_
  6
CONTINUOUS
 62
    7
 10
287.87619698016385
 20
55.10432489125219
 11
287.90296507672099
 21
54.89042029802772
  0
LINE
  8
_0-0_
  6
CONTINUOUS
 62
    7
 10
287.90296507672099
 20
54.89042029802772
 11
287.92414532412238
 21
54.696938771330906
  0
LINE
  8
_0-0_
  6
CONTINUOUS
 62
    7
 10
287.92414532412238
 20
54.696938771330906
 11
287.95469069600802
 21
54.310641935169997
  0
LINE
  8
_0-0_
  6
CONTINUOUS
 62
    7
 10
287.95469069600802
 20
54.310641935169997
 11
287.96976708406817
 21
53.925962828361435
  0
LINE
  8
_0-0_
  6
CONTINUOUS
 62
    7
 10
287.96976708406817
 20
53.925962828361435
 11
287.97163031687921
 21
53.734507721092768
  0
LINE
  8
_0-0_
  6
CONTINUOUS
 62
    7
 10
287.97163031687921
 20
53.734507721092768
 11
287.96976949660473
 21
53.542847929383925
  0
LINE
  8
_0-0_
  6
CONTINUOUS
 62
    7
 10
287.96976949660473
 20
53.542847929383925
 11
287.95470538742518
 21
53.155636471529078
  0
LINE
  8
_0-0_
  6
CONTINUOUS
 62
    7
 10
287.95470538742518
 20
53.155636471529078
 11
287.92415905503219
 21
52.763852248057674
  0
LINE
  8
_0-0_
  6
CONTINUOUS
 62
    7
 10
287.92415905503219
 20
52.763852248057674
 11
287.90296507672099
 21
52.56651159837088
  0
LINE
  8
_0-0_
  6
CONTINUOUS
 62
    7
 10
285.49213325406834
 20
44.472135457261857
 11
285.41158457829749
 21
44.311380364015122
  0
LINE
  8
_0-0_
  6
CONTINUOUS
 62
    7
 10
285.41158457829749
 20
44.311380364015122
 11
285.23312579480023
 21
43.998045809123823
  0
LINE
  8
_0-0_
  6
CONTINUOUS
 62
    7
 10
285.23312579480023
 20
43.998045809123823
 11
285.03287285099248
 21
43.697573189605237
  0
LINE
  8
_0-0_
  6
CONTINUOUS
 62
    7
 10
285.03287285099248
 20
43.697573189605237
 11
284.92517189733405
 21
43.552848075340307
  0
LINE
  8
_0-0_
  6
CONTINUOUS
 62
    7
 10
284.92517189733405
 20
43.552848075340307
 11
284.81278228213012
 21
43.412129595647684
  0
LINE
  8
_0-0_
  6
CONTINUOUS
 62
    7
 10
284.81278228213012
 20
43.412129595647684
 11
284.57517328603296
 21
43.143639376428155
  0
LINE
  8
_0-0_
  6
CONTINUOUS
 62
    7
 10
284.57517328603296
 20
43.143639376428155
 11
284.3227771824362
 21
42.89381292973826
  0
LINE
  8
_0-0_
  6
CONTINUOUS
 62
    7
 10
284.3227771824362
 20
42.89381292973826
 11
284.05518661771509
 21
42.661196200893983
  0
LINE
  8
_0-0_
  6
CONTINUOUS
 62
    7
 10
284.05518661771509
 20
42.661196200893983
 11
283.76619398781202
 21
42.440989644938554
  0
LINE
  8
_0-0_
  6
CONTINUOUS
 62
    7
 10
283.76619398781202
 20
42.440989644938554
 11
283.45707133832764
 21
42.235746532628809
  0
LINE
  8
_0-0_
  6
CONTINUOUS
 62
    7
 10
283.45707133832764
 20
42.235746532628809
 11
283.29555640072465
 21
42.139538900139314
  0
LINE
  8
_0-0_
  6
CONTINUOUS
 62
    7
 10
283.29555640072465
 20
42.139538900139314
 11
283.12975103801944
 21
42.047984691234205
  0
LINE
  8
_0-0_
  6
CONTINUOUS
 62
    7
 10
283.12975103801944
 20
42.047984691234205
 11
282.78642217849608
 21
41.879840859001661
  0
LINE
  8
_0-0_
  6
CONTINUOUS
 62
    7
 10
282.78642217849608
 20
41.879840859001661
 11
282.42957440717544
 21
41.733094253062745
  0
LINE
  8
_0-0_
  6
CONTINUOUS
 62
    7
 10
282.42957440717544
 20
41.733094253062745
 11
282.06177610201064
 21
41.609074562697742
  0
LINE
  8
_0-0_
  6
CONTINUOUS
 62
    7
 10
282.06177610201064
 20
41.609074562697742
 11
281.68557675184945
 21
41.508679423486456
  0
LINE
  8
_0-0_
  6
CONTINUOUS
 62
    7
 10
281.68557675184945
 20
41.508679423486456
 11
281.30399880101356
 21
41.432509915191304
  0
LINE
  8
_0-0_
  6
CONTINUOUS
 62
    7
 10
281.30399880101356
 20
41.432509915191304
 11
281.11217289773083
 21
41.403574094937312
  0
LINE
  8
_0-0_
  6
CONTINUOUS
 62
    7
 10
281.11217289773083
 20
41.403574094937312
 11
280.92018173062604
 21
41.380712909759268
  0
LINE
  8
_0-0_
  6
CONTINUOUS
 62
    7
 10
280.92018173062604
 20
41.380712909759268
 11
280.53733669906285
 21
41.352968854998153
  0
LINE
  8
_0-0_
  6
CONTINUOUS
 62
    7
 10
280.53733669906285
 20
41.352968854998153
 11
280.15880503290862
 21
41.348483566777531
  0
LINE
  8
_0-0_
  6
CONTINUOUS
 62
    7
 10
280.15880503290862
 20
41.348483566777531
 11
279.97163031687921
 21
41.354605551645136
  0
LINE
  8
_0-0_
  6
CONTINUOUS
 62
    7
 10
279.97163031687921
 20
41.354605551645136
 11
279.7844556075064
 21
41.348483566897585
  0
LINE
  8
_0-0_
  6
CONTINUOUS
 62
    7
 10
279.7844556075064
 20
41.348483566897585
 11
279.40592395498186
 21
41.352968854150504
  0
LINE
  8
_0-0_
  6
CONTINUOUS
 62
    7
 10
279.40592395498186
 20
41.352968854150504
 11
279.02307893717659
 21
41.380712906239978
  0
LINE
  8
_0-0_
  6
CONTINUOUS
 62
    7
 10
279.02307893717659
 20
41.380712906239978
 11
278.83108777688756
 21
41.403574089426229
  0
LINE
  8
_0-0_
  6
CONTINUOUS
 62
    7
 10
278.83108777688756
 20
41.403574089426229
 11
278.63926188032417
 21
41.432509907249596
  0
LINE
  8
_0-0_
  6
CONTINUOUS
 62
    7
 10
278.63926188032417
 20
41.432509907249596
 11
278.25768394247405
 21
41.508679409383831
  0
LINE
  8
_0-0_
  6
CONTINUOUS
 62
    7
 10
278.25768394247405
 20
41.508679409383831
 11
277.88148460442005
 21
41.609074540779829
  0
LINE
  8
_0-0_
  6
CONTINUOUS
 62
    7
 10
277.88148460442005
 20
41.609074540779829
 11
277.51368631021739
 21
41.733094221806596
  0
LINE
  8
_0-0_
  6
CONTINUOUS
 62
    7
 10
277.51368631021739
 20
41.733094221806596
 11
277.15683854851829
 21
41.879840817043487
  0
LINE
  8
_0-0_
  6
CONTINUOUS
 62
    7
 10
277.15683854851829
 20
41.879840817043487
 11
276.81350969696484
 21
42.047984637478976
  0
LINE
  8
_0-0_
  6
CONTINUOUS
 62
    7
 10
276.81350969696484
 20
42.047984637478976
 11
276.647704337562
 21
42.139538840167234
  0
LINE
  8
_0-0_
  6
CONTINUOUS
 62
    7
 10
276.647704337562
 20
42.139538840167234
 11
276.48618940278482
 21
42.235746466278897
  0
LINE
  8
_0-0_
  6
CONTINUOUS
 62
    7
 10
276.48618940278482
 20
42.235746466278897
 11
276.17706675744682
 21
42.440989565537848
  0
LINE
  8
_0-0_
  6
CONTINUOUS
 62
    7
 10
276.17706675744682
 20
42.440989565537848
 11
275.88807412959375
 21
42.661196108392915
  0
LINE
  8
_0-0_
  6
CONTINUOUS
 62
    7
 10
275.88807412959375
 20
42.661196108392915
 11
275.62048356607136
 21
42.893812823319649
  0
LINE
  8
_0-0_
  6
CONTINUOUS
 62
    7
 10
275.62048356607136
 20
42.893812823319649
 11
275.36808746528766
 21
43.143639252195271
  0
LINE
  8
_0-0_
  6
CONTINUOUS
 62
    7
 10
275.36808746528766
 20
43.143639252195271
 11
275.13047846955612
 21
43.412129453031184
  0
LINE
  8
_0-0_
  6
CONTINUOUS
 62
    7
 10
275.13047846955612
 20
43.412129453031184
 11
275.01808885358457
 21
43.552847923415584
  0
LINE
  8
_0-0_
  6
CONTINUOUS
 62
    7
 10
275.01808885358457
 20
43.552847923415584
 11
274.91038789851916
 21
43.697573028342276
  0
LINE
  8
_0-0_
  6
CONTINUOUS
 62
    7
 10
274.91038789851916
 20
43.697573028342276
 11
274.71013494996021
 21
43.998045629271701
  0
LINE
  8
_0-0_
  6
CONTINUOUS
 62
    7
 10
274.71013494996021
 20
43.998045629271701
 11
274.53167615913242
 21
44.311380165995843
  0
LINE
  8
_0-0_
  6
CONTINUOUS
 62
    7
 10
274.53167615913242
 20
44.311380165995843
 11
274.45112747874862
 21
44.4721352504273
  0
LINE
  8
_0-0_
  6
CONTINUOUS
 62
    7
 10
279.97163031687921
 20
64.947516877888802
 11
280.15946150263642
 21
64.936480399187758
  0
LINE
  8
_0-0_
  6
CONTINUOUS
 62
    7
 10
280.15946150263642
 20
64.936480399187758
 11
280.53861550404815
 21
64.902050822860247
  0
LINE
  8
_0-0_
  6
CONTINUOUS
 62
    7
 10
280.53861550404815
 20
64.902050822860247
 11
280.92223326467536
 21
64.850475386399239
  0
LINE
  8
_0-0_
  6
CONTINUOUS
 62
    7
 10
280.92223326467536
 20
64.850475386399239
 11
281.11464462851234
 21
64.818133999796146
  0
LINE
  8
_0-0_
  6
CONTINUOUS
 62
    7
 10
281.11464462851234
 20
64.818133999796146
 11
281.30690060439736
 21
64.781396886474568
  0
LINE
  8
_0-0_
  6
CONTINUOUS
 62
    7
 10
281.30690060439736
 20
64.781396886474568
 11
281.68933777868494
 21
64.694764269115012
  0
LINE
  8
_0-0_
  6
CONTINUOUS
 62
    7
 10
281.68933777868494
 20
64.694764269115012
 11
282.06634819129283
 21
64.590830650709222
  0
LINE
  8
_0-0_
  6
CONTINUOUS
 62
    7
 10
282.06634819129283
 20
64.590830650709222
 11
282.4348463418886
 21
64.470149683372483
  0
LINE
  8
_0-0_
  6
CONTINUOUS
 62
    7
 10
282.4348463418886
 20
64.470149683372483
 11
282.79223397496332
 21
64.333433317277695
  0
LINE
  8
_0-0_
  6
CONTINUOUS
 62
    7
 10
282.79223397496332
 20
64.333433317277695
 11
283.13593356210129
 21
64.181685624815827
  0
LINE
  8
_0-0_
  6
CONTINUOUS
 62
    7
 10
283.13593356210129
 20
64.181685624815827
 11
283.30185175043459
 21
64.100582101848204
  0
LINE
  8
_0-0_
  6
CONTINUOUS
 62
    7
 10
283.30185175043459
 20
64.100582101848204
 11
283.46342731778839
 21
64.016240894566408
  0
LINE
  8
_0-0_
  6
CONTINUOUS
 62
    7
 10
283.46342731778839
 20
64.016240894566408
 11
283.7725100153051
 21
63.838680905745832
  0
LINE
  8
_0-0_
  6
CONTINUOUS
 62
    7
 10
283.7725100153051
 20
63.838680905745832
 11
284.06124690766444
 21
63.650867800257174
  0
LINE
  8
_0-0_
  6
CONTINUOUS
 62
    7
 10
284.06124690766444
 20
63.650867800257174
 11
284.32829816400442
 21
63.454725658399866
  0
LINE
  8
_0-0_
  6
CONTINUOUS
 62
    7
 10
284.32829816400442
 20
63.454725658399866
 11
284.57972582904802
 21
63.246138120500518
  0
LINE
  8
_0-0_
  6
CONTINUOUS
 62
    7
 10
284.57972582904802
 20
63.246138120500518
 11
284.81625196497077
 21
63.023543029548136
  0
LINE
  8
_0-0_
  6
CONTINUOUS
 62
    7
 10
284.81625196497077
 20
63.023543029548136
 11
284.92808625052601
 21
62.907366617497928
  0
LINE
  8
_0-0_
  6
CONTINUOUS
 62
    7
 10
284.92808625052601
 20
62.907366617497928
 11
285.03523643548704
 21
62.788156271980142
  0
LINE
  8
_0-0_
  6
CONTINUOUS
 62
    7
 10
285.03523643548704
 20
62.788156271980142
 11
285.23444055413017
 21
62.541336448116226
  0
LINE
  8
_0-0_
  6
CONTINUOUS
 62
    7
 10
285.23444055413017
 20
62.541336448116226
 11
285.41197868451343
 21
62.284620501872496
  0
LINE
  8
_0-0_
  6
CONTINUOUS
 62
    7
 10
285.41197868451343
 20
62.284620501872496
 11
285.49213313501457
 21
62.153078453982516
  0
LINE
  8
_0-0_
  6
CONTINUOUS
 62
    7
 10
274.45112737969009
 20
62.153078249659529
 11
274.5312818246797
 21
62.284620306134229
  0
LINE
  8
_0-0_
  6
CONTINUOUS
 62
    7
 10
274.5312818246797
 20
62.284620306134229
 11
274.70881994628724
 21
62.541336269974863
  0
LINE
  8
_0-0_
  6
CONTINUOUS
 62
    7
 10
274.70881994628724
 20
62.541336269974863
 11
274.90802405921329
 21
62.788156111736726
  0
LINE
  8
_0-0_
  6
CONTINUOUS
 62
    7
 10
274.90802405921329
 20
62.788156111736726
 11
275.01517424246538
 21
62.907366466214398
  0
LINE
  8
_0-0_
  6
CONTINUOUS
 62
    7
 10
275.01517424246538
 20
62.907366466214398
 11
275.12700852706928
 21
63.023542887179929
  0
LINE
  8
_0-0_
  6
CONTINUOUS
 62
    7
 10
275.12700852706928
 20
63.023542887179929
 11
275.36353466334765
 21
63.246137995716936
  0
LINE
  8
_0-0_
  6
CONTINUOUS
 62
    7
 10
275.36353466334765
 20
63.246137995716936
 11
275.61496233165633
 21
63.454725550651119
  0
LINE
  8
_0-0_
  6
CONTINUOUS
 62
    7
 10
275.61496233165633
 20
63.454725550651119
 11
275.88201358915137
 21
63.65086770555331
  0
LINE
  8
_0-0_
  6
CONTINUOUS
 62
    7
 10
275.88201358915137
 20
63.65086770555331
 11
276.17075048387358
 21
63.838680823425648
  0
LINE
  8
_0-0_
  6
CONTINUOUS
 62
    7
 10
276.17075048387358
 20
63.838680823425648
 11
276.4798331863052
 21
64.016240824658553
  0
LINE
  8
_0-0_
  6
CONTINUOUS
 62
    7
 10
276.4798331863052
 20
64.016240824658553
 11
276.6414087570314
 21
64.10058203803851
  0
LINE
  8
_0-0_
  6
CONTINUOUS
 62
    7
 10
276.6414087570314
 20
64.10058203803851
 11
276.80732694931919
 21
64.181685566980605
  0
LINE
  8
_0-0_
  6
CONTINUOUS
 62
    7
 10
276.80732694931919
 20
64.181685566980605
 11
277.15102654603322
 21
64.333433270874821
  0
LINE
  8
_0-0_
  6
CONTINUOUS
 62
    7
 10
277.15102654603322
 20
64.333433270874821
 11
277.508414190704
 21
64.470149647502467
  0
LINE
  8
_0-0_
  6
CONTINUOUS
 62
    7
 10
277.508414190704
 20
64.470149647502467
 11
277.87691235452837
 21
64.590830624222463
  0
LINE
  8
_0-0_
  6
CONTINUOUS
 62
    7
 10
277.87691235452837
 20
64.590830624222463
 11
278.25392278177458
 21
64.694764250734579
  0
LINE
  8
_0-0_
  6
CONTINUOUS
 62
    7
 10
278.25392278177458
 20
64.694764250734579
 11
278.63635997177551
 21
64.781396874799384
  0
LINE
  8
_0-0_
  6
CONTINUOUS
 62
    7
 10
278.63635997177551
 20
64.781396874799384
 11
278.82861595579504
 21
64.818133990919023
  0
LINE
  8
_0-0_
  6
CONTINUOUS
 62
    7
 10
278.82861595579504
 20
64.818133990919023
 11
279.02102732788478
 21
64.850475379942282
  0
LINE
  8
_0-0_
  6
CONTINUOUS
 62
    7
 10
279.02102732788478
 20
64.850475379942282
 11
279.40464510516756
 21
64.902050820102204
  0
LINE
  8
_0-0_
  6
CONTINUOUS
 62
    7
 10
279.40464510516756
 20
64.902050820102204
 11
279.78379912307389
 21
64.936480398629783
  0
LINE
  8
_0-0_
  6
CONTINUOUS
 62
    7
 10
279.78379912307389
 20
64.936480398629783
 11
279.97163031687921
 21
64.947516877888802
  0
LINE
  8
_0-0_
  6
CONTINUOUS
 62
    7
 10
272.04029555703698
 20
54.89042029802772
 11
272.06706365273374
 21
55.104324884662901
  0
LINE
  8
_0-0_
  6
CONTINUOUS
 62
    7
 10
272.06706365273374
 20
55.104324884662901
 11
272.12747144197226
 21
55.530989003751301
  0
LINE
  8
_0-0_
  6
CONTINUOUS
 62
    7
 10
272.12747144197226
 20
55.530989003751301
 11
272.19708277421148
 21
55.955912575318735
  0
LINE
  8
_0-0_
  6
CONTINUOUS
 62
    7
 10
272.19708277421148
 20
55.955912575318735
 11
272.23535237205249
 21
56.167642768272117
  0
LINE
  8
_0-0_
  6
CONTINUOUS
 62
    7
 10
272.23535237205249
 20
56.167642768272117
 11
272.27593643647049
 21
56.378843941113928
  0
LINE
  8
_0-0_
  6
CONTINUOUS
 62
    7
 10
272.27593643647049
 20
56.378843941113928
 11
272.36405895904306
 21
56.799538002896725
  0
LINE
  8
_0-0_
  6
CONTINUOUS
 62
    7
 10
272.36405895904306
 20
56.799538002896725
 11
272.46146494888114
 21
57.2177572150988
  0
LINE
  8
_0-0_
  6
CONTINUOUS
 62
    7
 10
272.46146494888114
 20
57.2177572150988
 11
272.56815945903998
 21
57.633279683757564
  0
LINE
  8
_0-0_
  6
CONTINUOUS
 62
    7
 10
272.56815945903998
 20
57.633279683757564
 11
272.68413782829373
 21
58.045894617182284
  0
LINE
  8
_0-0_
  6
CONTINUOUS
 62
    7
 10
272.68413782829373
 20
58.045894617182284
 11
272.80938125215505
 21
58.455386368322934
  0
LINE
  8
_0-0_
  6
CONTINUOUS
 62
    7
 10
272.80938125215505
 20
58.455386368322934
 11
272.87546831117322
 21
58.65889544020979
  0
LINE
  8
_0-0_
  6
CONTINUOUS
 62
    7
 10
272.87546831117322
 20
58.65889544020979
 11
272.94385936324068
 21
58.861545900851297
  0
LINE
  8
_0-0_
  6
CONTINUOUS
 62
    7
 10
272.94385936324068
 20
58.861545900851297
 11
273.08753061784444
 21
59.264171754811059
  0
LINE
  8
_0-0_
  6
CONTINUOUS
 62
    7
 10
273.08753061784444
 20
59.264171754811059
 11
273.24034274636722
 21
59.663070823781027
  0
LINE
  8
_0-0_
  6
CONTINUOUS
 62
    7
 10
273.24034274636722
 20
59.663070823781027
 11
273.40223315050059
 21
60.058058724411012
  0
LINE
  8
_0-0_
  6
CONTINUOUS
 62
    7
 10
273.40223315050059
 20
60.058058724411012
 11
273.57312854023291
 21
60.44895834289332
  0
LINE
  8
_0-0_
  6
CONTINUOUS
 62
    7
 10
273.57312854023291
 20
60.44895834289332
 11
273.75294472180701
 21
60.835599196825797
  0
LINE
  8
_0-0_
  6
CONTINUOUS
 62
    7
 10
273.75294472180701
 20
60.835599196825797
 11
273.84616889637471
 21
61.02727128545007
  0
LINE
  8
_0-0_
  6
CONTINUOUS
 62
    7
 10
273.84616889637471
 20
61.02727128545007
 11
273.9415869273347
 21
61.217818089605544
  0
LINE
  8
_0-0_
  6
CONTINUOUS
 62
    7
 10
273.9415869273347
 20
61.217818089605544
 11
274.1389502438991
 21
61.595459752498982
  0
LINE
  8
_0-0_
  6
CONTINUOUS
 62
    7
 10
274.1389502438991
 20
61.595459752498982
 11
274.34492767629979
 21
61.968390739782308
  0
LINE
  8
_0-0_
  6
CONTINUOUS
 62
    7
 10
274.34492767629979
 20
61.968390739782308
 11
274.45112737969009
 21
62.153078249659529
  0
LINE
  8
_0-0_
  6
CONTINUOUS
 62
    7
 10
272.04029555703698
 20
52.56651159837088
 11
272.01910157872669
 21
52.763852248057674
  0
LINE
  8
_0-0_
  6
CONTINUOUS
 62
    7
 10
272.01910157872669
 20
52.763852248057674
 11
271.98855524633325
 21
53.155636471529078
  0
LINE
  8
_0-0_
  6
CONTINUOUS
 62
    7
 10
271.98855524633325
 20
53.155636471529078
 11
271.9734911371537
 21
53.542847929383925
  0
LINE
  8
_0-0_
  6
CONTINUOUS
 62
    7
 10
271.9734911371537
 20
53.542847929383925
 11
271.97163031687921
 21
53.734507721092768
  0
LINE
  8
_0-0_
  6
CONTINUOUS
 62
    7
 10
271.97163031687921
 20
53.734507721092768
 11
271.97349354969026
 21
53.925962828361435
  0
LINE
  8
_0-0_
  6
CONTINUOUS
 62
    7
 10
271.97349354969026
 20
53.925962828361435
 11
271.98856993775041
 21
54.310641935169997
  0
LINE
  8
_0-0_
  6
CONTINUOUS
 62
    7
 10
271.98856993775041
 20
54.310641935169997
 11
272.01911530963605
 21
54.696938771330906
  0
LINE
  8
_0-0_
  6
CONTINUOUS
 62
    7
 10
272.01911530963605
 20
54.696938771330906
 11
272.04029555703698
 21
54.89042029802772
  0
LINE
  8
_0-0_
  6
CONTINUOUS
 62
    7
 10
274.45112747874862
 20
44.4721352504273
 11
274.34273687805705
 21
44.700985102135519
  0
LINE
  8
_0-0_
  6
CONTINUOUS
 62
    7
 10
274.34273687805705
 20
44.700985102135519
 11
274.13293333275885
 21
45.159251849323709
  0
LINE
  8
_0-0_
  6
CONTINUOUS
 62
    7
 10
274.13293333275885
 20
45.159251849323709
 11
273.93250849298363
 21
45.617993078782774
  0
LINE
  8
_0-0_
  6
CONTINUOUS
 62
    7
 10
273.93250849298363
 20
45.617993078782774
 11
273.83583809844492
 21
45.847435721733063
  0
LINE
  8
_0-0_
  6
CONTINUOUS
 62
    7
 10
273.83583809844492
 20
45.847435721733063
 11
273.74154063521962
 21
46.076869858972032
  0
LINE
  8
_0-0_
  6
CONTINUOUS
 62
    7
 10
273.74154063521962
 20
46.076869858972032
 11
273.56009377618409
 21
46.535543343518611
  0
LINE
  8
_0-0_
  6
CONTINUOUS
 62
    7
 10
273.56009377618409
 20
46.535543343518611
 11
273.38821592294187
 21
46.993679354741062
  0
LINE
  8
_0-0_
  6
CONTINUOUS
 62
    7
 10
273.38821592294187
 20
46.993679354741062
 11
273.22593690767951
 21
47.450955643037332
  0
LINE
  8
_0-0_
  6
CONTINUOUS
 62
    7
 10
273.22593690767951
 20
47.450955643037332
 11
273.07327719097555
 21
47.907037894129871
  0
LINE
  8
_0-0_
  6
CONTINUOUS
 62
    7
 10
273.07327719097555
 20
47.907037894129871
 11
272.93024306924633
 21
48.361590712222778
  0
LINE
  8
_0-0_
  6
CONTINUOUS
 62
    7
 10
272.93024306924633
 20
48.361590712222778
 11
272.8623333813988
 21
48.588189253432802
  0
LINE
  8
_0-0_
  6
CONTINUOUS
 62
    7
 10
272.8623333813988
 20
48.588189253432802
 11
272.79682545145204
 21
48.814280608466788
  0
LINE
  8
_0-0_
  6
CONTINUOUS
 62
    7
 10
272.79682545145204
 20
48.814280608466788
 11
272.67299935683548
 21
49.264777477441612
  0
LINE
  8
_0-0_
  6
CONTINUOUS
 62
    7
 10
272.67299935683548
 20
49.264777477441612
 11
272.55872383068743
 21
49.712754935448856
  0
LINE
  8
_0-0_
  6
CONTINUOUS
 62
    7
 10
272.55872383068743
 20
49.712754935448856
 11
272.45394240453004
 21
50.157888271151251
  0
LINE
  8
_0-0_
  6
CONTINUOUS
 62
    7
 10
272.45394240453004
 20
50.157888271151251
 11
272.35858279627416
 21
50.599854767973511
  0
LINE
  8
_0-0_
  6
CONTINUOUS
 62
    7
 10
272.35858279627416
 20
50.599854767973511
 11
272.27255640878263
 21
51.03833517753651
  0
LINE
  8
_0-0_
  6
CONTINUOUS
 62
    7
 10
272.27255640878263
 20
51.03833517753651
 11
272.23301093608495
 21
51.256169643006842
  0
LINE
  8
_0-0_
  6
CONTINUOUS
 62
    7
 10
272.23301093608495
 20
51.256169643006842
 11
272.1956696922224
 21
51.473544138965963
  0
LINE
  8
_0-0_
  6
CONTINUOUS
 62
    7
 10
272.1956696922224
 20
51.473544138965963
 11
272.12717519050591
 21
51.909628381795983
  0
LINE
  8
_0-0_
  6
CONTINUOUS
 62
    7
 10
272.12717519050591
 20
51.909628381795983
 11
272.06710592756633
 21
52.347242982719081
  0
LINE
  8
_0-0_
  6
CONTINUOUS
 62
    7
 10
272.06710592756633
 20
52.347242982719081
 11
272.04029555703698
 21
52.56651159837088
  0
ARC
  8
_0-0_
  6
CONTINUOUS
 62
    7
 10
289.97163031687921
 20
65.979769100674503
 40
3.0000000000000142
 50
0
 51
85.249999999999673
  0
ARC
  8
_0-0_
  6
CONTINUOUS
 62
    7
 10
269.97163031687876
 20
65.979769100674503
 40
3
 50
94.749999999999957
 51
180
  0
LINE
  8
_0-0_
  6
CONTINUOUS
 62
    7
 10
267.13426708182249
 20
40.251061834886741
 11
267.1343373403364
 21
40.255229013532926
  0
LINE
  8
_0-0_
  6
CONTINUOUS
 62
    7
 10
267.1343373403364
 20
40.255229013532926
 11
267.13489910909936
 21
40.263557570462808
  0
LINE
  8
_0-0_
  6
CONTINUOUS
 62
    7
 10
267.13489910909936
 20
40.263557570462808
 11
267.1360218134904
 21
40.27187702299193
  0
LINE
  8
_0-0_
  6
CONTINUOUS
 62
    7
 10
267.1360218134904
 20
40.27187702299193
 11
267.13679324244174
 21
40.27603297830251
  0
LINE
  8
_0-0_
  6
CONTINUOUS
 62
    7
 10
267.13679324244174
 20
40.27603297830251
 11
267.13770457676435
 21
40.280186229543006
  0
LINE
  8
_0-0_
  6
CONTINUOUS
 62
    7
 10
267.13770457676435
 20
40.280186229543006
 11
267.13994652500548
 21
40.288484050085799
  0
LINE
  8
_0-0_
  6
CONTINUOUS
 62
    7
 10
267.13994652500548
 20
40.288484050085799
 11
267.14274678619165
 21
40.296769346111205
  0
LINE
  8
_0-0_
  6
CONTINUOUS
 62
    7
 10
267.14274678619165
 20
40.296769346111205
 11
267.14610448937526
 21
40.305040980604417
  0
LINE
  8
_0-0_
  6
CONTINUOUS
 62
    7
 10
267.14610448937526
 20
40.305040980604417
 11
267.1500187639748
 21
40.31329781804402
  0
LINE
  8
_0-0_
  6
CONTINUOUS
 62
    7
 10
267.1500187639748
 20
40.31329781804402
 11
267.1544887391741
 21
40.321538724395168
  0
LINE
  8
_0-0_
  6
CONTINUOUS
 62
    7
 10
267.1544887391741
 20
40.321538724395168
 11
267.15693184218196
 21
40.325652849435073
  0
LINE
  8
_0-0_
  6
CONTINUOUS
 62
    7
 10
267.15693184218196
 20
40.325652849435073
 11
267.15951354343713
 21
40.329762567117314
  0
LINE
  8
_0-0_
  6
CONTINUOUS
 62
    7
 10
267.15951354343713
 20
40.329762567117314
 11
267.16509230414556
 21
40.337968215174669
  0
LINE
  8
_0-0_
  6
CONTINUOUS
 62
    7
 10
267.16509230414556
 20
40.337968215174669
 11
267.17122414733774
 21
40.346154539044846
  0
LINE
  8
_0-0_
  6
CONTINUOUS
 62
    7
 10
267.17122414733774
 20
40.346154539044846
 11
267.17790819757545
 21
40.354320410733862
  0
LINE
  8
_0-0_
  6
CONTINUOUS
 62
    7
 10
267.17790819757545
 20
40.354320410733862
 11
267.18514357791571
 21
40.362464703779779
  0
LINE
  8
_0-0_
  6
CONTINUOUS
 62
    7
 10
267.18514357791571
 20
40.362464703779779
 11
267.1929294100031
 21
40.370586293263614
  0
LINE
  8
_0-0_
  6
CONTINUOUS
 62
    7
 10
267.1929294100031
 20
40.370586293263614
 11
267.19702847062524
 21
40.374638223052671
  0
LINE
  8
_0-0_
  6
CONTINUOUS
 62
    7
 10
267.19702847062524
 20
40.374638223052671
 11
267.20126481426576
 21
40.378684055802978
  0
LINE
  8
_0-0_
  6
CONTINUOUS
 62
    7
 10
267.20126481426576
 20
40.378684055802978
 11
267.21014891022821
 21
40.386756869545252
  0
LINE
  8
_0-0_
  6
CONTINUOUS
 62
    7
 10
267.21014891022821
 20
40.386756869545252
 11
267.21958081692162
 21
40.394803614145303
  0
LINE
  8
_0-0_
  6
CONTINUOUS
 62
    7
 10
267.21958081692162
 20
40.394803614145303
 11
267.2245019239798
 21
40.398816860815032
  0
LINE
  8
_0-0_
  6
CONTINUOUS
 62
    7
 10
267.2245019239798
 20
40.398816860815032
 11
267.22955965340168
 21
40.402823170736838
  0
LINE
  8
_0-0_
  6
CONTINUOUS
 62
    7
 10
267.22955965340168
 20
40.402823170736838
 11
267.24008453936665
 21
40.410814421881014
  0
LINE
  8
_0-0_
  6
CONTINUOUS
 62
    7
 10
267.24008453936665
 20
40.410814421881014
 11
267.25115459586311
 21
40.418776251507779
  0
LINE
  8
_0-0_
  6
CONTINUOUS
 62
    7
 10
267.25115459586311
 20
40.418776251507779
 11
267.2568937889522
 21
40.422745784835797
  0
LINE
  8
_0-0_
  6
CONTINUOUS
 62
    7
 10
267.2568937889522
 20
40.422745784835797
 11
267.26276894608725
 21
40.426707544835836
  0
LINE
  8
_0-0_
  6
CONTINUOUS
 62
    7
 10
267.26276894608725
 20
40.426707544835836
 11
267.27492671626521
 21
40.43460718827032
  0
LINE
  8
_0-0_
  6
CONTINUOUS
 62
    7
 10
267.27492671626521
 20
40.43460718827032
 11
267.28762703661084
 21
40.442474069283662
  0
LINE
  8
_0-0_
  6
CONTINUOUS
 62
    7
 10
267.28762703661084
 20
40.442474069283662
 11
267.3008690423593
 21
40.450307076268246
  0
LINE
  8
_0-0_
  6
CONTINUOUS
 62
    7
 10
267.3008690423593
 20
40.450307076268246
 11
267.31465187485799
 21
40.458105098368151
  0
LINE
  8
_0-0_
  6
CONTINUOUS
 62
    7
 10
267.31465187485799
 20
40.458105098368151
 11
267.32897468268573
 21
40.465867025271791
  0
LINE
  8
_0-0_
  6
CONTINUOUS
 62
    7
 10
267.32897468268573
 20
40.465867025271791
 11
267.33633623042158
 21
40.469733023398248
  0
LINE
  8
_0-0_
  6
CONTINUOUS
 62
    7
 10
267.33633623042158
 20
40.469733023398248
 11
267.34382816857021
 21
40.473587441492555
  0
LINE
  8
_0-0_
  6
CONTINUOUS
 62
    7
 10
267.34382816857021
 20
40.473587441492555
 11
267.3592018880671
 21
40.48126104009566
  0
LINE
  8
_0-0_
  6
CONTINUOUS
 62
    7
 10
267.3592018880671
 20
40.48126104009566
 11
267.37509318558648
 21
40.488886826656426
  0
LINE
  8
_0-0_
  6
CONTINUOUS
 62
    7
 10
267.37509318558648
 20
40.488886826656426
 11
267.39149940582172
 21
40.496463807656028
  0
LINE
  8
_0-0_
  6
CONTINUOUS
 62
    7
 10
267.39149940582172
 20
40.496463807656028
 11
267.40841789314061
 21
40.503990990506054
  0
LINE
  8
_0-0_
  6
CONTINUOUS
 62
    7
 10
267.40841789314061
 20
40.503990990506054
 11
267.4258459910983
 21
40.511467383574427
  0
LINE
  8
_0-0_
  6
CONTINUOUS
 62
    7
 10
267.4258459910983
 20
40.511467383574427
 11
267.43475031361083
 21
40.515186224323998
  0
LINE
  8
_0-0_
  6
CONTINUOUS
 62
    7
 10
267.43475031361083
 20
40.515186224323998
 11
267.44378104206396
 21
40.518891996212687
  0
LINE
  8
_0-0_
  6
CONTINUOUS
 62
    7
 10
267.44378104206396
 20
40.518891996212687
 11
267.4622203869784
 21
40.52626383877373
  0
LINE
  8
_0-0_
  6
CONTINUOUS
 62
    7
 10
267.4622203869784
 20
40.52626383877373
 11
267.48116136521992
 21
40.533581922625444
  0
LINE
  8
_0-0_
  6
CONTINUOUS
 62
    7
 10
267.48116136521992
 20
40.533581922625444
 11
267.5006013145811
 21
40.540845260158449
  0
LINE
  8
_0-0_
  6
CONTINUOUS
 62
    7
 10
267.5006013145811
 20
40.540845260158449
 11
267.52053757135616
 21
40.548052864779265
  0
LINE
  8
_0-0_
  6
CONTINUOUS
 62
    7
 10
267.52053757135616
 20
40.548052864779265
 11
267.54096747053097
 21
40.555203750891678
  0
LINE
  8
_0-0_
  6
CONTINUOUS
 62
    7
 10
267.54096747053097
 20
40.555203750891678
 11
267.5513667029112
 21
40.55875761677521
  0
LINE
  8
_0-0_
  6
CONTINUOUS
 62
    7
 10
267.5513667029112
 20
40.55875761677521
 11
267.56188834606507
 21
40.562296933868993
  0
LINE
  8
_0-0_
  6
CONTINUOUS
 62
    7
 10
267.56188834606507
 20
40.562296933868993
 11
267.58329753127271
 21
40.569331430001284
  0
LINE
  8
_0-0_
  6
CONTINUOUS
 62
    7
 10
267.58329753127271
 20
40.569331430001284
 11
267.6051923592803
 21
40.576306256433554
  0
LINE
  8
_0-0_
  6
CONTINUOUS
 62
    7
 10
267.6051923592803
 20
40.576306256433554
 11
267.62757016356898
 21
40.583220431079781
  0
LINE
  8
_0-0_
  6
CONTINUOUS
 62
    7
 10
267.62757016356898
 20
40.583220431079781
 11
267.65042827858167
 21
40.590072972519238
  0
LINE
  8
_0-0_
  6
CONTINUOUS
 62
    7
 10
267.65042827858167
 20
40.590072972519238
 11
267.67376404039612
 21
40.596862899865982
  0
LINE
  8
_0-0_
  6
CONTINUOUS
 62
    7
 10
267.67376404039612
 20
40.596862899865982
 11
267.68561020700179
 21
40.600234076836614
  0
LINE
  8
_0-0_
  6
CONTINUOUS
 62
    7
 10
267.68561020700179
 20
40.600234076836614
 11
267.69757478744839
 21
40.603589232616059
  0
LINE
  8
_0-0_
  6
CONTINUOUS
 62
    7
 10
267.69757478744839
 20
40.603589232616059
 11
267.7218578613041
 21
40.610250990473787
  0
LINE
  8
_0-0_
  6
CONTINUOUS
 62
    7
 10
267.7218578613041
 20
40.610250990473787
 11
267.74661060746428
 21
40.616847193141666
  0
LINE
  8
_0-0_
  6
CONTINUOUS
 62
    7
 10
267.74661060746428
 20
40.616847193141666
 11
267.77183037619295
 21
40.623376860092549
  0
LINE
  8
_0-0_
  6
CONTINUOUS
 62
    7
 10
267.77183037619295
 20
40.623376860092549
 11
267.79751452336438
 21
40.629839010306796
  0
LINE
  8
_0-0_
  6
CONTINUOUS
 62
    7
 10
267.79751452336438
 20
40.629839010306796
 11
267.82366041130979
 21
40.636232661977147
  0
LINE
  8
_0-0_
  6
CONTINUOUS
 62
    7
 10
267.82366041130979
 20
40.636232661977147
 11
267.83690568577447
 21
40.639403493750024
  0
LINE
  8
_0-0_
  6
CONTINUOUS
 62
    7
 10
267.83690568577447
 20
40.639403493750024
 11
267.85026540965862
 21
40.642556832188575
  0
LINE
  8
_0-0_
  6
CONTINUOUS
 62
    7
 10
267.85026540965862
 20
40.642556832188575
 11
267.87732689615575
 21
40.648810536563133
  0
LINE
  8
_0-0_
  6
CONTINUOUS
 62
    7
 10
267.87732689615575
 20
40.648810536563133
 11
267.90482844406176
 21
40.6549897284483
  0
LINE
  8
_0-0_
  6
CONTINUOUS
 62
    7
 10
267.90482844406176
 20
40.6549897284483
 11
267.91873504541525
 21
40.6580493220888
  0
LINE
  8
_0-0_
  6
CONTINUOUS
 62
    7
 10
267.91873504541525
 20
40.6580493220888
 11
267.93274470924632
 21
40.661088773756319
  0
LINE
  8
_0-0_
  6
CONTINUOUS
 62
    7
 10
267.93274470924632
 20
40.661088773756319
 11
267.96107101370842
 21
40.667106888221269
  0
LINE
  8
_0-0_
  6
CONTINUOUS
 62
    7
 10
267.96107101370842
 20
40.667106888221269
 11
267.9898029362156
 21
40.673043345823544
  0
LINE
  8
_0-0_
  6
CONTINUOUS
 62
    7
 10
267.9898029362156
 20
40.673043345823544
 11
268.00431962252867
 21
40.675980726382704
  0
LINE
  8
_0-0_
  6
CONTINUOUS
 62
    7
 10
268.00431962252867
 20
40.675980726382704
 11
268.01893605522116
 21
40.678897420415296
  0
LINE
  8
_0-0_
  6
CONTINUOUS
 62
    7
 10
268.01893605522116
 20
40.678897420415296
 11
268.04846594841217
 21
40.684668385786836
  0
LINE
  8
_0-0_
  6
CONTINUOUS
 62
    7
 10
268.04846594841217
 20
40.684668385786836
 11
268.07838819239021
 21
40.690355515723013
  0
LINE
  8
_0-0_
  6
CONTINUOUS
 62
    7
 10
268.07838819239021
 20
40.690355515723013
 11
268.10869836245445
 21
40.695958084048698
  0
LINE
  8
_0-0_
  6
CONTINUOUS
 62
    7
 10
268.10869836245445
 20
40.695958084048698
 11
268.13939203249845
 21
40.701475364660155
  0
LINE
  8
_0-0_
  6
CONTINUOUS
 62
    7
 10
268.13939203249845
 20
40.701475364660155
 11
268.1704647750006
 21
40.706906631543234
  0
LINE
  8
_0-0_
  6
CONTINUOUS
 62
    7
 10
268.1704647750006
 20
40.706906631543234
 11
268.18614191445511
 21
40.709589782981084
  0
LINE
  8
_0-0_
  6
CONTINUOUS
 62
    7
 10
268.18614191445511
 20
40.709589782981084
 11
268.20191216110914
 21
40.712251158771096
  0
LINE
  8
_0-0_
  6
CONTINUOUS
 62
    7
 10
268.20191216110914
 20
40.712251158771096
 11
268.23372976081134
 21
40.717508220485115
  0
LINE
  8
_0-0_
  6
CONTINUOUS
 62
    7
 10
268.23372976081134
 20
40.717508220485115
 11
268.26591314317272
 21
40.722677090859861
  0
LINE
  8
_0-0_
  6
CONTINUOUS
 62
    7
 10
268.26591314317272
 20
40.722677090859861
 11
268.29845787664397
 21
40.727757044039436
  0
LINE
  8
_0-0_
  6
CONTINUOUS
 62
    7
 10
268.29845787664397
 20
40.727757044039436
 11
268.331359529427
 21
40.732747354054254
  0
LINE
  8
_0-0_
  6
CONTINUOUS
 62
    7
 10
268.331359529427
 20
40.732747354054254
 11
268.36461366987567
 21
40.737647294719636
  0
LINE
  8
_0-0_
  6
CONTINUOUS
 62
    7
 10
268.36461366987567
 20
40.737647294719636
 11
268.38137153823698
 21
40.740063149521347
  0
LINE
  8
_0-0_
  6
CONTINUOUS
 62
    7
 10
268.38137153823698
 20
40.740063149521347
 11
268.39821586694541
 21
40.742456139499382
  0
LINE
  8
_0-0_
  6
CONTINUOUS
 62
    7
 10
268.39821586694541
 20
40.742456139499382
 11
268.43216169065624
 21
40.747173161351157
  0
LINE
  8
_0-0_
  6
CONTINUOUS
 62
    7
 10
268.43216169065624
 20
40.747173161351157
 11
268.46644671257343
 21
40.75179763254323
  0
LINE
  8
_0-0_
  6
CONTINUOUS
 62
    7
 10
268.46644671257343
 20
40.75179763254323
 11
268.50106650628675
 21
40.756328824439379
  0
LINE
  8
_0-0_
  6
CONTINUOUS
 62
    7
 10
268.50106650628675
 20
40.756328824439379
 11
268.53601664788346
 21
40.760766007264237
  0
LINE
  8
_0-0_
  6
CONTINUOUS
 62
    7
 10
268.53601664788346
 20
40.760766007264237
 11
268.57129271638894
 21
40.76510844983045
  0
LINE
  8
_0-0_
  6
CONTINUOUS
 62
    7
 10
268.57129271638894
 20
40.76510844983045
 11
268.58905159258609
 21
40.767243914561959
  0
LINE
  8
_0-0_
  6
CONTINUOUS
 62
    7
 10
268.58905159258609
 20
40.767243914561959
 11
268.60689029418506
 21
40.769355419242629
  0
LINE
  8
_0-0_
  6
CONTINUOUS
 62
    7
 10
268.60689029418506
 20
40.769355419242629
 11
268.64280496736353
 21
40.773506180570848
  0
LINE
  8
_0-0_
  6
CONTINUOUS
 62
    7
 10
268.64280496736353
 20
40.773506180570848
 11
268.67903232603192
 21
40.7775599964923
  0
LINE
  8
_0-0_
  6
CONTINUOUS
 62
    7
 10
268.67903232603192
 20
40.7775599964923
 11
268.71556796453422
 21
40.781516126905672
  0
LINE
  8
_0-0_
  6
CONTINUOUS
 62
    7
 10
268.71556796453422
 20
40.781516126905672
 11
268.75240748158592
 21
40.785373828515958
  0
LINE
  8
_0-0_
  6
CONTINUOUS
 62
    7
 10
268.75240748158592
 20
40.785373828515958
 11
268.78954647420085
 21
40.789132353778541
  0
LINE
  8
_0-0_
  6
CONTINUOUS
 62
    7
 10
268.78954647420085
 20
40.789132353778541
 11
268.80821960492074
 21
40.790973477686066
  0
LINE
  8
_0-0_
  6
CONTINUOUS
 62
    7
 10
268.80821960492074
 20
40.790973477686066
 11
268.82695206216601
 21
40.792788216331928
  0
LINE
  8
_0-0_
  6
CONTINUOUS
 62
    7
 10
268.82695206216601
 20
40.792788216331928
 11
268.86459208499298
 21
40.796338378516566
  0
LINE
  8
_0-0_
  6
CONTINUOUS
 62
    7
 10
268.86459208499298
 20
40.796338378516566
 11
268.90246080132545
 21
40.799782520532744
  0
LINE
  8
_0-0_
  6
CONTINUOUS
 62
    7
 10
268.90246080132545
 20
40.799782520532744
 11
268.94055247112226
 21
40.803120320855442
  0
LINE
  8
_0-0_
  6
CONTINUOUS
 62
    7
 10
268.94055247112226
 20
40.803120320855442
 11
268.97886135505576
 21
40.806351456384391
  0
LINE
  8
_0-0_
  6
CONTINUOUS
 62
    7
 10
268.97886135505576
 20
40.806351456384391
 11
269.0173817140352
 21
40.809475602586872
  0
LINE
  8
_0-0_
  6
CONTINUOUS
 62
    7
 10
269.0173817140352
 20
40.809475602586872
 11
269.03671940317452
 21
40.81099745291408
  0
LINE
  8
_0-0_
  6
CONTINUOUS
 62
    7
 10
269.03671940317452
 20
40.81099745291408
 11
269.05610780884433
 21
40.812492433623675
  0
LINE
  8
_0-0_
  6
CONTINUOUS
 62
    7
 10
269.05610780884433
 20
40.812492433623675
 11
269.09503389988311
 21
40.815401622455056
  0
LINE
  8
_0-0_
  6
CONTINUOUS
 62
    7
 10
269.09503389988311
 20
40.815401622455056
 11
269.13415424699895
 21
40.818202840931235
  0
LINE
  8
_0-0_
  6
CONTINUOUS
 62
    7
 10
269.13415424699895
 20
40.818202840931235
 11
269.15378547261651
 21
40.81956285845331
  0
LINE
  8
_0-0_
  6
CONTINUOUS
 62
    7
 10
269.15378547261651
 20
40.81956285845331
 11
269.173463109409
 21
40.820895759860605
  0
LINE
  8
_0-0_
  6
CONTINUOUS
 62
    7
 10
269.173463109409
 20
40.820895759860605
 11
269.21295474569013
 21
40.823480049060663
  0
LINE
  8
_0-0_
  6
CONTINUOUS
 62
    7
 10
269.21295474569013
 20
40.823480049060663
 11
269.25262341383393
 21
40.825955377379842
  0
LINE
  8
_0-0_
  6
CONTINUOUS
 62
    7
 10
269.25262341383393
 20
40.825955377379842
 11
269.27252234034074
 21
40.827152077462188
  0
LINE
  8
_0-0_
  6
CONTINUOUS
 62
    7
 10
269.27252234034074
 20
40.827152077462188
 11
269.29246337134907
 21
40.8283214127066
  0
LINE
  8
_0-0_
  6
CONTINUOUS
 62
    7
 10
269.29246337134907
 20
40.8283214127066
 11
269.3324688754077
 21
40.830577821944871
  0
LINE
  8
_0-0_
  6
CONTINUOUS
 62
    7
 10
269.3324688754077
 20
40.830577821944871
 11
269.3726341830187
 21
40.832724270968583
  0
LINE
  8
_0-0_
  6
CONTINUOUS
 62
    7
 10
269.3726341830187
 20
40.832724270968583
 11
269.41295355121417
 21
40.83476042455618
  0
LINE
  8
_0-0_
  6
CONTINUOUS
 62
    7
 10
269.41295355121417
 20
40.83476042455618
 11
269.45342123724038
 21
40.836685946288753
  0
LINE
  8
_0-0_
  6
CONTINUOUS
 62
    7
 10
269.45342123724038
 20
40.836685946288753
 11
269.49403149874195
 21
40.838500498434541
  0
LINE
  8
_0-0_
  6
CONTINUOUS
 62
    7
 10
269.49403149874195
 20
40.838500498434541
 11
269.51438830096038
 21
40.839366054975244
  0
LINE
  8
_0-0_
  6
CONTINUOUS
 62
    7
 10
269.51438830096038
 20
40.839366054975244
 11
269.53477859392649
 21
40.84020374179795
  0
LINE
  8
_0-0_
  6
CONTINUOUS
 62
    7
 10
269.53477859392649
 20
40.84020374179795
 11
269.57565678168692
 21
40.841795335546294
  0
LINE
  8
_0-0_
  6
CONTINUOUS
 62
    7
 10
269.57565678168692
 20
40.841795335546294
 11
269.61666032168694
 21
40.843274937012893
  0
LINE
  8
_0-0_
  6
CONTINUOUS
 62
    7
 10
269.61666032168694
 20
40.843274937012893
 11
269.6577834743847
 21
40.844642201470151
  0
LINE
  8
_0-0_
  6
CONTINUOUS
 62
    7
 10
269.6577834743847
 20
40.844642201470151
 11
269.69902050097915
 21
40.845896781880356
  0
LINE
  8
_0-0_
  6
CONTINUOUS
 62
    7
 10
269.69902050097915
 20
40.845896781880356
 11
269.74036566327811
 21
40.847038328622375
  0
LINE
  8
_0-0_
  6
CONTINUOUS
 62
    7
 10
269.74036566327811
 20
40.847038328622375
 11
269.76107700224281
 21
40.847566604330268
  0
LINE
  8
_0-0_
  6
CONTINUOUS
 62
    7
 10
269.76107700224281
 20
40.847566604330268
 11
269.78181322346506
 21
40.848066489189705
  0
LINE
  8
_0-0_
  6
CONTINUOUS
 62
    7
 10
269.78181322346506
 20
40.848066489189705
 11
269.82335744375757
 21
40.848980907871237
  0
LINE
  8
_0-0_
  6
CONTINUOUS
 62
    7
 10
269.82335744375757
 20
40.848980907871237
 11
269.8649925859412
 21
40.849781225406559
  0
LINE
  8
_0-0_
  6
CONTINUOUS
 62
    7
 10
269.8649925859412
 20
40.849781225406559
 11
269.88584245928621
 21
40.850138482916236
  0
LINE
  8
_0-0_
  6
CONTINUOUS
 62
    7
 10
269.88584245928621
 20
40.850138482916236
 11
271.58888214600699
 21
40.878119197366004
  0
LINE
  8
_0-0_
  6
CONTINUOUS
 62
    7
 10
271.58888214600699
 20
40.878119197366004
 11
275.00099881989206
 21
40.934080626917648
  0
LINE
  8
_0-0_
  6
CONTINUOUS
 62
    7
 10
275.00099881989206
 20
40.934080626917648
 11
278.42116522769845
 21
40.990042057338314
  0
LINE
  8
_0-0_
  6
CONTINUOUS
 62
    7
 10
278.42116522769845
 20
40.990042057338314
 11
280.1342670818234
 21
41.018022772874019
  0
LINE
  8
_0-0_
  6
CONTINUOUS
 62
    7
 10
280.1342670818234
 20
41.018022772874019
 11
281.84736893594743
 21
40.990042057338314
  0
LINE
  8
_0-0_
  6
CONTINUOUS
 62
    7
 10
281.84736893594743
 20
40.990042057338314
 11
285.26753534375382
 21
40.934080626917648
  0
LINE
  8
_0-0_
  6
CONTINUOUS
 62
    7
 10
285.26753534375382
 20
40.934080626917648
 11
288.67965201763798
 21
40.878119197366004
  0
LINE
  8
_0-0_
  6
CONTINUOUS
 62
    7
 10
288.67965201763798
 20
40.878119197366004
 11
290.38269170435922
 21
40.850138482916236
  0
LINE
  8
_0-0_
  6
CONTINUOUS
 62
    7
 10
290.38269170435922
 20
40.850138482916236
 11
290.40354157770469
 21
40.849781225406559
  0
LINE
  8
_0-0_
  6
CONTINUOUS
 62
    7
 10
290.40354157770469
 20
40.849781225406559
 11
290.4451767198874
 21
40.848980907871237
  0
LINE
  8
_0-0_
  6
CONTINUOUS
 62
    7
 10
290.4451767198874
 20
40.848980907871237
 11
290.48672094018036
 21
40.848066489189705
  0
LINE
  8
_0-0_
  6
CONTINUOUS
 62
    7
 10
290.48672094018036
 20
40.848066489189705
 11
290.50745716140261
 21
40.847566604330723
  0
LINE
  8
_0-0_
  6
CONTINUOUS
 62
    7
 10
290.50745716140261
 20
40.847566604330723
 11
290.52816850036686
 21
40.847038328622375
  0
LINE
  8
_0-0_
  6
CONTINUOUS
 62
    7
 10
290.52816850036686
 20
40.847038328622375
 11
290.56951366266583
 21
40.845896781880356
  0
LINE
  8
_0-0_
  6
CONTINUOUS
 62
    7
 10
290.56951366266583
 20
40.845896781880356
 11
290.61075068926073
 21
40.844642201470151
  0
LINE
  8
_0-0_
  6
CONTINUOUS
 62
    7
 10
290.61075068926073
 20
40.844642201470151
 11
290.65187384195849
 21
40.843274937012893
  0
LINE
  8
_0-0_
  6
CONTINUOUS
 62
    7
 10
290.65187384195849
 20
40.843274937012893
 11
290.69287738195851
 21
40.841795335546294
  0
LINE
  8
_0-0_
  6
CONTINUOUS
 62
    7
 10
290.69287738195851
 20
40.841795335546294
 11
290.73375556971894
 21
40.84020374179795
  0
LINE
  8
_0-0_
  6
CONTINUOUS
 62
    7
 10
290.73375556971894
 20
40.84020374179795
 11
290.75414586268505
 21
40.839366054976153
  0
LINE
  8
_0-0_
  6
CONTINUOUS
 62
    7
 10
290.75414586268505
 20
40.839366054976153
 11
290.77450266490303
 21
40.838500498434541
  0
LINE
  8
_0-0_
  6
CONTINUOUS
 62
    7
 10
290.77450266490303
 20
40.838500498434541
 11
290.81511292640459
 21
40.836685946288753
  0
LINE
  8
_0-0_
  6
CONTINUOUS
 62
    7
 10
290.81511292640459
 20
40.836685946288753
 11
290.8555806124308
 21
40.83476042455618
  0
LINE
  8
_0-0_
  6
CONTINUOUS
 62
    7
 10
290.8555806124308
 20
40.83476042455618
 11
290.89589998062672
 21
40.832724270968583
  0
LINE
  8
_0-0_
  6
CONTINUOUS
 62
    7
 10
290.89589998062672
 20
40.832724270968583
 11
290.93606528823727
 21
40.830577821943962
  0
LINE
  8
_0-0_
  6
CONTINUOUS
 62
    7
 10
290.93606528823727
 20
40.830577821943962
 11
290.97607079229635
 21
40.8283214127066
  0
LINE
  8
_0-0_
  6
CONTINUOUS
 62
    7
 10
290.97607079229635
 20
40.8283214127066
 11
290.99601182330423
 21
40.827152077462188
  0
LINE
  8
_0-0_
  6
CONTINUOUS
 62
    7
 10
290.99601182330423
 20
40.827152077462188
 11
291.0159107498115
 21
40.825955377379842
  0
LINE
  8
_0-0_
  6
CONTINUOUS
 62
    7
 10
291.0159107498115
 20
40.825955377379842
 11
291.05557941795485
 21
40.823480049060663
  0
LINE
  8
_0-0_
  6
CONTINUOUS
 62
    7
 10
291.05557941795485
 20
40.823480049060663
 11
291.09507105423597
 21
40.820895759860605
  0
LINE
  8
_0-0_
  6
CONTINUOUS
 62
    7
 10
291.09507105423597
 20
40.820895759860605
 11
291.11474869102892
 21
40.81956285845331
  0
LINE
  8
_0-0_
  6
CONTINUOUS
 62
    7
 10
291.11474869102892
 20
40.81956285845331
 11
291.13437991664648
 21
40.818202840931235
  0
LINE
  8
_0-0_
  6
CONTINUOUS
 62
    7
 10
291.13437991664648
 20
40.818202840931235
 11
291.17350026376187
 21
40.815401622455056
  0
LINE
  8
_0-0_
  6
CONTINUOUS
 62
    7
 10
291.17350026376187
 20
40.815401622455056
 11
291.21242635480064
 21
40.812492433623675
  0
LINE
  8
_0-0_
  6
CONTINUOUS
 62
    7
 10
291.21242635480064
 20
40.812492433623675
 11
291.23181476047046
 21
40.81099745291408
  0
LINE
  8
_0-0_
  6
CONTINUOUS
 62
    7
 10
291.23181476047046
 20
40.81099745291408
 11
291.25115244960978
 21
40.809475602586872
  0
LINE
  8
_0-0_
  6
CONTINUOUS
 62
    7
 10
291.25115244960978
 20
40.809475602586872
 11
291.28967280858922
 21
40.806351456384391
  0
LINE
  8
_0-0_
  6
CONTINUOUS
 62
    7
 10
291.28967280858922
 20
40.806351456384391
 11
291.32798169252271
 21
40.803120320855442
  0
LINE
  8
_0-0_
  6
CONTINUOUS
 62
    7
 10
291.32798169252271
 20
40.803120320855442
 11
291.36607336231953
 21
40.799782520532744
  0
LINE
  8
_0-0_
  6
CONTINUOUS
 62
    7
 10
291.36607336231953
 20
40.799782520532744
 11
291.40394207865245
 21
40.796338378516566
  0
LINE
  8
_0-0_
  6
CONTINUOUS
 62
    7
 10
291.40394207865245
 20
40.796338378516566
 11
291.44158210147941
 21
40.792788216331928
  0
LINE
  8
_0-0_
  6
CONTINUOUS
 62
    7
 10
291.44158210147941
 20
40.792788216331928
 11
291.46031455872469
 21
40.790973477686066
  0
LINE
  8
_0-0_
  6
CONTINUOUS
 62
    7
 10
291.46031455872469
 20
40.790973477686066
 11
291.47898768944412
 21
40.789132353778541
  0
LINE
  8
_0-0_
  6
CONTINUOUS
 62
    7
 10
291.47898768944412
 20
40.789132353778541
 11
291.51612668205905
 21
40.785373828515958
  0
LINE
  8
_0-0_
  6
CONTINUOUS
 62
    7
 10
291.51612668205905
 20
40.785373828515958
 11
291.55296619911076
 21
40.781516126905672
  0
LINE
  8
_0-0_
  6
CONTINUOUS
 62
    7
 10
291.55296619911076
 20
40.781516126905672
 11
291.58950183761351
 21
40.7775599964923
  0
LINE
  8
_0-0_
  6
CONTINUOUS
 62
    7
 10
291.58950183761351
 20
40.7775599964923
 11
291.62572919628144
 21
40.773506180570848
  0
LINE
  8
_0-0_
  6
CONTINUOUS
 62
    7
 10
291.62572919628144
 20
40.773506180570848
 11
291.66164386946036
 21
40.769355419242629
  0
LINE
  8
_0-0_
  6
CONTINUOUS
 62
    7
 10
291.66164386946036
 20
40.769355419242629
 11
291.67948257105888
 21
40.767243914561959
  0
LINE
  8
_0-0_
  6
CONTINUOUS
 62
    7
 10
291.67948257105888
 20
40.767243914561959
 11
291.69724144725603
 21
40.76510844983045
  0
LINE
  8
_0-0_
  6
CONTINUOUS
 62
    7
 10
291.69724144725603
 20
40.76510844983045
 11
291.73251751576151
 21
40.760766007264237
  0
LINE
  8
_0-0_
  6
CONTINUOUS
 62
    7
 10
291.73251751576151
 20
40.760766007264237
 11
291.76746765735732
 21
40.756328824439379
  0
LINE
  8
_0-0_
  6
CONTINUOUS
 62
    7
 10
291.76746765735732
 20
40.756328824439379
 11
291.80208745107154
 21
40.75179763254323
  0
LINE
  8
_0-0_
  6
CONTINUOUS
 62
    7
 10
291.80208745107154
 20
40.75179763254323
 11
291.83637247298918
 21
40.747173161351157
  0
LINE
  8
_0-0_
  6
CONTINUOUS
 62
    7
 10
291.83637247298918
 20
40.747173161351157
 11
291.87031829669957
 21
40.742456139499382
  0
LINE
  8
_0-0_
  6
CONTINUOUS
 62
    7
 10
291.87031829669957
 20
40.742456139499382
 11
291.887162625408
 21
40.740063149521347
  0
LINE
  8
_0-0_
  6
CONTINUOUS
 62
    7
 10
291.887162625408
 20
40.740063149521347
 11
291.90392049376931
 21
40.737647294719636
  0
LINE
  8
_0-0_
  6
CONTINUOUS
 62
    7
 10
291.90392049376931
 20
40.737647294719636
 11
291.93717463421797
 21
40.732747354054254
  0
LINE
  8
_0-0_
  6
CONTINUOUS
 62
    7
 10
291.93717463421797
 20
40.732747354054254
 11
291.9700762870001
 21
40.727757044039436
  0
LINE
  8
_0-0_
  6
CONTINUOUS
 62
    7
 10
291.9700762870001
 20
40.727757044039436
 11
292.0026210204727
 21
40.722677090859861
  0
LINE
  8
_0-0_
  6
CONTINUOUS
 62
    7
 10
292.0026210204727
 20
40.722677090859861
 11
292.03480440283363
 21
40.717508220485115
  0
LINE
  8
_0-0_
  6
CONTINUOUS
 62
    7
 10
292.03480440283363
 20
40.717508220485115
 11
292.06662200253629
 21
40.712251158771096
  0
LINE
  8
_0-0_
  6
CONTINUOUS
 62
    7
 10
292.06662200253629
 20
40.712251158771096
 11
292.08239224919032
 21
40.709589782981084
  0
LINE
  8
_0-0_
  6
CONTINUOUS
 62
    7
 10
292.08239224919032
 20
40.709589782981084
 11
292.09806938864438
 21
40.706906631543234
  0
LINE
  8
_0-0_
  6
CONTINUOUS
 62
    7
 10
292.09806938864438
 20
40.706906631543234
 11
292.12914213114652
 21
40.701475364660155
  0
LINE
  8
_0-0_
  6
CONTINUOUS
 62
    7
 10
292.12914213114652
 20
40.701475364660155
 11
292.15983580119007
 21
40.695958084048698
  0
LINE
  8
_0-0_
  6
CONTINUOUS
 62
    7
 10
292.15983580119007
 20
40.695958084048698
 11
292.19014597125476
 21
40.690355515723013
  0
LINE
  8
_0-0_
  6
CONTINUOUS
 62
    7
 10
292.19014597125476
 20
40.690355515723013
 11
292.2200682152328
 21
40.684668385786836
  0
LINE
  8
_0-0_
  6
CONTINUOUS
 62
    7
 10
292.2200682152328
 20
40.684668385786836
 11
292.24959810842427
 21
40.678897420415296
  0
LINE
  8
_0-0_
  6
CONTINUOUS
 62
    7
 10
292.24959810842427
 20
40.678897420415296
 11
292.26421454111676
 21
40.675980726382704
  0
LINE
  8
_0-0_
  6
CONTINUOUS
 62
    7
 10
292.26421454111676
 20
40.675980726382704
 11
292.27873122742983
 21
40.673043345823544
  0
LINE
  8
_0-0_
  6
CONTINUOUS
 62
    7
 10
292.27873122742983
 20
40.673043345823544
 11
292.30746314993701
 21
40.667106888221269
  0
LINE
  8
_0-0_
  6
CONTINUOUS
 62
    7
 10
292.30746314993701
 20
40.667106888221269
 11
292.33578945439911
 21
40.661088773756774
  0
LINE
  8
_0-0_
  6
CONTINUOUS
 62
    7
 10
292.33578945439911
 20
40.661088773756774
 11
292.34979911822973
 21
40.6580493220888
  0
LINE
  8
_0-0_
  6
CONTINUOUS
 62
    7
 10
292.34979911822973
 20
40.6580493220888
 11
292.36370571958321
 21
40.6549897284483
  0
LINE
  8
_0-0_
  6
CONTINUOUS
 62
    7
 10
292.36370571958321
 20
40.6549897284483
 11
292.39120726748968
 21
40.648810536563133
  0
LINE
  8
_0-0_
  6
CONTINUOUS
 62
    7
 10
292.39120726748968
 20
40.648810536563133
 11
292.41826875398635
 21
40.642556832188575
  0
LINE
  8
_0-0_
  6
CONTINUOUS
 62
    7
 10
292.41826875398635
 20
40.642556832188575
 11
292.43162847787096
 21
40.639403493750024
  0
LINE
  8
_0-0_
  6
CONTINUOUS
 62
    7
 10
292.43162847787096
 20
40.639403493750024
 11
292.44487375233473
 21
40.636232661977147
  0
LINE
  8
_0-0_
  6
CONTINUOUS
 62
    7
 10
292.44487375233473
 20
40.636232661977147
 11
292.47101964027968
 21
40.629839010306796
  0
LINE
  8
_0-0_
  6
CONTINUOUS
 62
    7
 10
292.47101964027968
 20
40.629839010306796
 11
292.49670378745157
 21
40.623376860093458
  0
LINE
  8
_0-0_
  6
CONTINUOUS
 62
    7
 10
292.49670378745157
 20
40.623376860093458
 11
292.52192355618115
 21
40.616847193141666
  0
LINE
  8
_0-0_
  6
CONTINUOUS
 62
    7
 10
292.52192355618115
 20
40.616847193141666
 11
292.54667630234087
 21
40.610250990474242
  0
LINE
  8
_0-0_
  6
CONTINUOUS
 62
    7
 10
292.54667630234087
 20
40.610250990474242
 11
292.57095937619704
 21
40.603589232616969
  0
LINE
  8
_0-0_
  6
CONTINUOUS
 62
    7
 10
292.57095937619704
 20
40.603589232616969
 11
292.58292395664319
 21
40.600234076837523
  0
LINE
  8
_0-0_
  6
CONTINUOUS
 62
    7
 10
292.58292395664319
 20
40.600234076837523
 11
292.5947701232493
 21
40.596862899866437
  0
LINE
  8
_0-0_
  6
CONTINUOUS
 62
    7
 10
292.5947701232493
 20
40.596862899866437
 11
292.61810588506285
 21
40.590072972520147
  0
LINE
  8
_0-0_
  6
CONTINUOUS
 62
    7
 10
292.61810588506285
 20
40.590072972520147
 11
292.640964000076
 21
40.583220431079781
  0
LINE
  8
_0-0_
  6
CONTINUOUS
 62
    7
 10
292.640964000076
 20
40.583220431079781
 11
292.66334180436513
 21
40.576306256433554
  0
LINE
  8
_0-0_
  6
CONTINUOUS
 62
    7
 10
292.66334180436513
 20
40.576306256433554
 11
292.68523663237227
 21
40.569331430001284
  0
LINE
  8
_0-0_
  6
CONTINUOUS
 62
    7
 10
292.68523663237227
 20
40.569331430001284
 11
292.7066458175799
 21
40.562296933869447
  0
LINE
  8
_0-0_
  6
CONTINUOUS
 62
    7
 10
292.7066458175799
 20
40.562296933869447
 11
292.71716746073378
 21
40.558757616775665
  0
LINE
  8
_0-0_
  6
CONTINUOUS
 62
    7
 10
292.71716746073378
 20
40.558757616775665
 11
292.727566693114
 21
40.555203750892588
  0
LINE
  8
_0-0_
  6
CONTINUOUS
 62
    7
 10
292.727566693114
 20
40.555203750892588
 11
292.7479965922879
 21
40.548052864779265
  0
LINE
  8
_0-0_
  6
CONTINUOUS
 62
    7
 10
292.7479965922879
 20
40.548052864779265
 11
292.76793284906432
 21
40.540845260158449
  0
LINE
  8
_0-0_
  6
CONTINUOUS
 62
    7
 10
292.76793284906432
 20
40.540845260158449
 11
292.7873727984246
 21
40.533581922625444
  0
LINE
  8
_0-0_
  6
CONTINUOUS
 62
    7
 10
292.7873727984246
 20
40.533581922625444
 11
292.80631377666703
 21
40.52626383877373
  0
LINE
  8
_0-0_
  6
CONTINUOUS
 62
    7
 10
292.80631377666703
 20
40.52626383877373
 11
292.82475312158147
 21
40.518891996212687
  0
LINE
  8
_0-0_
  6
CONTINUOUS
 62
    7
 10
292.82475312158147
 20
40.518891996212687
 11
292.83378385003414
 21
40.515186224323998
  0
LINE
  8
_0-0_
  6
CONTINUOUS
 62
    7
 10
292.83378385003414
 20
40.515186224323998
 11
292.84268817254667
 21
40.511467383574882
  0
LINE
  8
_0-0_
  6
CONTINUOUS
 62
    7
 10
292.84268817254667
 20
40.511467383574882
 11
292.86011627050391
 21
40.503990990506054
  0
LINE
  8
_0-0_
  6
CONTINUOUS
 62
    7
 10
292.86011627050391
 20
40.503990990506054
 11
292.87703475782325
 21
40.496463807656028
  0
LINE
  8
_0-0_
  6
CONTINUOUS
 62
    7
 10
292.87703475782325
 20
40.496463807656028
 11
292.89344097805895
 21
40.488886826656426
  0
LINE
  8
_0-0_
  6
CONTINUOUS
 62
    7
 10
292.89344097805895
 20
40.488886826656426
 11
292.90933227557741
 21
40.48126104009566
  0
LINE
  8
_0-0_
  6
CONTINUOUS
 62
    7
 10
292.90933227557741
 20
40.48126104009566
 11
292.92470599507521
 21
40.473587441493464
  0
LINE
  8
_0-0_
  6
CONTINUOUS
 62
    7
 10
292.92470599507521
 20
40.473587441493464
 11
292.93219793322385
 21
40.469733023399158
  0
LINE
  8
_0-0_
  6
CONTINUOUS
 62
    7
 10
292.93219793322385
 20
40.469733023399158
 11
292.9395594809597
 21
40.465867025271791
  0
LINE
  8
_0-0_
  6
CONTINUOUS
 62
    7
 10
292.9395594809597
 20
40.465867025271791
 11
292.95388228878744
 21
40.45810509836906
  0
LINE
  8
_0-0_
  6
CONTINUOUS
 62
    7
 10
292.95388228878744
 20
40.45810509836906
 11
292.96766512128613
 21
40.450307076268246
  0
LINE
  8
_0-0_
  6
CONTINUOUS
 62
    7
 10
292.96766512128613
 20
40.450307076268246
 11
292.98090712703413
 21
40.442474069283662
  0
LINE
  8
_0-0_
  6
CONTINUOUS
 62
    7
 10
292.98090712703413
 20
40.442474069283662
 11
292.99360744738021
 21
40.434607188271229
  0
LINE
  8
_0-0_
  6
CONTINUOUS
 62
    7
 10
292.99360744738021
 20
40.434607188271229
 11
293.00576521755772
 21
40.42670754483629
  0
LINE
  8
_0-0_
  6
CONTINUOUS
 62
    7
 10
293.00576521755772
 20
40.42670754483629
 11
293.01164037469277
 21
40.422745784835797
  0
LINE
  8
_0-0_
  6
CONTINUOUS
 62
    7
 10
293.01164037469277
 20
40.422745784835797
 11
293.01737956778231
 21
40.418776251507779
  0
LINE
  8
_0-0_
  6
CONTINUOUS
 62
    7
 10
293.01737956778231
 20
40.418776251507779
 11
293.02844962427878
 21
40.410814421881014
  0
LINE
  8
_0-0_
  6
CONTINUOUS
 62
    7
 10
293.02844962427878
 20
40.410814421881014
 11
293.03897451024329
 21
40.402823170736838
  0
LINE
  8
_0-0_
  6
CONTINUOUS
 62
    7
 10
293.03897451024329
 20
40.402823170736838
 11
293.04403223966563
 21
40.398816860815032
  0
LINE
  8
_0-0_
  6
CONTINUOUS
 62
    7
 10
293.04403223966563
 20
40.398816860815032
 11
293.04895334672381
 21
40.394803614146213
  0
LINE
  8
_0-0_
  6
CONTINUOUS
 62
    7
 10
293.04895334672381
 20
40.394803614146213
 11
293.05838525341676
 21
40.386756869545252
  0
LINE
  8
_0-0_
  6
CONTINUOUS
 62
    7
 10
293.05838525341676
 20
40.386756869545252
 11
293.06726934937922
 21
40.378684055803433
  0
LINE
  8
_0-0_
  6
CONTINUOUS
 62
    7
 10
293.06726934937922
 20
40.378684055803433
 11
293.07150569301973
 21
40.374638223052671
  0
LINE
  8
_0-0_
  6
CONTINUOUS
 62
    7
 10
293.07150569301973
 20
40.374638223052671
 11
293.07560475364187
 21
40.370586293263614
  0
LINE
  8
_0-0_
  6
CONTINUOUS
 62
    7
 10
293.07560475364187
 20
40.370586293263614
 11
293.08339058572926
 21
40.362464703780233
  0
LINE
  8
_0-0_
  6
CONTINUOUS
 62
    7
 10
293.08339058572926
 20
40.362464703780233
 11
293.09062596606998
 21
40.354320410733862
  0
LINE
  8
_0-0_
  6
CONTINUOUS
 62
    7
 10
293.09062596606998
 20
40.354320410733862
 11
293.09731001630769
 21
40.346154539045756
  0
LINE
  8
_0-0_
  6
CONTINUOUS
 62
    7
 10
293.09731001630769
 20
40.346154539045756
 11
293.10344185949941
 21
40.337968215174669
  0
LINE
  8
_0-0_
  6
CONTINUOUS
 62
    7
 10
293.10344185949941
 20
40.337968215174669
 11
293.1090206202083
 21
40.329762567117314
  0
LINE
  8
_0-0_
  6
CONTINUOUS
 62
    7
 10
293.1090206202083
 20
40.329762567117314
 11
293.11160232146301
 21
40.325652849435073
  0
LINE
  8
_0-0_
  6
CONTINUOUS
 62
    7
 10
293.11160232146301
 20
40.325652849435073
 11
293.11404542447087
 21
40.321538724395623
  0
LINE
  8
_0-0_
  6
CONTINUOUS
 62
    7
 10
293.11404542447087
 20
40.321538724395623
 11
293.11851539967063
 21
40.31329781804402
  0
LINE
  8
_0-0_
  6
CONTINUOUS
 62
    7
 10
293.11851539967063
 20
40.31329781804402
 11
293.12242967426971
 21
40.305040980605327
  0
LINE
  8
_0-0_
  6
CONTINUOUS
 62
    7
 10
293.12242967426971
 20
40.305040980605327
 11
293.12578737745423
 21
40.296769346111205
  0
LINE
  8
_0-0_
  6
CONTINUOUS
 62
    7
 10
293.12578737745423
 20
40.296769346111205
 11
293.1285876386404
 21
40.288484050086709
  0
LINE
  8
_0-0_
  6
CONTINUOUS
 62
    7
 10
293.1285876386404
 20
40.288484050086709
 11
293.13082958688062
 21
40.280186229543006
  0
LINE
  8
_0-0_
  6
CONTINUOUS
 62
    7
 10
293.13082958688062
 20
40.280186229543006
 11
293.13174092120369
 21
40.27603297830251
  0
LINE
  8
_0-0_
  6
CONTINUOUS
 62
    7
 10
293.13174092120369
 20
40.27603297830251
 11
293.13251235015593
 21
40.27187702299193
  0
LINE
  8
_0-0_
  6
CONTINUOUS
 62
    7
 10
293.13251235015593
 20
40.27187702299193
 11
293.13363505454561
 21
40.263557570462808
  0
LINE
  8
_0-0_
  6
CONTINUOUS
 62
    7
 10
293.13363505454561
 20
40.263557570462808
 11
293.13419682330948
 21
40.255229013531562
  0
LINE
  8
_0-0_
  6
CONTINUOUS
 62
    7
 10
293.13419682330948
 20
40.255229013531562
 11
293.13426708182249
 21
40.251061834886741
  0
LINE
  8
_0-1_
  6
DASHED2
 62
  152
 10
21.462758199246423
 20
28.371044024928551
 11
18.01275819924615
 21
31.821044024928824
  0
LINE
  8
_0-1_
  6
CENTER1
 62
  152
 10
146.0127581992457
 20
108.06074757433635
 11
146.0127581992457
 21
131.86073890329862
  0
LINE
  8
_0-1_
  6
CENTER1
 62
  152
 10
156.01275819924479
 20
119.96074323881749
 11
14.01275819924706
 21
119.96074323881749
  0
LINE
  8
_0-1_
  6
CENTER1
 62
  152
 10
24.012758199245695
 20
108.06074757433635
 11
24.012758199245695
 21
131.86073890329862
  0
LINE
  8
_0-1_
  6
CENTER1
 62
  152
 10
85.01275819924615
 20
106.96074323881703
 11
85.01275819924615
 21
132.96074323881703
  0
LINE
  8
_0-1_
  6
CENTER1
 62
  152
 10
146.0127581992457
 20
19.821044024929279
 11
146.0127581992457
 21
57.612397091881348
  0
LINE
  8
_0-1_
  6
DASHED2
 62
  152
 10
16.950357757470215
 20
35.821044024928824
 11
16.950357757470215
 21
36.033419204464053
  0
LINE
  8
_0-1_
  6
CENTER1
 62
  152
 10
85.01275819924615
 20
19.821044024929279
 11
85.01275819924615
 21
69.821044024928824
  0
ARC
  8
_0-1_
  6
DASHED2
 62
  152
 10
72.330758199242723
 20
17.185044024930221
 40
58.49999999999627
 50
134.58906059343317
 51
161.20431220027356
  0
LINE
  8
_0-1_
  6
DASHED2
 62
  152
 10
16.9382910795199
 20
35.997927546336769
 11
16.950357757470215
 21
36.033419204464053
  0
LINE
  8
_0-1_
  6
DASHED2
 62
  152
 10
16.914272382042896
 20
35.927058315601471
 11
16.9382910795199
 21
35.997927546336769
  0
LINE
  8
_0-1_
  6
DASHED2
 62
  152
 10
16.890406560433007
 20
35.856343127153423
 11
16.914272382042896
 21
35.927058315601471
  0
LINE
  8
_0-1_
  6
DASHED2
 62
  152
 10
16.878530976167099
 20
35.821044024928824
 11
16.890406560433007
 21
35.856343127153423
  0
LINE
  8
_0-1_
  6
DASHED2
 62
  152
 10
16.872541766682048
 20
35.803213379592535
 11
16.878530976167099
 21
35.821044024928824
  0
LINE
  8
_0-1_
  6
DASHED2
 62
  152
 10
16.860937704827961
 20
35.768612420612271
 11
16.872541766682048
 21
35.803213379592535
  0
LINE
  8
_0-1_
  6
DASHED2
 62
  152
 10
16.849860096504131
 20
35.735514253823794
 11
16.860937704827961
 21
35.768612420612271
  0
LINE
  8
_0-1_
  6
DASHED2
 62
  152
 10
16.844528571111482
 20
35.719561058127283
 11
16.849860096504131
 21
35.735514253823794
  0
LINE
  8
_0-1_
  6
DASHED2
 62
  152
 10
16.839340266159638
 20
35.704021744433476
 11
16.844528571111482
 21
35.719561058127283
  0
LINE
  8
_0-1_
  6
DASHED2
 62
  152
 10
16.82940751257604
 20
35.674231999399353
 11
16.839340266159638
 21
35.704021744433476
  0
LINE
  8
_0-1_
  6
DASHED2
 62
  152
 10
16.820086768400074
 20
35.646229179101056
 11
16.82940751257604
 21
35.674231999399353
  0
LINE
  8
_0-1_
  6
DASHED2
 62
  152
 10
16.811403549792999
 20
35.62009920000969
 11
16.820086768400074
 21
35.646229179101056
  0
LINE
  8
_0-1_
  6
DASHED2
 62
  152
 10
16.803382301754141
 20
35.595924664881977
 11
16.811403549792999
 21
35.62009920000969
  0
LINE
  8
_0-1_
  6
DASHED2
 62
  152
 10
16.796044953534079
 20
35.57378037946296
 11
16.803382301754141
 21
35.595924664881977
  0
LINE
  8
_0-1_
  6
DASHED2
 62
  152
 10
16.792638826105417
 20
35.563490545099057
 11
16.796044953534079
 21
35.57378037946296
  0
LINE
  8
_0-1_
  6
DASHED2
 62
  152
 10
16.789410593615344
 20
35.553732223884936
 11
16.792638826105417
 21
35.563490545099057
  0
LINE
  8
_0-1_
  6
DASHED2
 62
  152
 10
16.783495185524885
 20
35.535836151824469
 11
16.789410593615344
 21
35.553732223884936
  0
LINE
  8
_0-1_
  6
DASHED2
 62
  152
 10
16.778311343763676
 20
35.520137380806545
 11
16.783495185524885
 21
35.535836151824469
  0
LINE
  8
_0-1_
  6
DASHED2
 62
  152
 10
16.773868257355048
 20
35.50667004405318
 11
16.778311343763676
 21
35.520137380806545
  0
LINE
  8
_0-1_
  6
DASHED2
 62
  152
 10
16.770171870771833
 20
35.495457642216252
 11
16.773868257355048
 21
35.50667004405318
  0
LINE
  8
_0-1_
  6
DASHED2
 62
  152
 10
16.767224728497808
 20
35.486512497295053
 11
16.770171870771833
 21
35.495457642216252
  0
LINE
  8
_0-1_
  6
DASHED2
 62
  152
 10
16.766031913706797
 20
35.482890696411459
 11
16.767224728497808
 21
35.486512497295053
  0
LINE
  8
_0-1_
  6
DASHED2
 62
  152
 10
16.765025676333266
 20
35.479834791485018
 11
16.766031913706797
 21
35.482890696411459
  0
LINE
  8
_0-1_
  6
DASHED2
 62
  152
 10
16.763569676057273
 20
35.475411971701988
 11
16.765025676333266
 21
35.479834791485018
  0
LINE
  8
_0-1_
  6
DASHED2
 62
  152
 10
16.76275819924615
 20
35.472946474362516
 11
16.763569676057273
 21
35.475411971701988
  0
LINE
  8
_0-1_
  6
DASHED2
 62
  152
 10
16.763569676057273
 20
35.475411971701988
 11
16.76275819924615
 21
35.472946474362516
  0
LINE
  8
_0-1_
  6
DASHED2
 62
  152
 10
16.765025676333266
 20
35.479834791485018
 11
16.763569676057273
 21
35.475411971701988
  0
LINE
  8
_0-1_
  6
DASHED2
 62
  152
 10
16.766031913706797
 20
35.482890696411459
 11
16.765025676333266
 21
35.479834791485018
  0
LINE
  8
_0-1_
  6
DASHED2
 62
  152
 10
16.767224728497808
 20
35.486512497295053
 11
16.766031913706797
 21
35.482890696411459
  0
LINE
  8
_0-1_
  6
DASHED2
 62
  152
 10
16.770171870771833
 20
35.495457642216252
 11
16.767224728497808
 21
35.486512497295053
  0
LINE
  8
_0-1_
  6
DASHED2
 62
  152
 10
16.773868257355048
 20
35.50667004405318
 11
16.770171870771833
 21
35.495457642216252
  0
LINE
  8
_0-1_
  6
DASHED2
 62
  152
 10
16.778311343763676
 20
35.520137380806545
 11
16.773868257355048
 21
35.50667004405318
  0
LINE
  8
_0-1_
  6
DASHED2
 62
  152
 10
16.783495185524885
 20
35.535836151824469
 11
16.778311343763676
 21
35.520137380806545
  0
LINE
  8
_0-1_
  6
DASHED2
 62
  152
 10
16.789410593615344
 20
35.553732223884026
 11
16.783495185524885
 21
35.535836151824469
  0
LINE
  8
_0-1_
  6
DASHED2
 62
  152
 10
16.792638826105417
 20
35.563490545099057
 11
16.789410593615344
 21
35.553732223884026
  0
LINE
  8
_0-1_
  6
DASHED2
 62
  152
 10
16.796044953534079
 20
35.57378037946296
 11
16.792638826105417
 21
35.563490545099057
  0
LINE
  8
_0-1_
  6
DASHED2
 62
  152
 10
16.803382301754141
 20
35.595924664881977
 11
16.796044953534079
 21
35.57378037946296
  0
LINE
  8
_0-1_
  6
DASHED2
 62
  152
 10
16.811403549792999
 20
35.62009920000969
 11
16.803382301754141
 21
35.595924664881977
  0
LINE
  8
_0-1_
  6
DASHED2
 62
  152
 10
16.820086768400074
 20
35.646229179101056
 11
16.811403549792999
 21
35.62009920000969
  0
LINE
  8
_0-1_
  6
DASHED2
 62
  152
 10
16.82940751257604
 20
35.674231999399353
 11
16.820086768400074
 21
35.646229179101056
  0
LINE
  8
_0-1_
  6
DASHED2
 62
  152
 10
16.839340266159638
 20
35.704021744433476
 11
16.82940751257604
 21
35.674231999399353
  0
LINE
  8
_0-1_
  6
DASHED2
 62
  152
 10
16.844528571111482
 20
35.719561058127283
 11
16.839340266159638
 21
35.704021744433476
  0
LINE
  8
_0-1_
  6
DASHED2
 62
  152
 10
16.849860096504131
 20
35.735514253823794
 11
16.844528571111482
 21
35.719561058127283
  0
LINE
  8
_0-1_
  6
DASHED2
 62
  152
 10
16.860937704827961
 20
35.768612420612271
 11
16.849860096504131
 21
35.735514253823794
  0
LINE
  8
_0-1_
  6
DASHED2
 62
  152
 10
16.872541766682048
 20
35.803213379592535
 11
16.860937704827961
 21
35.768612420612271
  0
LINE
  8
_0-1_
  6
DASHED2
 62
  152
 10
16.878530976167099
 20
35.821044024928824
 11
16.872541766682048
 21
35.803213379592535
  0
LINE
  8
_0-1_
  6
DASHED2
 62
  152
 10
16.890406555763661
 20
35.856343113289995
 11
16.878530976167099
 21
35.821044024928824
  0
LINE
  8
_0-1_
  6
DASHED2
 62
  152
 10
16.914272377956991
 20
35.927058303518379
 11
16.890406555763661
 21
35.856343113289995
  0
LINE
  8
_0-1_
  6
DASHED2
 62
  152
 10
16.93829107967133
 20
35.997927546781966
 11
16.914272377956991
 21
35.927058303518379
  0
LINE
  8
_0-1_
  6
DASHED2
 62
  152
 10
16.950357757470215
 20
36.033419204464053
 11
16.93829107967133
 21
35.997927546781966
  0
LINE
  8
_0-1_
  6
CENTER1
 62
  152
 10
24.01275819924615
 20
57.612397091881348
 11
24.01275819924615
 21
9.880169493975643
  0
LINE
  8
_0-1_
  6
DASHED2
 62
  152
 10
31.262758199245695
 20
64.959716980376697
 11
31.262758199245695
 21
31.821044024928824
  0
LINE
  8
_0-1_
  6
DASHED2
 62
  152
 10
31.262758199245695
 20
31.821044024928824
 11
16.76275819924615
 21
31.821044024928824
  0
LINE
  8
_0-1_
  6
DASHED2
 62
  152
 10
16.76275819924615
 20
31.821044024928824
 11
16.76275819924615
 21
46.870012881237244
  0
LINE
  8
_0-1_
  6
DASHED2
 62
  152
 10
26.562758199245877
 20
28.371044024928551
 11
30.01275819924615
 21
31.821044024928824
  0
LINE
  8
_0-1_
  6
DASHED2
 62
  152
 10
21.462758199246423
 20
19.821044024929279
 11
21.462758199246423
 21
28.371044024928551
  0
LINE
  8
_0-1_
  6
DASHED2
 62
  152
 10
26.562758199245877
 20
28.371044024928551
 11
26.562758199245877
 21
19.821044024929279
  0
LINE
  8
_0-1_
  6
DASHED2
 62
  152
 10
225.24942033278001
 20
31.821044024928824
 11
210.74942033278046
 21
31.821044024928824
  0
LINE
  8
_0-1_
  6
DASHED2
 62
  152
 10
215.44942033278073
 20
28.371044024928551
 11
211.99942033278046
 21
31.821044024928824
  0
LINE
  8
_0-1_
  6
DASHED2
 62
  152
 10
220.54942033278019
 20
28.371044024928551
 11
223.99942033278046
 21
31.821044024928824
  0
LINE
  8
_0-1_
  6
DASHED2
 62
  152
 10
215.44942033278073
 20
27.671044013958976
 11
220.54942033278019
 21
27.671044013958976
  0
LINE
  8
_0-1_
  6
DASHED2
 62
  152
 10
217.99942033278046
 20
31.121044013959249
 11
218.70652711396713
 21
30.413937232772582
  0
LINE
  8
_0-1_
  6
DASHED2
 62
  152
 10
217.99942033278046
 20
31.121044013959249
 11
217.29231355159379
 21
30.413937232772582
  0
LINE
  8
_0-1_
  6
DASHED2
 62
  152
 10
212.99942033278046
 20
31.121044013959249
 11
212.99942033278046
 21
30.82104400203832
  0
LINE
  8
_0-1_
  6
DASHED2
 62
  152
 10
212.99942033278046
 20
30.82104400203832
 11
222.99942033278046
 21
30.82104400203832
  0
LINE
  8
_0-1_
  6
DASHED2
 62
  152
 10
222.99942033278046
 20
31.121044013959249
 11
222.99942033278046
 21
30.82104400203832
  0
LINE
  8
_0-1_
  6
DASHED2
 62
  152
 10
220.49942033278046
 20
28.321044061642965
 11
215.49942033278046
 21
28.321044061642965
  0
LINE
  8
_0-1_
  6
DASHED2
 62
  152
 10
212.99942033278046
 20
31.121044013938331
 11
222.99942033278046
 21
31.121044013938331
  0
LINE
  8
_0-1_
  6
DASHED2
 62
  152
 10
220.49942033278046
 20
11.471044395408057
 11
215.49942033278046
 21
11.471044395408057
  0
LINE
  8
_0-1_
  6
DASHED2
 62
  152
 10
215.84942023741303
 20
28.321044061642965
 11
215.84942023741303
 21
11.121044013938331
  0
LINE
  8
_0-1_
  6
DASHED2
 62
  152
 10
220.14942042814789
 20
28.321044061642965
 11
220.14942042814789
 21
11.121044013938331
  0
LINE
  8
_0-1_
  6
DASHED2
 62
  152
 10
215.84942023741303
 20
11.121044013938331
 11
215.49942033278046
 21
11.471044395408057
  0
LINE
  8
_0-1_
  6
DASHED2
 62
  152
 10
220.14942042814789
 20
11.121044013938331
 11
220.49942033278046
 21
11.471044395408057
  0
LINE
  8
_0-1_
  6
DASHED2
 62
  152
 10
215.84942023741303
 20
11.121044013938331
 11
220.14942042814789
 21
11.121044013938331
  0
LINE
  8
_0-1_
  6
DASHED2
 62
  152
 10
215.49942033278046
 20
28.321044061642965
 11
215.49942033278046
 21
11.471044395408057
  0
LINE
  8
_0-1_
  6
DASHED2
 62
  152
 10
220.49942033278046
 20
28.321044061642965
 11
220.49942033278046
 21
11.471044395408057
  0
LINE
  8
_0-1_
  6
DASHED2
 62
  152
 10
215.44942033278073
 20
19.821044024929279
 11
215.44942033278073
 21
28.371044024928551
  0
LINE
  8
_0-1_
  6
DASHED2
 62
  152
 10
220.54942033278019
 20
28.371044024928551
 11
220.54942033278019
 21
19.821044024929279
  0
LINE
  8
_0-1_
  6
DASHED2
 62
  152
 10
223.08682887239195
 20
16.22104412031581
 11
222.82439818330624
 21
19.221032546523702
  0
LINE
  8
_0-1_
  6
DASHED2
 62
  152
 10
221.49929082956089
 20
12.621021139322465
 11
224.67813581108078
 21
14.45628610449171
  0
LINE
  8
_0-1_
  6
DASHED2
 62
  152
 10
224.99937430470584
 20
16.22104412031581
 11
223.08682887239195
 21
16.22104412031581
  0
LINE
  8
_0-1_
  6
DASHED2
 62
  152
 10
224.67813581108078
 20
14.45628610449171
 11
224.99937430470584
 21
16.22104412031581
  0
LINE
  8
_0-1_
  6
DASHED2
 62
  152
 10
212.911938524947
 20
16.22104412031581
 11
213.17444248229287
 21
19.221065694101299
  0
LINE
  8
_0-1_
  6
DASHED2
 62
  152
 10
214.4995379798512
 20
12.621021139322465
 11
211.32069299833131
 21
14.45628610449171
  0
LINE
  8
_0-1_
  6
DASHED2
 62
  152
 10
210.99945450470625
 20
16.22104412031581
 11
212.91199993702014
 21
16.22104412031581
  0
LINE
  8
_0-1_
  6
DASHED2
 62
  152
 10
211.32069299833131
 20
14.45628610449171
 11
210.99945450470625
 21
16.22104412031581
  0
LINE
  8
_0-1_
  6
DASHED2
 62
  152
 10
222.82439818330624
 20
19.221032546523702
 11
220.49942033278046
 21
19.221040532817767
  0
LINE
  8
_0-1_
  6
DASHED2
 62
  152
 10
215.49942033278046
 20
19.221057707807233
 11
213.17444248229287
 21
19.221065694101299
  0
LINE
  8
_0-1_
  6
DASHED2
 62
  152
 10
214.49945603382105
 20
12.621047101464455
 11
215.49942033278046
 21
12.621043392631918
  0
LINE
  8
_0-1_
  6
DASHED2
 62
  152
 10
220.49942033278046
 20
12.621024847807121
 11
221.49929082956089
 21
12.621021139322465
  0
LINE
  8
_0-1_
  6
DASHED2
 62
  152
 10
210.01634526223449
 20
53.155636471529078
 11
210.74942033278046
 21
31.821044024928824
  0
LINE
  8
_0-1_
  6
DASHED2
 62
  152
 10
225.24942033278001
 20
31.821044024928824
 11
225.98249540332642
 21
53.155636471529078
  0
LINE
  8
_0-1_
  6
CENTER1
 62
  152
 10
279.97163031687921
 20
19.821044024929279
 11
279.97163031687921
 21
69.821044024929279
  0
LINE
  8
_0-1_
  6
DASHED2
 62
  152
 10
271.98855524633325
 20
53.155636471529078
 11
272.72163031687921
 21
31.821044024928824
  0
LINE
  8
_0-1_
  6
DASHED2
 62
  152
 10
287.22163031687876
 20
31.821044024928824
 11
287.95470538742518
 21
53.155636471529078
  0
LINE
  8
_0-1_
  6
CENTER1
 62
  152
 10
217.99942033278046
 20
9.8321341799860988
 11
217.99942033278046
 21
69.821044024929279
  0
LINE
  8
_0-1_
  6
DASHED2
 62
  152
 10
287.13584245928575
 20
31.821044024928824
 11
272.63584245928621
 21
31.821044024928824
  0
LINE
  8
_0-1_
  6
DASHED2
 62
  152
 10
277.33584245928648
 20
28.371044024928551
 11
273.88584245928621
 21
31.821044024928824
  0
LINE
  8
_0-1_
  6
DASHED2
 62
  152
 10
282.43584245928594
 20
28.371044024928551
 11
285.88584245928621
 21
31.821044024928824
  0
LINE
  8
_0-1_
  6
DASHED2
 62
  152
 10
277.33584245928648
 20
27.671044013958976
 11
282.43584245928594
 21
27.671044013958976
  0
LINE
  8
_0-1_
  6
DASHED2
 62
  152
 10
279.88584245928621
 20
31.121044013959249
 11
280.59294924047288
 21
30.413937232772582
  0
LINE
  8
_0-1_
  6
DASHED2
 62
  152
 10
279.88584245928621
 20
31.121044013959249
 11
279.17873567809954
 21
30.413937232772582
  0
LINE
  8
_0-1_
  6
DASHED2
 62
  152
 10
274.88584245928621
 20
31.121044013959249
 11
274.88584245928621
 21
30.82104400203832
  0
LINE
  8
_0-1_
  6
DASHED2
 62
  152
 10
274.88584245928621
 20
30.82104400203832
 11
284.88584245928621
 21
30.82104400203832
  0
LINE
  8
_0-1_
  6
DASHED2
 62
  152
 10
284.88584245928621
 20
31.121044013959249
 11
284.88584245928621
 21
30.82104400203832
  0
LINE
  8
_0-1_
  6
DASHED2
 62
  152
 10
282.38584245928621
 20
28.321044061642965
 11
277.38584245928621
 21
28.321044061642965
  0
LINE
  8
_0-1_
  6
DASHED2
 62
  152
 10
274.88584245928621
 20
31.121044013938331
 11
284.88584245928621
 21
31.121044013938331
  0
LINE
  8
_0-1_
  6
DASHED2
 62
  152
 10
282.43584245928594
 20
28.371044024928551
 11
282.43584245928594
 21
19.821044024929279
  0
LINE
  8
_0-1_
  6
DASHED2
 62
  152
 10
277.33584245928648
 20
19.821044024929279
 11
277.33584245928648
 21
28.371044024928551
  0
LINE
  8
_0-1_
  6
DASHED2
 62
  152
 10
282.38584245928621
 20
16.471044395408057
 11
277.38584245928621
 21
16.471044395408057
  0
LINE
  8
_0-1_
  6
DASHED2
 62
  152
 10
277.73584236391878
 20
16.121044013938331
 11
277.38584245928621
 21
16.471044395408057
  0
LINE
  8
_0-1_
  6
DASHED2
 62
  152
 10
282.03584255465364
 20
16.121044013938331
 11
282.38584245928621
 21
16.471044395408057
  0
LINE
  8
_0-1_
  6
DASHED2
 62
  152
 10
277.73584236391878
 20
16.121044013938331
 11
282.03584255465364
 21
16.121044013938331
  0
LINE
  8
_0-1_
  6
DASHED2
 62
  152
 10
276.73079145928602
 20
15.159644024929264
 11
277.60445545928621
 21
14.841654024929483
  0
LINE
  8
_0-1_
  6
DASHED2
 62
  152
 10
278.28849545928631
 20
14.721044024929313
 11
281.48318845928623
 21
14.721044024929313
  0
LINE
  8
_0-1_
  6
DASHED2
 62
  152
 10
282.16722845928632
 20
14.841654024929483
 11
283.04089245928606
 21
15.159644024929264
  0
ARC
  8
_0-1_
  6
DASHED2
 62
  152
 10
278.28849545928631
 20
16.721044024929313
 40
2
 50
249.99999999999997
 51
270
  0
ARC
  8
_0-1_
  6
DASHED2
 62
  152
 10
281.48318845928623
 20
16.721044024929313
 40
2
 50
270
 51
290
  0
ARC
  8
_0-1_
  6
DASHED2
 62
  152
 10
277.58584245928603
 20
17.508874024929526
 40
2.5
 50
168.17822799457861
 51
250.00000000000003
  0
LINE
  8
_0-1_
  6
DASHED2
 62
  152
 10
276.31430455249381
 20
18.021044024929495
 11
275.13886843181865
 21
18.021044024929495
  0
ARC
  8
_0-1_
  6
DASHED2
 62
  152
 10
282.18584245928594
 20
17.508874024929526
 40
2.5
 50
290
 51
11.821772005421535
  0
LINE
  8
_0-1_
  6
DASHED2
 62
  152
 10
284.63281648675331
 20
18.021044024929495
 11
283.45737936607821
 21
18.021044024929495
  0
LINE
  8
_0-1_
  6
DASHED2
 62
  152
 10
283.1358435524939
 20
19.221044024929313
 11
283.45737936607821
 21
18.021044024929495
  0
LINE
  8
_0-1_
  6
DASHED2
 62
  152
 10
276.31430455249381
 20
18.021044024929495
 11
276.63584036607824
 21
19.221044024929313
  0
LINE
  8
_0-1_
  6
DASHED2
 62
  152
 10
283.1358435524939
 20
19.221044024929313
 11
282.38584245928621
 21
19.221044024929313
  0
LINE
  8
_0-1_
  6
DASHED2
 62
  152
 10
277.38584245928621
 20
19.221044024929313
 11
276.63584036607824
 21
19.221044024929313
  0
LINE
  8
_0-1_
  6
DASHED2
 62
  152
 10
277.38584245928621
 20
28.321044061642965
 11
277.38584245928621
 21
14.921223227586268
  0
LINE
  8
_0-1_
  6
DASHED2
 62
  152
 10
277.73584236391878
 20
28.321044061642965
 11
277.73584236391878
 21
14.798916413093764
  0
LINE
  8
_0-1_
  6
DASHED2
 62
  152
 10
282.03584255465364
 20
28.321044061642965
 11
282.03584255465364
 21
14.798916700615564
  0
LINE
  8
_0-1_
  6
DASHED2
 62
  152
 10
282.38584245928621
 20
28.321044061642965
 11
282.38584245928621
 21
14.921223591559169
  0
TEXT
  8
_0-1_
 62
    7
 10
202.7337698474264
 20
74.025244576301702
 40
4.2999999999999998
 41
0.744186046511628
 50
0
  1
HAPP
  0
TEXT
  8
_0-1_
 62
    7
 10
261.61501618381448
 20
74.025244576301702
 40
4.2999999999999998
 41
0.744186046511628
 50
0
  1
HAPP-NF25
  0
LINE
  8
_0-1_
  6
DASHED2
 62
  152
 10
21.462758199246423
 20
28.371044024928551
 11
26.562758199245877
 21
28.371044024928551
  0
ENDSEC
  0
EOF
