  0
SECTION
  2
HEADER
  9
$ACADVER
  1
AC1009
  9
$INSBASE
 10
0
 20
0
 30
0
  9
$EXTMIN
 10
0
 20
0
  9
$EXTMAX
 10
1189
 20
841
  9
$LIMMIN
 10
0
 20
0
  9
$LIMMAX
 10
1189
 20
841
  9
$LTSCALE
 40
1
  0
ENDSEC
  0
SECTION
  2
TABLES
  0
TABLE
  2
LTYPE
 70
     9
  0
LTYPE
  2
CONTINUOUS
 70
    64
  3
実線
 72
    65
 73
     0
 40
0.0
  0
LTYPE
  2
DASHED1
 70
    64
  3
--  --  --  --  --  --  --  --  
 72
    65
 73
     2
 40
2.5
 49
1.25
 49
-1.25
  0
LTYPE
  2
DASHED2
 70
    64
  3
----    ----    ----    ----    
 72
    65
 73
     2
 40
5.0
 49
2.5
 49
-2.5
  0
LTYPE
  2
DASHED3
 70
    64
  3
------  ------  ------  ------  
 72
    65
 73
     2
 40
5.0
 49
3.75
 49
-1.25
  0
LTYPE
  2
CENTER1
 70
    64
  3
----- - ----- - ----- - ----- - 
 72
    65
 73
     4
 40
10.0
 49
6.25
 49
-1.25
 49
1.25
 49
-1.25
  0
LTYPE
  2
CENTER2
 70
    64
  3
----------  --  ----------  --  
 72
    65
 73
     4
 40
20.0
 49
12.5
 49
-2.5
 49
2.5
 49
-2.5
  0
LTYPE
  2
PHANTOM1
 70
    64
  3
--- - - --- - - --- - - --- - - 
 72
    65
 73
     6
 40
10.0
 49
3.25
 49
-1.25
 49
1.25
 49
-1.25
 49
1.25
 49
-1.25
  0
LTYPE
  2
PHANTOM2
 70
    64
  3
--------  -  -  --------  -  -  
 72
    65
 73
     6
 40
20.0
 49
10.0
 49
-2.5
 49
1.25
 49
-2.5
 49
1.25
 49
-2.5
  0
LTYPE
  2
DOT
 70
    64
  3
-   -   -   -   -   -   -   -   
 72
    65
 73
     2
 40
2.5
 49
0.625
 49
-1.875
  0
LTYPE
  2
DUMMY
 70
    64
  3
ダミー
 72
    65
 73
     0
 40
0.0
  0
LTYPE
  2
RAND1
 70
    64
  3
ランダム線1
 72
    65
 73
     4
 40
10.0
 49
1.0
 49
-2.0
 49
3.0
 49
-4.0
  0
LTYPE
  2
RAND2
 70
    64
  3
ランダム線2
 72
    65
 73
     4
 40
14.0
 49
2.0
 49
-3.0
 49
4.0
 49
-5.0
  0
LTYPE
  2
RAND3
 70
    64
  3
ランダム線3
 72
    65
 73
     4
 40
18.0
 49
3.0
 49
-4.0
 49
5.0
 49
-6.0
  0
LTYPE
  2
RAND4
 70
    64
  3
ランダム線4
 72
    65
 73
     4
 40
22.0
 49
4.0
 49
-5.0
 49
6.0
 49
-7.0
  0
LTYPE
  2
RAND5
 70
    64
  3
ランダム線5
 72
    65
 73
     4
 40
26.0
 49
5.0
 49
-6.0
 49
7.0
 49
-8.0
  0
LTYPE
  2
LONG1
 70
    64
  3
----------  --  ----------  --  
 72
    65
 73
     4
 40
40.0
 49
32.5
 49
-2.5
 49
2.5
 49
-2.5
  0
LTYPE
  2
LONG2
 70
    64
  3
--------  -  -  --------  -  -  
 72
    65
 73
     6
 40
40.0
 49
30.0
 49
-2.5
 49
1.25
 49
-2.5
 49
1.25
 49
-2.5
  0
LTYPE
  2
LONG3
 70
    64
  3
+++++++++++++++..+++++++++++++++
 72
    65
 73
     2
 40
40.0
 49
37.5
 49
-2.5
  0
LTYPE
  2
LONG4
 70
    64
  3
+++++++++++++++..+++++++++++++++
 72
    65
 73
     2
 40
80.0
 49
75.0
 49
-5.0
  0
LTYPE
  2
LONG5
 70
    64
  3
----------  --  ----------  --  
 72
    65
 73
     4
 40
60.0
 49
37.5
 49
-7.5
 49
7.5
 49
-7.5
  0
LTYPE
  2
dashed
 70
   64
  3
-------   -------------   ------
 72
   65
 73
    2
 40
7.5
 49
6
 49
-1.5
  0
LTYPE
  2
dashed_spaced
 70
   64
  3
----        --------        ----
 72
   65
 73
    2
 40
12
 49
6
 49
-6
  0
LTYPE
  2
long_dashed_dotted
 70
   64
  3
------------- --- --------------
 72
   65
 73
    4
 40
15.25
 49
12
 49
-1.5
 49
0.25
 49
-1.5
  0
LTYPE
  2
long_dashed_double-dotted
 70
   64
  3
----------- --- --- ------------
 72
   65
 73
    6
 40
17
 49
12
 49
-1.5
 49
0.25
 49
-1.5
 49
0.25
 49
-1.5
  0
LTYPE
  2
long_dashed_triplicate-dotted
 70
   64
  3
--------- --- --- --- ----------
 72
   65
 73
    8
 40
18.75
 49
12
 49
-1.5
 49
0.25
 49
-1.5
 49
0.25
 49
-1.5
 49
0.25
 49
-1.5
  0
LTYPE
  2
dotted
 70
   64
  3
   -       -       -       -    
 72
   65
 73
    2
 40
1.75
 49
0.25
 49
-1.5
  0
LTYPE
  2
chain
 70
   64
  3
-------------- -- --------------
 72
   65
 73
    4
 40
18.5
 49
12
 49
-1.5
 49
3.5
 49
-1.5
  0
LTYPE
  2
chain_double_dash
 70
   64
  3
------------ -- -- -------------
 72
   65
 73
    6
 40
23.5
 49
12
 49
-1.5
 49
3.5
 49
-1.5
 49
3.5
 49
-1.5
  0
LTYPE
  2
dashed_dotted
 70
   64
  3
-----------     -     ----------
 72
   65
 73
    4
 40
9.25
 49
6
 49
-1.5
 49
0.25
 49
-1.5
  0
LTYPE
  2
double-dashed_dotted
 70
   64
  3
------   -----------   -   -----
 72
   65
 73
    6
 40
16.75
 49
6
 49
-1.5
 49
6
 49
-1.5
 49
0.25
 49
-1.5
  0
LTYPE
  2
dashed_double-dotted
 70
   64
  3
---------    -    -    ---------
 72
   65
 73
    6
 40
11
 49
6
 49
-1.5
 49
0.25
 49
-1.5
 49
0.25
 49
-1.5
  0
LTYPE
  2
double-dashed_double-dotted
 70
   64
  3
-----   ---------   -   -   ----
 72
   65
 73
    8
 40
18.5
 49
6
 49
-1.5
 49
6
 49
-1.5
 49
0.25
 49
-1.5
 49
0.25
 49
-1.5
  0
LTYPE
  2
dashed_triplicate-dotted
 70
   64
  3
-------    -    -    -    ------
 72
   65
 73
    8
 40
12.75
 49
6
 49
-1.5
 49
0.25
 49
-1.5
 49
0.25
 49
-1.5
 49
0.25
 49
-1.5
  0
LTYPE
  2
double-dashed_triplicate-dotted
 70
   64
  3
-----  ---------  -  -  -  -----
 72
   65
 73
   10
 40
20.25
 49
6
 49
-1.5
 49
6
 49
-1.5
 49
0.25
 49
-1.5
 49
0.25
 49
-1.5
 49
0.25
 49
-1.5
  0
LTYPE
  2
undefined
 70
   64
  3
--------------------------------
 72
   65
 73
    0
 40
0
  0
ENDTAB
  0
TABLE
  2
STYLE
  5
3
100
AcDbSymbolTable
 70
     1
  0
STYLE
  5
10
100
AcDbSymbolTableRecord
100
AcDbTextStyleTableRecord
  2
STANDARD
 70
     0
 40
0.0
 41
1.0
 50
0.0
 71
     0
 42
0.2
  3
txt
  4
bigfont.shx
  0
STYLE
  5
26
100
AcDbSymbolTableRecord
100
AcDbTextStyleTableRecord
  2
TATEGAKI
 70
    68
 40
0.0
 41
1.0
 50
0.0
 71
     0
 42
1.0
  3
txt
  4
bigfont.shx
  0
ENDTAB
  0
TABLE
  2
LAYER
 70
    3
  0
LAYER
  2
_0-0_
 70
   64
 62
    7
  6
CONTINUOUS
  0
LAYER
  2
_0-1_
 70
   64
 62
    7
  6
CONTINUOUS
  0
LAYER
  2
ADD_LINE
 70
   64
 62
    7
  6
CONTINUOUS
  0
ENDTAB
  0
ENDSEC
  0
SECTION
  2
BLOCKS
  0
ENDSEC
  0
SECTION
  2
ENTITIES
  0
LINE
  8
_0-0_
  6
CONTINUOUS
 62
    7
 10
103.19133145343642
 20
16.502232050391569
 11
103.19133145343642
 21
29.971874667556961
  0
ARC
  8
_0-0_
  6
CONTINUOUS
 62
    7
 10
99.691331453436419
 20
29.971874667556961
 40
3.5000000000000004
 50
0
 51
90
  0
LINE
  8
_0-0_
  6
CONTINUOUS
 62
    7
 10
110.19133145343596
 20
9.5022320503506421
 11
6.191331453436419
 21
9.5022320503506421
  0
LINE
  8
_0-0_
  6
CONTINUOUS
 62
    7
 10
13.191331453436419
 20
16.502232050391569
 11
103.19133145343642
 21
16.502232050391569
  0
LINE
  8
_0-0_
  6
CONTINUOUS
 62
    7
 10
13.191331453436419
 20
29.971874667556506
 11
13.191331453436419
 21
16.502232050391569
  0
LINE
  8
_0-0_
  6
CONTINUOUS
 62
    7
 10
16.691331453436419
 20
33.471874667556506
 11
99.691331453436419
 21
33.471874667556733
  0
ARC
  8
_0-0_
  6
CONTINUOUS
 62
    7
 10
16.691331453436419
 20
29.971874667556506
 40
3.5
 50
90.000000000000156
 51
180
  0
LINE
  8
_0-0_
  6
CONTINUOUS
 62
    7
 10
6.191331453436419
 20
40.002109458601637
 11
6.191331453436419
 21
9.5022320503506421
  0
ARC
  8
_0-0_
  6
CONTINUOUS
 62
    7
 10
7.691331453436419
 20
40.002109458601637
 40
1.5
 50
90
 51
180
  0
LINE
  8
_0-0_
  6
CONTINUOUS
 62
    7
 10
108.69133145343596
 20
41.502109458601637
 11
7.691331453436419
 21
41.502109458601637
  0
LINE
  8
_0-0_
  6
CONTINUOUS
 62
    7
 10
110.19133145343596
 20
40.002109458601637
 11
110.19133145343596
 21
9.5022320503506421
  0
ARC
  8
_0-0_
  6
CONTINUOUS
 62
    7
 10
108.69133145343596
 20
40.002109458601637
 40
1.5
 50
0
 51
90
  0
ARC
  8
_0-0_
  6
CONTINUOUS
 62
    7
 10
143.95555520322932
 20
15.002232050391342
 40
1.500000000000804
 50
136.71524005725061
 51
164.99999999999548
  0
LINE
  8
_0-0_
  6
CONTINUOUS
 62
    7
 10
177.60134007716033
 20
33.897472283124728
 11
160.9289203747494
 21
9.5022320506380424
  0
LINE
  8
_0-0_
  6
CONTINUOUS
 62
    7
 10
166.85390686233939
 20
41.502109458601637
 11
184.42892037444426
 21
41.502109458601637
  0
LINE
  8
_0-0_
  6
CONTINUOUS
 62
    7
 10
140.92892037424235
 20
9.5022320503917967
 11
142.50666646379523
 21
15.390460618045438
  0
LINE
  8
_0-0_
  6
CONTINUOUS
 62
    7
 10
160.9289203747494
 20
9.5022320506380424
 11
140.92892037424235
 21
9.5022320503917967
  0
ARC
  8
_0-0_
  6
CONTINUOUS
 62
    7
 10
184.35390686233939
 20
40.002109458601637
 40
1.5
 50
0
 51
90
  0
LINE
  8
_0-0_
  6
CONTINUOUS
 62
    7
 10
166.85390686233939
 20
41.502109458601637
 11
184.35390686233939
 21
41.502109458601637
  0
LINE
  8
_0-0_
  6
CONTINUOUS
 62
    7
 10
185.85390686233939
 20
40.002109458601637
 11
185.85390686233939
 21
39.780519041064792
  0
ARC
  8
_0-0_
  6
CONTINUOUS
 62
    7
 10
181.85390686233939
 20
39.780519041064792
 40
4
 50
302.39236548584358
 51
0
  0
LINE
  8
_0-0_
  6
CONTINUOUS
 62
    7
 10
165.79324669055961
 20
41.06276963038141
 11
142.86362251230605
 21
16.030669213515637
  0
LINE
  8
_0-0_
  6
CONTINUOUS
 62
    7
 10
140.92892037424235
 20
9.5022320503917967
 11
142.50666646379523
 21
15.390460618045438
  0
LINE
  8
_0-0_
  6
CONTINUOUS
 62
    7
 10
160.9289203747494
 20
9.5022320506380424
 11
140.92892037424235
 21
9.5022320503917967
  0
ARC
  8
_0-0_
  6
CONTINUOUS
 62
    7
 10
166.85390686233939
 20
40.002109458601637
 40
1.5
 50
90
 51
134.99999999994165
  0
ARC
  8
_0-0_
  6
CONTINUOUS
 62
    7
 10
174.35390686233939
 20
51.60210945860166
 40
18
 50
280.39381426353845
 51
302.39236548584319
  0
ARC
  8
_0-0_
  6
CONTINUOUS
 62
    7
 10
143.95555520322932
 20
15.002232050391342
 40
1.500000000000804
 50
138.30484595745546
 51
164.99999999999548
  0
LINE
  8
_0-0_
  6
CONTINUOUS
 62
    7
 10
108.69133145343596
 20
72.132111409792174
 11
7.6913314534355095
 21
72.132111409792174
  0
LINE
  8
_0-0_
  6
CONTINUOUS
 62
    7
 10
103.19133145343551
 20
92.132111410299103
 11
13.19133145343551
 21
92.132111410299103
  0
ARC
  8
_0-0_
  6
CONTINUOUS
 62
    7
 10
11.19133145343551
 20
112.1321114099942
 40
5
 50
90
 51
180
  0
LINE
  8
_0-0_
  6
CONTINUOUS
 62
    7
 10
105.19133145343596
 20
117.1321114099942
 11
11.19133145343551
 21
117.1321114099942
  0
ARC
  8
_0-0_
  6
CONTINUOUS
 62
    7
 10
105.19133145343596
 20
112.1321114099942
 40
5
 50
0
 51
90
  0
ARC
  8
_0-0_
  6
CONTINUOUS
 62
    7
 10
108.69133145343596
 20
73.632111409792174
 40
1.5
 50
270
 51
0
  0
LINE
  8
_0-0_
  6

 62
    4
 10
98.191331453435964
 20
91.13211140979206
 11
98.191331453435964
 21
73.132111409792287
  0
LINE
  8
_0-0_
  6

 62
    4
 10
107.19133145343596
 20
82.13211140979206
 11
89.191331453435964
 21
82.13211140979206
  0
CIRCLE
  8
_0-0_
  6
CONTINUOUS
 62
    7
 10
98.191331453435964
 20
82.132111409792287
 40
4
  0
CIRCLE
  8
_0-0_
  6
CONTINUOUS
 62
    7
 10
98.191331453435964
 20
82.132111409792287
 40
2.25
  0
LINE
  8
_0-0_
  6

 62
    4
 10
27.19133145343551
 20
82.13211140979206
 11
9.1913314534355095
 21
82.13211140979206
  0
CIRCLE
  8
_0-0_
  6
CONTINUOUS
 62
    7
 10
18.19133145343551
 20
82.13211140979206
 40
4
  0
CIRCLE
  8
_0-0_
  6
CONTINUOUS
 62
    7
 10
18.19133145343551
 20
82.13211140979206
 40
2.25
  0
ARC
  8
_0-0_
  6
CONTINUOUS
 62
    7
 10
7.822492759801321
 20
73.632111409792174
 40
1.5
 50
180
 51
270
  0
LINE
  8
_0-0_
  6
CONTINUOUS
 62
    7
 10
6.1913314534355095
 20
73.632111409792174
 11
6.1913314534355095
 21
112.1321114099942
  0
LINE
  8
_0-0_
  6
CONTINUOUS
 62
    7
 10
110.19133145343596
 20
73.632111409792174
 11
110.19133145343596
 21
112.1321114099942
  0
LINE
  8
_0-0_
  6
CONTINUOUS
 62
    7
 10
103.19133145343551
 20
75.066813510524298
 11
103.19133145343551
 21
94.165068082184575
  0
LINE
  8
_0-0_
  6
CONTINUOUS
 62
    7
 10
13.19133145343551
 20
75.066813547855418
 11
13.19133145343551
 21
94.165068082184575
  0
ARC
  8
_0-0_
  6
CONTINUOUS
 62
    7
 10
16.19133145343551
 20
94.165068082184575
 40
3
 50
90
 51
180
  0
LINE
  8
_0-0_
  6
CONTINUOUS
 62
    7
 10
100.19133145343551
 20
97.165068082184575
 11
16.19133145343551
 21
97.165068082184575
  0
ARC
  8
_0-0_
  6
CONTINUOUS
 62
    7
 10
100.19133145343551
 20
94.165068082184575
 40
3
 50
0
 51
90
  0
LINE
  8
_0-0_
  6
CONTINUOUS
 62
  152
 10
99.429539002250863
 20
113.36769454542627
 11
97.285524837779462
 21
113.36769454542627
  0
LINE
  8
_0-0_
  6
CONTINUOUS
 62
  152
 10
97.285524837779462
 20
113.36769454542627
 11
97.285524837779462
 21
112.82175764025624
  0
LINE
  8
_0-0_
  6
CONTINUOUS
 62
  152
 10
97.285524837779462
 20
112.82175764025624
 11
98.665880709650651
 21
112.82175764025624
  0
LINE
  8
_0-0_
  6
CONTINUOUS
 62
  152
 10
98.665880709650651
 20
112.82175764025624
 11
98.665880709650651
 21
110.3053526815263
  0
LINE
  8
_0-0_
  6
CONTINUOUS
 62
  152
 10
99.429539002250863
 20
113.36769454542627
 11
99.429539002250863
 21
110.3053526815263
  0
LINE
  8
_0-0_
  6
CONTINUOUS
 62
  152
 10
98.665880709650651
 20
110.3053526815263
 11
99.429539002250863
 21
110.3053526815263
  0
LINE
  8
_0-0_
  6
CONTINUOUS
 62
  152
 10
96.696330378512243
 20
110.3053526815263
 11
96.696330378512243
 21
113.36769454542627
  0
LINE
  8
_0-0_
  6
CONTINUOUS
 62
  152
 10
96.696330378512243
 20
113.36769454542627
 11
94.551758191195518
 21
113.36769454542627
  0
LINE
  8
_0-0_
  6
CONTINUOUS
 62
  152
 10
94.551758191195518
 20
112.82175764025624
 11
94.551758191195518
 21
113.36769454542627
  0
LINE
  8
_0-0_
  6
CONTINUOUS
 62
  152
 10
95.935380250352296
 20
112.82175764025624
 11
94.551758191195518
 21
112.82175764025624
  0
LINE
  8
_0-0_
  6
CONTINUOUS
 62
  152
 10
95.935380250352296
 20
112.07393267453131
 11
95.935380250352296
 21
112.82175764025624
  0
LINE
  8
_0-0_
  6
CONTINUOUS
 62
  152
 10
94.683699737885604
 20
112.07393267453131
 11
95.935380250352296
 21
112.07393267453131
  0
LINE
  8
_0-0_
  6
CONTINUOUS
 62
  152
 10
94.683699737885604
 20
111.56145605756137
 11
94.683699737885604
 21
112.07393267453131
  0
LINE
  8
_0-0_
  6
CONTINUOUS
 62
  152
 10
94.683699737885604
 20
111.56145605756137
 11
95.935380250352296
 21
111.56145605756137
  0
LINE
  8
_0-0_
  6
CONTINUOUS
 62
  152
 10
95.935380250352296
 20
110.85128958665291
 11
95.935380250352296
 21
111.56145605756137
  0
LINE
  8
_0-0_
  6
CONTINUOUS
 62
  152
 10
94.551758191195518
 20
110.85128958665291
 11
95.935380250352296
 21
110.85128958665291
  0
LINE
  8
_0-0_
  6
CONTINUOUS
 62
  152
 10
96.696330378512243
 20
110.3053526815263
 11
94.551758191195518
 21
110.3053526815263
  0
LINE
  8
_0-0_
  6
CONTINUOUS
 62
  152
 10
94.551758191195518
 20
110.3053526815263
 11
94.551758191195518
 21
110.85128958665291
  0
ARC
  8
_0-0_
  6
CONTINUOUS
 62
  152
 10
90.39376799113586
 20
111.83652361347617
 40
3.598479516746071
 50
344.21600247589294
 51
15.783997524107065
  0
ARC
  8
_0-0_
  6
CONTINUOUS
 62
  152
 10
84.038012094185774
 20
111.83652361348277
 40
9.1391084247164951
 50
356.78919008197266
 51
3.2108099180273357
  0
ARC
  8
_0-0_
  6
CONTINUOUS
 62
  152
 10
93.045632270457986
 20
112.53425412176557
 40
0.8582684495079208
 50
19.118120314093822
 51
73.770896322251133
  0
ARC
  8
_0-0_
  6
CONTINUOUS
 62
  152
 10
92.877735463644854
 20
111.75500790087244
 40
1.654354451944509
 50
75.730707223577085
 51
104.26929277642289
  0
ARC
  8
_0-0_
  6
CONTINUOUS
 62
  152
 10
92.709838656832176
 20
112.53425412176557
 40
0.8582684495079208
 50
106.22910367774887
 51
160.88187968590617
  0
ARC
  8
_0-0_
  6
CONTINUOUS
 62
  152
 10
95.361702936154302
 20
111.83652361347617
 40
3.598479516746071
 50
164.21600247589294
 51
172.22375855280197
  0
LINE
  8
_0-0_
  6
CONTINUOUS
 62
  152
 10
92.592799030857009
 20
112.32341492136607
 11
91.796314922663782
 21
112.32341492136607
  0
ARC
  8
_0-0_
  6
CONTINUOUS
 62
  152
 10
92.877735463644854
 20
112.63550033008141
 40
0.2487944796307745
 50
18.780934832588589
 51
161.2190651674114
  0
ARC
  8
_0-0_
  6
CONTINUOUS
 62
  152
 10
93.982048353552386
 20
112.34766619214611
 40
1.389460976329945
 50
164.64474174215434
 51
181.00007560087494
  0
ARC
  8
_0-0_
  6
CONTINUOUS
 62
  152
 10
91.773422573738003
 20
112.34766619214656
 40
1.389460976329945
 50
359.28077569259489
 51
15.355258257845675
  0
LINE
  8
_0-0_
  6
CONTINUOUS
 62
  152
 10
92.596595136471365
 20
111.21992399130636
 11
91.816444167266013
 21
111.21992399130636
  0
ARC
  8
_0-0_
  6
CONTINUOUS
 62
  152
 10
92.877735463644854
 20
111.03754689687071
 40
0.2487944796307745
 50
198.7809348325886
 51
341.21906516741143
  0
ARC
  8
_0-0_
  6
CONTINUOUS
 62
  152
 10
91.773422573738003
 20
111.32538103480601
 40
1.389460976329945
 50
344.64474174215434
 51
0.7192243074051302
  0
ARC
  8
_0-0_
  6
CONTINUOUS
 62
  152
 10
93.982048353552386
 20
111.32538103480601
 40
1.389460976329945
 50
184.35281000280094
 51
195.35525825784566
  0
ARC
  8
_0-0_
  6
CONTINUOUS
 62
  152
 10
92.709838656832176
 20
111.13879310518655
 40
0.8582684495079208
 50
199.11812031409383
 51
253.77089632225113
  0
ARC
  8
_0-0_
  6
CONTINUOUS
 62
  152
 10
95.361702936154302
 20
111.83652361347617
 40
3.598479516746071
 50
189.86632271982089
 51
195.78399752410706
  0
ARC
  8
_0-0_
  6
CONTINUOUS
 62
  152
 10
92.877735463644854
 20
111.91803932608013
 40
1.654354451944509
 50
255.7307072235771
 51
284.2692927764229
  0
ARC
  8
_0-0_
  6
CONTINUOUS
 62
  152
 10
93.045632270457986
 20
111.13879310518655
 40
0.8582684495079208
 50
286.22910367774892
 51
340.8818796859062
  0
ARC
  8
_0-0_
  6
CONTINUOUS
 62
  152
 10
87.709829541091381
 20
111.83652361347617
 40
3.598479516746071
 50
344.21600247589294
 51
15.783997524107065
  0
ARC
  8
_0-0_
  6
CONTINUOUS
 62
  152
 10
81.354073644141749
 20
111.83652361348277
 40
9.1391084247164951
 50
356.78919008197266
 51
3.2108099180273357
  0
ARC
  8
_0-0_
  6
CONTINUOUS
 62
  152
 10
99.033520383060136
 20
111.83652361348277
 40
9.1391084247164951
 50
176.78919008197266
 51
183.21080991802734
  0
ARC
  8
_0-0_
  6
CONTINUOUS
 62
  152
 10
90.193797013600829
 20
112.63550033008141
 40
0.2487944796307745
 50
18.780934832588589
 51
161.2190651674114
  0
ARC
  8
_0-0_
  6
CONTINUOUS
 62
  152
 10
90.193797013600829
 20
111.75500790087244
 40
1.654354451944509
 50
75.730707223577085
 51
104.26929277642289
  0
ARC
  8
_0-0_
  6
CONTINUOUS
 62
  152
 10
90.025900206787924
 20
112.53425412176557
 40
0.8582684495079208
 50
106.22910367774887
 51
160.88187968590617
  0
ARC
  8
_0-0_
  6
CONTINUOUS
 62
  152
 10
90.361693820413961
 20
112.53425412176557
 40
0.8582684495079208
 50
19.118120314093822
 51
73.770896322251133
  0
ARC
  8
_0-0_
  6
CONTINUOUS
 62
  152
 10
92.67776448611005
 20
111.83652361347617
 40
3.598479516746071
 50
164.21600247589294
 51
195.78399752410706
  0
ARC
  8
_0-0_
  6
CONTINUOUS
 62
  152
 10
91.298109903508134
 20
112.34766619214656
 40
1.389460976329945
 50
164.64474174215434
 51
180.71922430740514
  0
ARC
  8
_0-0_
  6
CONTINUOUS
 62
  152
 10
89.089484123693524
 20
112.34766619214656
 40
1.389460976329945
 50
359.28077569259489
 51
15.355258257845675
  0
ARC
  8
_0-0_
  6
CONTINUOUS
 62
  152
 10
89.089484123693524
 20
111.32538103480601
 40
1.389460976329945
 50
344.64474174215434
 51
0.7192243074051302
  0
ARC
  8
_0-0_
  6
CONTINUOUS
 62
  152
 10
90.193797013600829
 20
111.03754689687116
 40
0.2487944796307745
 50
198.7809348325886
 51
341.21906516741143
  0
ARC
  8
_0-0_
  6
CONTINUOUS
 62
  152
 10
91.298109903508134
 20
111.32538103480601
 40
1.389460976329945
 50
179.28077569259486
 51
195.35525825784566
  0
ARC
  8
_0-0_
  6
CONTINUOUS
 62
  152
 10
90.193797013600829
 20
111.91803932608013
 40
1.654354451944509
 50
255.7307072235771
 51
284.2692927764229
  0
ARC
  8
_0-0_
  6
CONTINUOUS
 62
  152
 10
90.361693820413961
 20
111.13879310518655
 40
0.8582684495079208
 50
286.22910367774892
 51
340.8818796859062
  0
ARC
  8
_0-0_
  6
CONTINUOUS
 62
  152
 10
90.025900206787924
 20
111.13879310518655
 40
0.8582684495079208
 50
199.11812031409383
 51
253.77089632225113
  0
ARC
  8
_0-0_
  6
CONTINUOUS
 62
  152
 10
92.877735463644854
 20
112.63550033008141
 40
0.2487944796307745
 50
18.780934832588589
 51
161.2190651674114
  0
ARC
  8
_0-0_
  6
CONTINUOUS
 62
  152
 10
90.193797013600829
 20
112.63550033008141
 40
0.2487944796307745
 50
18.780934832588589
 51
161.2190651674114
  0
LINE
  8
_0-0_
  6
CONTINUOUS
 62
    7
 10
88.681547234335653
 20
114.1321114099942
 11
99.781547234335335
 21
114.1321114099942
  0
ARC
  8
_0-0_
  6
CONTINUOUS
 62
    7
 10
99.781547234335335
 20
113.68211140999438
 40
0.45
 50
0
 51
90
  0
LINE
  8
_0-0_
  6
CONTINUOUS
 62
    7
 10
100.23154723433538
 20
113.68211140999438
 11
100.23154723433538
 21
110.08211140999424
  0
LINE
  8
_0-0_
  6
CONTINUOUS
 62
    7
 10
88.681547234335653
 20
109.6321114099942
 11
99.781547234335335
 21
109.6321114099942
  0
ARC
  8
_0-0_
  6
CONTINUOUS
 62
    7
 10
99.781547234335335
 20
110.08211140999424
 40
0.45
 50
270
 51
0
  0
ARC
  8
_0-0_
  6
CONTINUOUS
 62
    7
 10
88.681547234335653
 20
110.08211140999424
 40
0.45
 50
180
 51
270
  0
LINE
  8
_0-0_
  6
CONTINUOUS
 62
    7
 10
88.23154723433538
 20
110.08211140999424
 11
88.23154723433538
 21
113.68211140999438
  0
ARC
  8
_0-0_
  6
CONTINUOUS
 62
    7
 10
88.681547234335653
 20
113.68211140999438
 40
0.45
 50
90
 51
180
  0
ARC
  8
_0-1_
  6
DASHED2
 62
  152
 10
157.9022855457622
 20
15.002232050391456
 40
1.500000000000804
 50
15.000000000007642
 51
90.000000000000014
  0
LINE
  8
_0-1_
  6
DASHED2
 62
  152
 10
160.92892037474917
 20
9.5022320503917967
 11
159.35117428519652
 21
15.390460618045552
  0
LINE
  8
_0-1_
  6
DASHED2
 62
  152
 10
157.90228554576288
 20
16.502232050391797
 11
143.95555520335506
 21
16.502232050391797
  0
ARC
  8
_0-1_
  6
DASHED2
 62
  152
 10
143.95555520335506
 20
15.002232050391797
 40
1.5
 50
90.000000000000028
 51
164.99999999885262
  0
LINE
  8
_0-1_
  6
CENTER1
 62
  152
 10
11.975983076540615
 20
82.132111409792174
 11
104.68540926107289
 21
82.132111409792174
  0
LINE
  8
_0-1_
  6
CENTER1
 62
  152
 10
18.19133145343551
 20
87.767464313945993
 11
18.19133145343551
 21
76.494620039935739
  0
LINE
  8
_0-1_
  6
CENTER1
 62
  152
 10
98.19133145343551
 20
87.767464313945993
 11
98.19133145343551
 21
76.494620039935739
  0
LINE
  8
_0-1_
  6
CENTER1
 62
  152
 10
150.92892037424235
 20
20.146370332230163
 11
150.92892037424235
 21
4.9863383775267494
  0
ARC
  8
_0-0_
  6
CONTINUOUS
 62
    7
 10
210.37180096632289
 20
15.002232050391342
 40
1.500000000000804
 50
136.71524005725061
 51
164.99999999999548
  0
LINE
  8
_0-0_
  6
CONTINUOUS
 62
    7
 10
244.0175858402539
 20
33.897472283124728
 11
227.34516613784297
 21
9.5022320506380424
  0
LINE
  8
_0-0_
  6
CONTINUOUS
 62
    7
 10
233.27015262543296
 20
41.502109458601637
 11
250.84516613753783
 21
41.502109458601637
  0
LINE
  8
_0-0_
  6
CONTINUOUS
 62
    7
 10
207.34516613733592
 20
9.5022320503917967
 11
208.9229122268888
 21
15.390460618045438
  0
LINE
  8
_0-0_
  6
CONTINUOUS
 62
    7
 10
227.34516613784297
 20
9.5022320506380424
 11
207.34516613733592
 21
9.5022320503917967
  0
ARC
  8
_0-0_
  6
CONTINUOUS
 62
    7
 10
250.77015262543296
 20
40.002109458601637
 40
1.5
 50
0
 51
90
  0
LINE
  8
_0-0_
  6
CONTINUOUS
 62
    7
 10
233.27015262543296
 20
41.502109458601637
 11
250.77015262543296
 21
41.502109458601637
  0
LINE
  8
_0-0_
  6
CONTINUOUS
 62
    7
 10
252.27015262543296
 20
40.002109458601637
 11
252.27015262543296
 21
39.780519041064792
  0
ARC
  8
_0-0_
  6
CONTINUOUS
 62
    7
 10
248.27015262543296
 20
39.780519041064792
 40
4
 50
302.39236548584358
 51
0
  0
LINE
  8
_0-0_
  6
CONTINUOUS
 62
    7
 10
232.20949245365318
 20
41.06276963038141
 11
209.27986827539962
 21
16.030669213515637
  0
LINE
  8
_0-0_
  6
CONTINUOUS
 62
    7
 10
207.34516613733592
 20
9.5022320503917967
 11
208.9229122268888
 21
15.390460618045438
  0
LINE
  8
_0-0_
  6
CONTINUOUS
 62
    7
 10
227.34516613784297
 20
9.5022320506380424
 11
207.34516613733592
 21
9.5022320503917967
  0
ARC
  8
_0-0_
  6
CONTINUOUS
 62
    7
 10
233.27015262543296
 20
40.002109458601637
 40
1.5
 50
90
 51
134.99999999994165
  0
ARC
  8
_0-0_
  6
CONTINUOUS
 62
    7
 10
240.77015262543296
 20
51.60210945860166
 40
18
 50
280.39381426353845
 51
302.39236548584319
  0
ARC
  8
_0-0_
  6
CONTINUOUS
 62
    7
 10
210.37180096632289
 20
15.002232050391342
 40
1.500000000000804
 50
138.30484595745546
 51
164.99999999999548
  0
ARC
  8
_0-1_
  6
DASHED2
 62
  152
 10
224.31853130885577
 20
15.002232050391456
 40
1.500000000000804
 50
15.000000000007642
 51
90.000000000000014
  0
LINE
  8
_0-1_
  6
DASHED2
 62
  152
 10
227.34516613784274
 20
9.5022320503917967
 11
225.76742004829009
 21
15.390460618045552
  0
LINE
  8
_0-1_
  6
DASHED2
 62
  152
 10
224.31853130885645
 20
16.502232050391797
 11
210.37180096644863
 21
16.502232050391797
  0
ARC
  8
_0-1_
  6
DASHED2
 62
  152
 10
210.37180096644863
 20
15.002232050391797
 40
1.5
 50
90.000000000000028
 51
164.99999999885262
  0
LINE
  8
_0-1_
  6
CENTER1
 62
  152
 10
217.34516613733592
 20
20.146370332230163
 11
217.34516613733592
 21
4.9863383775267494
  0
LINE
  8
_0-1_
  6
DASHED2
 62
  152
 10
146.92892037424235
 20
16.502232050391797
 11
146.92892037424235
 21
12.102232050391819
  0
LINE
  8
_0-1_
  6
DASHED2
 62
  152
 10
146.92892037424235
 20
12.102232050391819
 11
154.92892037424235
 21
12.102232050391819
  0
LINE
  8
_0-1_
  6
DASHED2
 62
  152
 10
148.67892037424235
 20
12.102232050391819
 11
148.67892037424235
 21
9.5022320503917967
  0
LINE
  8
_0-1_
  6
DASHED2
 62
  152
 10
153.17892037424235
 20
12.102232050391819
 11
153.17892037424235
 21
9.5022320503917967
  0
LINE
  8
_0-1_
  6
DASHED2
 62
  152
 10
154.92892037424235
 20
16.502232050391797
 11
154.92892037424235
 21
12.102232050391819
  0
LINE
  8
_0-1_
  6
DASHED2
 62
  152
 10
152.09558700117259
 20
15.602232050391819
 11
152.09558700117259
 21
12.102232050391819
  0
LINE
  8
_0-1_
  6
DASHED2
 62
  152
 10
152.67892037424235
 20
15.602232050391819
 11
152.67892037424235
 21
12.102232050391819
  0
LINE
  8
_0-1_
  6
DASHED2
 62
  152
 10
153.26225362810283
 20
15.602232050391819
 11
153.26225362810283
 21
12.102232050391819
  0
LINE
  8
_0-1_
  6
DASHED2
 62
  152
 10
153.84558712038188
 20
15.602232050391819
 11
153.84558712038188
 21
12.102232050391819
  0
LINE
  8
_0-1_
  6
DASHED2
 62
  152
 10
147.42892037424235
 20
15.602232050391819
 11
147.42892037424235
 21
12.102232050391819
  0
LINE
  8
_0-1_
  6
DASHED2
 62
  152
 10
147.42892037424235
 20
15.602232050391819
 11
147.92892037424235
 21
16.102232050391819
  0
LINE
  8
_0-1_
  6
DASHED2
 62
  152
 10
153.92892037424235
 20
16.102232050391819
 11
147.92892037424235
 21
16.102232050391819
  0
LINE
  8
_0-1_
  6
DASHED2
 62
  152
 10
154.42892037424235
 20
15.602232050391819
 11
154.42892037424235
 21
12.102232050391819
  0
LINE
  8
_0-1_
  6
DASHED2
 62
  152
 10
153.92892037424235
 20
16.102232050391819
 11
154.42892037424235
 21
15.602232050391819
  0
LINE
  8
_0-1_
  6
DASHED2
 62
  152
 10
147.42892037424235
 20
15.602232050391819
 11
154.42892037424235
 21
15.602232050391819
  0
LINE
  8
_0-1_
  6
DASHED2
 62
  152
 10
147.42895607528294
 20
2.3022351270500963
 11
154.42879087102278
 21
2.3022091649081062
  0
LINE
  8
_0-1_
  6
DASHED2
 62
  152
 10
156.01632891385384
 20
5.9022321459014506
 11
155.75389822476814
 21
8.9022205721093428
  0
LINE
  8
_0-1_
  6
DASHED2
 62
  152
 10
154.42879087102278
 20
2.3022091649081062
 11
157.60763585254267
 21
4.1374741300773508
  0
LINE
  8
_0-1_
  6
DASHED2
 62
  152
 10
157.92887434616773
 20
5.9022321459014506
 11
156.01632891385384
 21
5.9022321459014506
  0
LINE
  8
_0-1_
  6
DASHED2
 62
  152
 10
157.60763585254267
 20
4.1374741300773508
 11
157.92887434616773
 21
5.9022321459014506
  0
LINE
  8
_0-1_
  6
DASHED2
 62
  152
 10
145.8414385664089
 20
5.9022321459014506
 11
146.10394252375477
 21
8.9022537196869393
  0
LINE
  8
_0-1_
  6
DASHED2
 62
  152
 10
155.75389822476814
 20
8.9022205721093428
 11
146.10394252375477
 21
8.9022537196869393
  0
LINE
  8
_0-1_
  6
DASHED2
 62
  152
 10
147.42903802131309
 20
2.3022091649081062
 11
144.2501930397932
 21
4.1374741300773508
  0
LINE
  8
_0-1_
  6
DASHED2
 62
  152
 10
143.92895454616814
 20
5.9022321459014506
 11
145.84149997848203
 21
5.9022321459014506
  0
LINE
  8
_0-1_
  6
DASHED2
 62
  152
 10
144.2501930397932
 20
4.1374741300773508
 11
143.92895454616814
 21
5.9022321459014506
  0
LINE
  8
_0-1_
  6
DASHED2
 62
  152
 10
149.22892032655864
 20
12.102232050391819
 11
149.22892032655864
 21
2.1022320503918195
  0
LINE
  8
_0-1_
  6
DASHED2
 62
  152
 10
152.62892042192607
 20
12.102232050391819
 11
152.62892042192607
 21
2.1022320503918195
  0
LINE
  8
_0-1_
  6
DASHED2
 62
  152
 10
148.92892037424235
 20
2.4022322411266828
 11
148.92892037424235
 21
12.102232050391819
  0
LINE
  8
_0-1_
  6
DASHED2
 62
  152
 10
152.62892042192607
 20
2.1022320503918195
 11
149.22892032655864
 21
2.1022320503918195
  0
LINE
  8
_0-1_
  6
DASHED2
 62
  152
 10
152.92892037424235
 20
2.4022322411266828
 11
152.92892037424235
 21
12.102232050391819
  0
LINE
  8
_0-1_
  6
DASHED2
 62
  152
 10
148.92892037424235
 20
2.4022322411266828
 11
149.22892032655864
 21
2.1022320503918195
  0
LINE
  8
_0-1_
  6
DASHED2
 62
  152
 10
152.62892042192607
 20
2.1022320503918195
 11
152.92892037424235
 21
2.4022322411266828
  0
LINE
  8
_0-1_
  6
DASHED2
 62
  152
 10
148.92892037424235
 20
2.4022322411266828
 11
152.92892037424235
 21
2.4022322411266828
  0
LINE
  8
_0-1_
  6
DASHED2
 62
  152
 10
213.34516613733592
 20
16.502232050391797
 11
213.34516613733592
 21
12.102232050391819
  0
LINE
  8
_0-1_
  6
DASHED2
 62
  152
 10
213.34516613733592
 20
12.102232050391819
 11
221.34516613733592
 21
12.102232050391819
  0
LINE
  8
_0-1_
  6
DASHED2
 62
  152
 10
215.09516613733592
 20
12.102232050391819
 11
215.09516613733592
 21
9.5022320503917967
  0
LINE
  8
_0-1_
  6
DASHED2
 62
  152
 10
219.59516613733592
 20
12.102232050391819
 11
219.59516613733592
 21
9.5022320503917967
  0
LINE
  8
_0-1_
  6
DASHED2
 62
  152
 10
221.34516613733592
 20
16.502232050391797
 11
221.34516613733592
 21
12.102232050391819
  0
LINE
  8
_0-1_
  6
DASHED2
 62
  152
 10
217.34516613733592
 20
12.102232050391819
 11
218.05227291852259
 21
11.395125269205266
  0
LINE
  8
_0-1_
  6
DASHED2
 62
  152
 10
217.34516613733592
 20
12.102232050391819
 11
216.63805935614926
 21
11.395125269205266
  0
LINE
  8
_0-1_
  6
DASHED2
 62
  152
 10
218.51183276426616
 20
15.602232050391819
 11
218.51183276426616
 21
12.102232050391819
  0
LINE
  8
_0-1_
  6
DASHED2
 62
  152
 10
219.09516613733592
 20
15.602232050391819
 11
219.09516613733592
 21
12.102232050391819
  0
LINE
  8
_0-1_
  6
DASHED2
 62
  152
 10
219.6784993911964
 20
15.602232050391819
 11
219.6784993911964
 21
12.102232050391819
  0
LINE
  8
_0-1_
  6
DASHED2
 62
  152
 10
220.26183288347545
 20
15.602232050391819
 11
220.26183288347545
 21
12.102232050391819
  0
LINE
  8
_0-1_
  6
DASHED2
 62
  152
 10
215.64516608965221
 20
12.102232050391819
 11
215.64516608965221
 21
4.1022320503918195
  0
LINE
  8
_0-1_
  6
DASHED2
 62
  152
 10
219.04516618501964
 20
12.102232050391819
 11
219.04516618501964
 21
4.1022320503918195
  0
LINE
  8
_0-1_
  6
DASHED2
 62
  152
 10
213.84516613733592
 20
15.602232050391819
 11
213.84516613733592
 21
12.102232050391819
  0
LINE
  8
_0-1_
  6
DASHED2
 62
  152
 10
213.84516613733592
 20
15.602232050391819
 11
214.34516613733592
 21
16.102232050391819
  0
LINE
  8
_0-1_
  6
DASHED2
 62
  152
 10
220.34516613733592
 20
16.102232050391819
 11
214.34516613733592
 21
16.102232050391819
  0
LINE
  8
_0-1_
  6
DASHED2
 62
  152
 10
220.84516613733592
 20
15.602232050391819
 11
220.84516613733592
 21
12.102232050391819
  0
LINE
  8
_0-1_
  6
DASHED2
 62
  152
 10
220.34516613733592
 20
16.102232050391819
 11
220.84516613733592
 21
15.602232050391819
  0
LINE
  8
_0-1_
  6
DASHED2
 62
  152
 10
213.84516613733592
 20
15.602232050391819
 11
220.84516613733592
 21
15.602232050391819
  0
LINE
  8
_0-1_
  6
DASHED2
 62
  152
 10
215.34516613733592
 20
4.4022322411266828
 11
215.34516613733592
 21
12.102232050391819
  0
LINE
  8
_0-1_
  6
DASHED2
 62
  152
 10
219.04516618501964
 20
4.1022320503918195
 11
215.64516608965221
 21
4.1022320503918195
  0
LINE
  8
_0-1_
  6
DASHED2
 62
  152
 10
219.34516613733592
 20
4.4022322411266828
 11
219.34516613733592
 21
12.102232050391819
  0
LINE
  8
_0-1_
  6
DASHED2
 62
  152
 10
215.34516613733592
 20
4.4022322411266828
 11
215.64516608965221
 21
4.1022320503918195
  0
LINE
  8
_0-1_
  6
DASHED2
 62
  152
 10
219.04516618501964
 20
4.1022320503918195
 11
219.34516613733592
 21
4.4022322411266828
  0
LINE
  8
_0-1_
  6
DASHED2
 62
  152
 10
215.34516613733592
 20
4.4022322411266828
 11
219.34516613733592
 21
4.4022322411266828
  0
LINE
  8
_0-1_
  6
DASHED2
 62
  152
 10
214.19011513733574
 20
4.8408320505149049
 11
215.06377913733593
 21
4.5228420505151234
  0
LINE
  8
_0-1_
  6
DASHED2
 62
  152
 10
215.74781913733602
 20
4.4022320505149537
 11
218.94251213733594
 21
4.4022320505149537
  0
LINE
  8
_0-1_
  6
DASHED2
 62
  152
 10
219.62655213733603
 20
4.5228420505151234
 11
220.50021613733577
 21
4.8408320505149049
  0
ARC
  8
_0-1_
  6
DASHED2
 62
  152
 10
215.74781913733602
 20
6.4022320505149537
 40
2
 50
249.99999999999997
 51
270
  0
ARC
  8
_0-1_
  6
DASHED2
 62
  152
 10
218.94251213733594
 20
6.4022320505149537
 40
2
 50
270
 51
290
  0
ARC
  8
_0-1_
  6
DASHED2
 62
  152
 10
215.04516613733574
 20
7.1900620505151664
 40
2.5
 50
168.17822799457858
 51
250.00000000000003
  0
LINE
  8
_0-1_
  6
DASHED2
 62
  152
 10
213.77362823054352
 20
7.7022320505151356
 11
212.59819210986836
 21
7.7022320505151356
  0
ARC
  8
_0-1_
  6
DASHED2
 62
  152
 10
219.64516613733565
 20
7.1900620505151664
 40
2.5
 50
290
 51
11.821772005421458
  0
LINE
  8
_0-1_
  6
DASHED2
 62
  152
 10
222.09214016480303
 20
7.7022320505151356
 11
220.91670304412787
 21
7.7022320505151356
  0
LINE
  8
_0-1_
  6
DASHED2
 62
  152
 10
220.59516723054355
 20
8.9022320505149537
 11
220.91670304412787
 21
7.7022320505151356
  0
LINE
  8
_0-1_
  6
DASHED2
 62
  152
 10
213.77362823054352
 20
7.7022320505151356
 11
214.09516404412796
 21
8.9022320505149537
  0
LINE
  8
_0-1_
  6
DASHED2
 62
  152
 10
220.59516723054355
 20
8.9022320505149537
 11
214.09516404412796
 21
8.9022320505149537
  0
LINE
  8
_0-1_
  6
DASHED2
 62
  152
 10
217.34516613733592
 20
9.5022320505149196
 11
216.63805935616836
 21
8.7951252693474657
  0
LINE
  8
_0-1_
  6
DASHED2
 62
  152
 10
218.05227291854169
 20
8.7951252693474657
 11
217.34516613735502
 21
9.5022320505341327
  0
LINE
  8
_0-1_
  6
CENTER1
 62
  152
 10
18.191331453436419
 20
20.865778770030431
 11
18.191331453436419
 21
4.9803182874248364
  0
LINE
  8
_0-1_
  6
CENTER1
 62
  152
 10
98.191331453436419
 20
20.865778770030431
 11
98.191331453436419
 21
4.9803182874248364
  0
TEXT
  8
_0-1_
 62
    7
 10
233.27015262543296
 20
49.104475950046776
 40
4.2999999999999998
 41
0.744186046511628
 50
0
  1
ＨＡＯＳ－２５Ｂ
  0
TEXT
  8
_0-1_
 62
    7
 10
165.79324669056064
 20
49.104475950046776
 40
4.2999999999999998
 41
0.744186046511628
 50
0
  1
ＨＡＯＳ－４０Ｂ
  0
ENDSEC
  0
EOF
