  0
SECTION
  2
HEADER
  9
$ACADVER
  1
AC1009
  9
$INSBASE
 10
0
 20
0
 30
0
  9
$EXTMIN
 10
0
 20
0
  9
$EXTMAX
 10
1189
 20
841
  9
$LIMMIN
 10
0
 20
0
  9
$LIMMAX
 10
1189
 20
841
  9
$LTSCALE
 40
1
  0
ENDSEC
  0
SECTION
  2
TABLES
  0
TABLE
  2
LTYPE
 70
     9
  0
LTYPE
  2
CONTINUOUS
 70
    64
  3
実線
 72
    65
 73
     0
 40
0.0
  0
LTYPE
  2
DASHED1
 70
    64
  3
--  --  --  --  --  --  --  --  
 72
    65
 73
     2
 40
2.5
 49
1.25
 49
-1.25
  0
LTYPE
  2
DASHED2
 70
    64
  3
----    ----    ----    ----    
 72
    65
 73
     2
 40
5.0
 49
2.5
 49
-2.5
  0
LTYPE
  2
DASHED3
 70
    64
  3
------  ------  ------  ------  
 72
    65
 73
     2
 40
5.0
 49
3.75
 49
-1.25
  0
LTYPE
  2
CENTER1
 70
    64
  3
----- - ----- - ----- - ----- - 
 72
    65
 73
     4
 40
10.0
 49
6.25
 49
-1.25
 49
1.25
 49
-1.25
  0
LTYPE
  2
CENTER2
 70
    64
  3
----------  --  ----------  --  
 72
    65
 73
     4
 40
20.0
 49
12.5
 49
-2.5
 49
2.5
 49
-2.5
  0
LTYPE
  2
PHANTOM1
 70
    64
  3
--- - - --- - - --- - - --- - - 
 72
    65
 73
     6
 40
10.0
 49
3.25
 49
-1.25
 49
1.25
 49
-1.25
 49
1.25
 49
-1.25
  0
LTYPE
  2
PHANTOM2
 70
    64
  3
--------  -  -  --------  -  -  
 72
    65
 73
     6
 40
20.0
 49
10.0
 49
-2.5
 49
1.25
 49
-2.5
 49
1.25
 49
-2.5
  0
LTYPE
  2
DOT
 70
    64
  3
-   -   -   -   -   -   -   -   
 72
    65
 73
     2
 40
2.5
 49
0.625
 49
-1.875
  0
LTYPE
  2
DUMMY
 70
    64
  3
ダミー
 72
    65
 73
     0
 40
0.0
  0
LTYPE
  2
RAND1
 70
    64
  3
ランダム線1
 72
    65
 73
     4
 40
10.0
 49
1.0
 49
-2.0
 49
3.0
 49
-4.0
  0
LTYPE
  2
RAND2
 70
    64
  3
ランダム線2
 72
    65
 73
     4
 40
14.0
 49
2.0
 49
-3.0
 49
4.0
 49
-5.0
  0
LTYPE
  2
RAND3
 70
    64
  3
ランダム線3
 72
    65
 73
     4
 40
18.0
 49
3.0
 49
-4.0
 49
5.0
 49
-6.0
  0
LTYPE
  2
RAND4
 70
    64
  3
ランダム線4
 72
    65
 73
     4
 40
22.0
 49
4.0
 49
-5.0
 49
6.0
 49
-7.0
  0
LTYPE
  2
RAND5
 70
    64
  3
ランダム線5
 72
    65
 73
     4
 40
26.0
 49
5.0
 49
-6.0
 49
7.0
 49
-8.0
  0
LTYPE
  2
LONG1
 70
    64
  3
----------  --  ----------  --  
 72
    65
 73
     4
 40
40.0
 49
32.5
 49
-2.5
 49
2.5
 49
-2.5
  0
LTYPE
  2
LONG2
 70
    64
  3
--------  -  -  --------  -  -  
 72
    65
 73
     6
 40
40.0
 49
30.0
 49
-2.5
 49
1.25
 49
-2.5
 49
1.25
 49
-2.5
  0
LTYPE
  2
LONG3
 70
    64
  3
+++++++++++++++..+++++++++++++++
 72
    65
 73
     2
 40
40.0
 49
37.5
 49
-2.5
  0
LTYPE
  2
LONG4
 70
    64
  3
+++++++++++++++..+++++++++++++++
 72
    65
 73
     2
 40
80.0
 49
75.0
 49
-5.0
  0
LTYPE
  2
LONG5
 70
    64
  3
----------  --  ----------  --  
 72
    65
 73
     4
 40
60.0
 49
37.5
 49
-7.5
 49
7.5
 49
-7.5
  0
LTYPE
  2
dashed
 70
   64
  3
-------   -------------   ------
 72
   65
 73
    2
 40
7.5
 49
6
 49
-1.5
  0
LTYPE
  2
dashed_spaced
 70
   64
  3
----        --------        ----
 72
   65
 73
    2
 40
12
 49
6
 49
-6
  0
LTYPE
  2
long_dashed_dotted
 70
   64
  3
------------- --- --------------
 72
   65
 73
    4
 40
15.25
 49
12
 49
-1.5
 49
0.25
 49
-1.5
  0
LTYPE
  2
long_dashed_double-dotted
 70
   64
  3
----------- --- --- ------------
 72
   65
 73
    6
 40
17
 49
12
 49
-1.5
 49
0.25
 49
-1.5
 49
0.25
 49
-1.5
  0
LTYPE
  2
long_dashed_triplicate-dotted
 70
   64
  3
--------- --- --- --- ----------
 72
   65
 73
    8
 40
18.75
 49
12
 49
-1.5
 49
0.25
 49
-1.5
 49
0.25
 49
-1.5
 49
0.25
 49
-1.5
  0
LTYPE
  2
dotted
 70
   64
  3
   -       -       -       -    
 72
   65
 73
    2
 40
1.75
 49
0.25
 49
-1.5
  0
LTYPE
  2
chain
 70
   64
  3
-------------- -- --------------
 72
   65
 73
    4
 40
18.5
 49
12
 49
-1.5
 49
3.5
 49
-1.5
  0
LTYPE
  2
chain_double_dash
 70
   64
  3
------------ -- -- -------------
 72
   65
 73
    6
 40
23.5
 49
12
 49
-1.5
 49
3.5
 49
-1.5
 49
3.5
 49
-1.5
  0
LTYPE
  2
dashed_dotted
 70
   64
  3
-----------     -     ----------
 72
   65
 73
    4
 40
9.25
 49
6
 49
-1.5
 49
0.25
 49
-1.5
  0
LTYPE
  2
double-dashed_dotted
 70
   64
  3
------   -----------   -   -----
 72
   65
 73
    6
 40
16.75
 49
6
 49
-1.5
 49
6
 49
-1.5
 49
0.25
 49
-1.5
  0
LTYPE
  2
dashed_double-dotted
 70
   64
  3
---------    -    -    ---------
 72
   65
 73
    6
 40
11
 49
6
 49
-1.5
 49
0.25
 49
-1.5
 49
0.25
 49
-1.5
  0
LTYPE
  2
double-dashed_double-dotted
 70
   64
  3
-----   ---------   -   -   ----
 72
   65
 73
    8
 40
18.5
 49
6
 49
-1.5
 49
6
 49
-1.5
 49
0.25
 49
-1.5
 49
0.25
 49
-1.5
  0
LTYPE
  2
dashed_triplicate-dotted
 70
   64
  3
-------    -    -    -    ------
 72
   65
 73
    8
 40
12.75
 49
6
 49
-1.5
 49
0.25
 49
-1.5
 49
0.25
 49
-1.5
 49
0.25
 49
-1.5
  0
LTYPE
  2
double-dashed_triplicate-dotted
 70
   64
  3
-----  ---------  -  -  -  -----
 72
   65
 73
   10
 40
20.25
 49
6
 49
-1.5
 49
6
 49
-1.5
 49
0.25
 49
-1.5
 49
0.25
 49
-1.5
 49
0.25
 49
-1.5
  0
LTYPE
  2
undefined
 70
   64
  3
--------------------------------
 72
   65
 73
    0
 40
0
  0
ENDTAB
  0
TABLE
  2
STYLE
  5
3
100
AcDbSymbolTable
 70
     1
  0
STYLE
  5
10
100
AcDbSymbolTableRecord
100
AcDbTextStyleTableRecord
  2
STANDARD
 70
     0
 40
0.0
 41
1.0
 50
0.0
 71
     0
 42
0.2
  3
txt
  4
bigfont.shx
  0
STYLE
  5
26
100
AcDbSymbolTableRecord
100
AcDbTextStyleTableRecord
  2
TATEGAKI
 70
    68
 40
0.0
 41
1.0
 50
0.0
 71
     0
 42
1.0
  3
txt
  4
bigfont.shx
  0
ENDTAB
  0
TABLE
  2
LAYER
 70
    4
  0
LAYER
  2
_0-0_
 70
   64
 62
    7
  6
CONTINUOUS
  0
LAYER
  2
_0-1_
 70
   64
 62
    7
  6
CONTINUOUS
  0
LAYER
  2
_0-f_
 70
   64
 62
    7
  6
CONTINUOUS
  0
LAYER
  2
ADD_LINE
 70
   64
 62
    7
  6
CONTINUOUS
  0
ENDTAB
  0
ENDSEC
  0
SECTION
  2
BLOCKS
  0
ENDSEC
  0
SECTION
  2
ENTITIES
  0
TEXT
  8
_0-f_
 62
    7
 10
1.1259865619501852
 20
0.863096214738789
 40
4.2999999999999998
 41
0.744186046511628
 50
0
  1
HANB
  0
LINE
  8
_0-0_
  6
CONTINUOUS
 62
    7
 10
38.87316323924847
 20
13.046733028254607
 11
44.018200239248245
 21
13.046733028254607
  0
LINE
  8
_0-0_
  6
CONTINUOUS
 62
    7
 10
44.018200239248245
 20
14.446733028254698
 11
38.87316323924847
 21
14.446733028254698
  0
LINE
  8
_0-0_
  6
CONTINUOUS
 62
    7
 10
38.87316323924847
 20
16.332758028254489
 11
44.018200239248245
 21
16.332758028254489
  0
LINE
  8
_0-0_
  6
CONTINUOUS
 62
    7
 10
44.018200239248245
 20
17.593499028254541
 11
38.87316323924847
 21
17.593499028254541
  0
LINE
  8
_0-0_
  6
CONTINUOUS
 62
    7
 10
38.87316323924847
 20
19.14841502825459
 11
44.018200239248245
 21
19.14841502825459
  0
LINE
  8
_0-0_
  6
CONTINUOUS
 62
    7
 10
44.018200239248245
 20
20.064954028254419
 11
38.87316323924847
 21
20.064954028254419
  0
LINE
  8
_0-0_
  6
CONTINUOUS
 62
    7
 10
38.87316323924847
 20
21.020803028254363
 11
44.018200239248245
 21
21.020803028254363
  0
LINE
  8
_0-0_
  6
CONTINUOUS
 62
    7
 10
44.018200239248245
 20
21.474489028254652
 11
38.87316323924847
 21
21.474489028254652
  0
LINE
  8
_0-0_
  6
CONTINUOUS
 62
    7
 10
38.705980239248447
 20
21.595740028254681
 11
45.403943239248065
 21
21.732183028254553
  0
LINE
  8
_0-0_
  6
CONTINUOUS
 62
    7
 10
45.418200239248335
 20
21.732329028254412
 11
45.418200239248335
 21
5.7611380282547771
  0
LINE
  8
_0-0_
  6
CONTINUOUS
 62
    7
 10
45.403943239248065
 20
5.761283028254752
 11
38.705980239248447
 21
5.8977260282550787
  0
LINE
  8
_0-0_
  6
CONTINUOUS
 62
    7
 10
38.87316323924847
 20
6.0189780282549918
 11
44.018200239248245
 21
6.0189780282549918
  0
LINE
  8
_0-0_
  6
CONTINUOUS
 62
    7
 10
44.018200239248245
 20
6.4726630282549422
 11
38.87316323924847
 21
6.4726630282549422
  0
LINE
  8
_0-0_
  6
CONTINUOUS
 62
    7
 10
38.118200239248608
 20
6.4976020282548461
 11
38.118200239248608
 21
20.995865028254343
  0
LINE
  8
_0-0_
  6
CONTINUOUS
 62
    7
 10
38.118200239248608
 20
20.546733028254607
 11
37.846903239248377
 21
20.546733028254607
  0
LINE
  8
_0-0_
  6
CONTINUOUS
 62
    7
 10
46.118200239248608
 20
21.032329028254594
 11
46.118200239248608
 21
6.4611380282550499
  0
LINE
  8
_0-0_
  6
CONTINUOUS
 62
    7
 10
46.702494239248381
 20
8.2175180282548581
 11
47.331289239248463
 21
8.233983028255011
  0
LINE
  8
_0-0_
  6
CONTINUOUS
 62
    7
 10
47.818200239248426
 20
8.7338120282548743
 11
47.818200239248426
 21
18.759655028254315
  0
LINE
  8
_0-0_
  6
CONTINUOUS
 62
    7
 10
47.331289239248463
 20
19.259484028254633
 11
46.702494239248381
 21
19.275949028254331
  0
LINE
  8
_0-0_
  6
CONTINUOUS
 62
    7
 10
47.818200239248426
 20
17.246733028254425
 11
48.118200239248608
 21
17.246733028254425
  0
LINE
  8
_0-0_
  6
CONTINUOUS
 62
    7
 10
48.118200239248608
 20
17.246733028254425
 11
48.118200239248608
 21
10.246733028254425
  0
LINE
  8
_0-0_
  6
CONTINUOUS
 62
    7
 10
48.118200239248608
 20
10.246733028254425
 11
47.818200239248426
 21
10.246733028254425
  0
LINE
  8
_0-0_
  6
CONTINUOUS
 62
    7
 10
44.018200239248245
 20
11.160708028254362
 11
38.87316323924847
 21
11.160708028254362
  0
LINE
  8
_0-0_
  6
CONTINUOUS
 62
    7
 10
38.87316323924847
 20
9.8999680282546478
 11
44.018200239248245
 21
9.8999680282546478
  0
LINE
  8
_0-0_
  6
CONTINUOUS
 62
    7
 10
44.018200239248245
 20
8.3450520282550542
 11
38.87316323924847
 21
8.3450520282550542
  0
LINE
  8
_0-0_
  6
CONTINUOUS
 62
    7
 10
38.87316323924847
 20
7.428512028254886
 11
44.018200239248245
 21
7.428512028254886
  0
LINE
  8
_0-0_
  6
CONTINUOUS
 62
    7
 10
38.118200239248608
 20
6.9467330282551529
 11
37.846903239248377
 21
6.9467330282551529
  0
ARC
  8
_0-0_
  6
CONTINUOUS
 62
    7
 10
187.11820023924867
 20
13.746733028254425
 40
150
 50
177.62157999999999
 51
182.37841999999998
  0
ARC
  8
_0-0_
  6
CONTINUOUS
 62
    7
 10
37.846903239248377
 20
7.546733028255062
 40
0.5999999999999997
 50
182.37842000000001
 51
270
  0
ARC
  8
_0-0_
  6
CONTINUOUS
 62
    7
 10
45.418200239248335
 20
6.4611380282550499
 40
0.6999999999999998
 50
268.83299999999997
 51
0.0000000000000127
  0
ARC
  8
_0-0_
  6
CONTINUOUS
 62
    7
 10
44.018200239248245
 20
4.3159690282551537
 40
2.1566939999999999
 50
82.354858999999962
 51
89.999999999999957
  0
ARC
  8
_0-0_
  6
CONTINUOUS
 62
    7
 10
44.147173239248104
 20
5.2767990282551409
 40
1.1872469999999999
 50
72.044513000000023
 51
82.354858999999962
  0
ARC
  8
_0-0_
  6
CONTINUOUS
 62
    7
 10
44.341751239248651
 20
5.877237028255081
 40
0.556068
 50
51.962063999999991
 51
72.044512999999995
  0
ARC
  8
_0-0_
  6
CONTINUOUS
 62
    7
 10
44.630113239248431
 20
6.2458200282550251
 40
0.0880869999999999
 50
0
 51
51.962063999999991
  0
ARC
  8
_0-0_
  6
CONTINUOUS
 62
    7
 10
44.630113239248431
 20
6.2458200282550251
 40
0.0880869999999999
 50
308.037936
 51
0
  0
ARC
  8
_0-0_
  6
CONTINUOUS
 62
    7
 10
44.341751239248651
 20
6.6144040282548531
 40
0.556068
 50
287.95548700000001
 51
308.037936
  0
ARC
  8
_0-0_
  6
CONTINUOUS
 62
    7
 10
44.147173239248104
 20
7.2148420282547931
 40
1.1872469999999999
 50
277.64514100000002
 51
287.95548700000001
  0
ARC
  8
_0-0_
  6
CONTINUOUS
 62
    7
 10
44.018200239248245
 20
8.1756720282547803
 40
2.1566939999999999
 50
270
 51
277.64514099999997
  0
ARC
  8
_0-0_
  6
CONTINUOUS
 62
    7
 10
38.236647239248441
 20
6.503483028254891
 40
0.05
 50
68.805518000000035
 51
193.93608000000003
  0
ARC
  8
_0-0_
  6
CONTINUOUS
 62
    7
 10
38.87316323924847
 20
9.9418900282545337
 40
3.4692270000000001
 50
265.22567900000001
 51
269.99999999999989
  0
ARC
  8
_0-0_
  6
CONTINUOUS
 62
    7
 10
38.734418239248726
 20
8.2806840282547682
 40
1.8022369999999999
 50
258.59987799999999
 51
265.22567899999996
  0
ARC
  8
_0-0_
  6
CONTINUOUS
 62
    7
 10
38.527106239248269
 20
7.2525460282550966
 40
0.753406
 50
248.80551799999998
 51
258.59987799999999
  0
ARC
  8
_0-0_
  6
CONTINUOUS
 62
    7
 10
38.87316323924847
 20
6.8406850282550522
 40
0.8217079999999996
 50
250.60885199999996
 51
269.99999999999994
  0
ARC
  8
_0-0_
  6
CONTINUOUS
 62
    7
 10
38.834108239248735
 20
6.7297280282547263
 40
0.7040769999999999
 50
229.64346199999997
 51
250.60885199999996
  0
ARC
  8
_0-0_
  6
CONTINUOUS
 62
    7
 10
38.774038239248284
 20
6.6590370282548292
 40
0.611311
 50
205.98682399999998
 51
229.64346200000003
  0
ARC
  8
_0-0_
  6
CONTINUOUS
 62
    7
 10
38.681254239248346
 20
6.6138090282548774
 40
0.50809
 50
193.93608
 51
205.98682399999998
  0
ARC
  8
_0-0_
  6
CONTINUOUS
 62
    7
 10
38.718200239248063
 20
6.4976020282548461
 40
0.5999999999999997
 50
180
 51
268.83299999999997
  0
ARC
  8
_0-0_
  6
CONTINUOUS
 62
    7
 10
47.318200239248426
 20
8.7338120282548743
 40
0.5
 50
271.5
 51
0
  0
ARC
  8
_0-0_
  6
CONTINUOUS
 62
    7
 10
46.718200239248063
 20
7.6177230282547725
 40
0.5999999999999997
 50
91.5
 51
180
  0
ARC
  8
_0-0_
  6
CONTINUOUS
 62
    7
 10
44.085551239248389
 20
10.501218028254357
 40
0.6390259999999997
 50
24.700873999999985
 51
47.996055999999996
  0
ARC
  8
_0-0_
  6
CONTINUOUS
 62
    7
 10
44.223089239248338
 20
7.7677260282549696
 40
0.5296119999999997
 50
32.321736999999999
 51
56.788392000000002
  0
ARC
  8
_0-0_
  6
CONTINUOUS
 62
    7
 10
44.411259239248238
 20
7.8867820282549701
 40
0.3069419999999998
 50
0
 51
32.321736999999985
  0
ARC
  8
_0-0_
  6
CONTINUOUS
 62
    7
 10
44.411259239248238
 20
7.8867820282549701
 40
0.3069419999999998
 50
327.67826300000002
 51
0
  0
ARC
  8
_0-0_
  6
CONTINUOUS
 62
    7
 10
44.223089239248338
 20
8.0058370282550868
 40
0.5296119999999997
 50
303.21160800000001
 51
327.67826300000002
  0
ARC
  8
_0-0_
  6
CONTINUOUS
 62
    7
 10
44.099324239248517
 20
8.194886028255155
 40
0.7555699999999998
 50
285.17223100000001
 51
303.21160800000001
  0
ARC
  8
_0-0_
  6
CONTINUOUS
 62
    7
 10
44.018200239248245
 20
8.4940470282550677
 40
1.065534
 50
270
 51
285.17223100000001
  0
ARC
  8
_0-0_
  6
CONTINUOUS
 62
    7
 10
44.018200239248245
 20
7.2795170282548725
 40
1.065534
 50
74.827768999999989
 51
90
  0
ARC
  8
_0-0_
  6
CONTINUOUS
 62
    7
 10
44.099324239248517
 20
7.5786770282549014
 40
0.7555699999999998
 50
56.788391999999973
 51
74.827768999999989
  0
ARC
  8
_0-0_
  6
CONTINUOUS
 62
    7
 10
44.148860239248052
 20
10.530338028254505
 40
0.5693399999999998
 50
0
 51
24.700873999999999
  0
ARC
  8
_0-0_
  6
CONTINUOUS
 62
    7
 10
44.148860239248052
 20
10.530338028254505
 40
0.5693399999999998
 50
335.299126
 51
0.0000000000000127
  0
ARC
  8
_0-0_
  6
CONTINUOUS
 62
    7
 10
44.085551239248389
 20
10.559458028254653
 40
0.6390259999999997
 50
312.00394399999999
 51
335.299126
  0
ARC
  8
_0-0_
  6
CONTINUOUS
 62
    7
 10
44.044698239248419
 20
10.604824028254484
 40
0.700075
 50
290.45607799999993
 51
312.00394399999993
  0
ARC
  8
_0-0_
  6
CONTINUOUS
 62
    7
 10
44.018200239248245
 20
10.675860028254306
 40
0.775892
 50
270
 51
290.45607799999999
  0
ARC
  8
_0-0_
  6
CONTINUOUS
 62
    7
 10
44.018200239248245
 20
10.384816028254704
 40
0.775892
 50
69.543922000000038
 51
90.000000000000028
  0
ARC
  8
_0-0_
  6
CONTINUOUS
 62
    7
 10
44.044698239248419
 20
10.455852028254526
 40
0.700075
 50
47.996056000000003
 51
69.543921999999981
  0
ARC
  8
_0-0_
  6
CONTINUOUS
 62
    7
 10
44.018200239248245
 20
13.746733028254425
 40
0.6999999999999998
 50
270
 51
90
  0
ARC
  8
_0-0_
  6
CONTINUOUS
 62
    7
 10
47.318200239248426
 20
18.759655028254315
 40
0.5
 50
0
 51
88.499999999999986
  0
ARC
  8
_0-0_
  6
CONTINUOUS
 62
    7
 10
46.718200239248063
 20
19.875743028254533
 40
0.5999999999999997
 50
180
 51
268.5
  0
ARC
  8
_0-0_
  6
CONTINUOUS
 62
    7
 10
45.418200239248335
 20
21.032329028254594
 40
0.6999999999999998
 50
0
 51
91.166999999999973
  0
ARC
  8
_0-0_
  6
CONTINUOUS
 62
    7
 10
44.044698239248419
 20
17.037614028254325
 40
0.700075
 50
290.45607799999993
 51
312.00394399999993
  0
ARC
  8
_0-0_
  6
CONTINUOUS
 62
    7
 10
44.018200239248245
 20
17.108651028254485
 40
0.775892
 50
270
 51
290.45607799999999
  0
ARC
  8
_0-0_
  6
CONTINUOUS
 62
    7
 10
44.018200239248245
 20
16.817606028254545
 40
0.775892
 50
69.543922000000038
 51
90.000000000000028
  0
ARC
  8
_0-0_
  6
CONTINUOUS
 62
    7
 10
44.044698239248419
 20
16.888643028254705
 40
0.700075
 50
47.996056000000003
 51
69.543921999999981
  0
ARC
  8
_0-0_
  6
CONTINUOUS
 62
    7
 10
44.085551239248389
 20
16.934008028254652
 40
0.6390259999999997
 50
24.700873999999985
 51
47.996055999999996
  0
ARC
  8
_0-0_
  6
CONTINUOUS
 62
    7
 10
44.148860239248052
 20
16.963128028254346
 40
0.5693399999999998
 50
0
 51
24.700873999999999
  0
ARC
  8
_0-0_
  6
CONTINUOUS
 62
    7
 10
44.148860239248052
 20
16.963128028254346
 40
0.5693399999999998
 50
335.299126
 51
0.0000000000000127
  0
ARC
  8
_0-0_
  6
CONTINUOUS
 62
    7
 10
44.085551239248389
 20
16.992249028254378
 40
0.6390259999999997
 50
312.00394399999999
 51
335.299126
  0
ARC
  8
_0-0_
  6
CONTINUOUS
 62
    7
 10
44.223089239248338
 20
19.725740028254336
 40
0.5296119999999997
 50
303.21160800000001
 51
327.67826300000002
  0
ARC
  8
_0-0_
  6
CONTINUOUS
 62
    7
 10
44.099324239248517
 20
19.914789028254404
 40
0.7555699999999998
 50
285.17223100000001
 51
303.21160800000001
  0
ARC
  8
_0-0_
  6
CONTINUOUS
 62
    7
 10
44.018200239248245
 20
20.213949028254433
 40
1.065534
 50
270
 51
285.17223100000001
  0
ARC
  8
_0-0_
  6
CONTINUOUS
 62
    7
 10
44.018200239248245
 20
18.999420028254576
 40
1.065534
 50
74.827768999999989
 51
90
  0
ARC
  8
_0-0_
  6
CONTINUOUS
 62
    7
 10
44.099324239248517
 20
19.298580028254605
 40
0.7555699999999998
 50
56.788391999999973
 51
74.827768999999989
  0
ARC
  8
_0-0_
  6
CONTINUOUS
 62
    7
 10
44.223089239248338
 20
19.487629028254673
 40
0.5296119999999997
 50
32.321736999999999
 51
56.788392000000002
  0
ARC
  8
_0-0_
  6
CONTINUOUS
 62
    7
 10
44.411259239248238
 20
19.606685028254674
 40
0.3069419999999998
 50
0
 51
32.321736999999985
  0
ARC
  8
_0-0_
  6
CONTINUOUS
 62
    7
 10
44.411259239248238
 20
19.606685028254674
 40
0.3069419999999998
 50
327.67826300000002
 51
0
  0
ARC
  8
_0-0_
  6
CONTINUOUS
 62
    7
 10
44.018200239248245
 20
19.317794028254525
 40
2.1566939999999999
 50
82.354858999999962
 51
89.999999999999957
  0
ARC
  8
_0-0_
  6
CONTINUOUS
 62
    7
 10
44.147173239248104
 20
20.278625028254396
 40
1.1872469999999999
 50
72.044513000000023
 51
82.354858999999962
  0
ARC
  8
_0-0_
  6
CONTINUOUS
 62
    7
 10
44.341751239248651
 20
20.879063028254336
 40
0.556068
 50
51.962063999999991
 51
72.044512999999995
  0
ARC
  8
_0-0_
  6
CONTINUOUS
 62
    7
 10
44.630113239248431
 20
21.24764602825428
 40
0.0880869999999999
 50
0
 51
51.962063999999991
  0
ARC
  8
_0-0_
  6
CONTINUOUS
 62
    7
 10
44.630113239248431
 20
21.24764602825428
 40
0.0880869999999999
 50
308.037936
 51
0
  0
ARC
  8
_0-0_
  6
CONTINUOUS
 62
    7
 10
44.341751239248651
 20
21.616229028254679
 40
0.556068
 50
287.95548700000001
 51
308.037936
  0
ARC
  8
_0-0_
  6
CONTINUOUS
 62
    7
 10
44.147173239248104
 20
22.216667028254619
 40
1.1872469999999999
 50
277.64514100000002
 51
287.95548700000001
  0
ARC
  8
_0-0_
  6
CONTINUOUS
 62
    7
 10
44.018200239248245
 20
23.17749802825449
 40
2.1566939999999999
 50
270
 51
277.64514099999997
  0
ARC
  8
_0-0_
  6
CONTINUOUS
 62
    7
 10
38.488101239248635
 20
10.696208028254318
 40
0.314938
 50
148.026814
 51
180
  0
ARC
  8
_0-0_
  6
CONTINUOUS
 62
    7
 10
38.964331239248395
 20
8.1731470282549026
 40
0.7911679999999997
 50
182.05160900000001
 51
201.27517900000001
  0
ARC
  8
_0-0_
  6
CONTINUOUS
 62
    7
 10
38.87316323924847
 20
8.0875940282550118
 40
0.6590819999999999
 50
246.220483
 51
270
  0
ARC
  8
_0-0_
  6
CONTINUOUS
 62
    7
 10
38.891458239248323
 20
8.1291140282547758
 40
0.704453
 50
223.23029100000002
 51
246.220483
  0
ARC
  8
_0-0_
  6
CONTINUOUS
 62
    7
 10
38.919892239248611
 20
8.1558430282549352
 40
0.743479
 50
201.27517900000001
 51
223.23029099999999
  0
ARC
  8
_0-0_
  6
CONTINUOUS
 62
    7
 10
38.273606239248465
 20
8.1484040282549586
 40
0.1
 50
118.112058
 51
182.05160900000001
  0
ARC
  8
_0-0_
  6
CONTINUOUS
 62
    7
 10
38.533662239248542
 20
7.6616090282551568
 40
0.651904
 50
103.79752900000001
 51
118.112058
  0
ARC
  8
_0-0_
  6
CONTINUOUS
 62
    7
 10
38.737413239248554
 20
6.8319310282550987
 40
1.5062340000000001
 50
95.808244000000016
 51
103.79752900000003
  0
ARC
  8
_0-0_
  6
CONTINUOUS
 62
    7
 10
38.87316323924847
 20
5.4974010282550125
 40
2.8476509999999999
 50
90
 51
95.808244000000002
  0
ARC
  8
_0-0_
  6
CONTINUOUS
 62
    7
 10
38.87316323924847
 20
10.517711028254439
 40
0.617743
 50
244.77195699999999
 51
270
  0
ARC
  8
_0-0_
  6
CONTINUOUS
 62
    7
 10
38.913877239248677
 20
10.604122028254665
 40
0.713265
 50
221.31972000000002
 51
244.77195699999999
  0
ARC
  8
_0-0_
  6
CONTINUOUS
 62
    7
 10
38.977388239248057
 20
10.659957028254325
 40
0.79783
 50
200.00900200000001
 51
221.31971999999999
  0
ARC
  8
_0-0_
  6
CONTINUOUS
 62
    7
 10
39.076940239248643
 20
10.696208028254318
 40
0.903777
 50
180
 51
200.00900200000001
  0
ARC
  8
_0-0_
  6
CONTINUOUS
 62
    7
 10
38.67253423924808
 20
10.581082028254627
 40
0.5323529999999998
 50
123.56710199999999
 51
148.026814
  0
ARC
  8
_0-0_
  6
CONTINUOUS
 62
    7
 10
38.79374123924822
 20
10.39842302825457
 40
0.751569
 50
105.368801
 51
123.56710200000002
  0
ARC
  8
_0-0_
  6
CONTINUOUS
 62
    7
 10
38.87316323924847
 20
10.109468028254582
 40
1.05124
 50
90
 51
105.368801
  0
ARC
  8
_0-0_
  6
CONTINUOUS
 62
    7
 10
38.87316323924847
 20
13.746733028254425
 40
0.6999999999999998
 50
90
 51
270
  0
ARC
  8
_0-0_
  6
CONTINUOUS
 62
    7
 10
38.67253423924808
 20
16.912385028254562
 40
0.5323529999999998
 50
211.973186
 51
236.43289800000002
  0
ARC
  8
_0-0_
  6
CONTINUOUS
 62
    7
 10
38.87316323924847
 20
17.383999028254607
 40
1.05124
 50
254.63119899999998
 51
269.99999999999994
  0
ARC
  8
_0-0_
  6
CONTINUOUS
 62
    7
 10
38.79374123924822
 20
17.09504402825462
 40
0.751569
 50
236.43289800000002
 51
254.63119899999998
  0
ARC
  8
_0-0_
  6
CONTINUOUS
 62
    7
 10
39.076940239248643
 20
16.797258028254532
 40
0.903777
 50
159.99099799999996
 51
179.99999999999997
  0
ARC
  8
_0-0_
  6
CONTINUOUS
 62
    7
 10
38.977388239248057
 20
16.833510028254409
 40
0.79783
 50
138.68028000000001
 51
159.99099799999999
  0
ARC
  8
_0-0_
  6
CONTINUOUS
 62
    7
 10
38.913877239248677
 20
16.889345028254525
 40
0.713265
 50
115.228043
 51
138.68028000000001
  0
ARC
  8
_0-0_
  6
CONTINUOUS
 62
    7
 10
38.87316323924847
 20
16.975755028254412
 40
0.617743
 50
90
 51
115.228043
  0
ARC
  8
_0-0_
  6
CONTINUOUS
 62
    7
 10
38.488101239248635
 20
16.797258028254532
 40
0.314938
 50
180
 51
211.973186
  0
ARC
  8
_0-0_
  6
CONTINUOUS
 62
    7
 10
37.846903239248377
 20
19.946733028254698
 40
0.5999999999999997
 50
90
 51
177.62157999999999
  0
ARC
  8
_0-0_
  6
CONTINUOUS
 62
    7
 10
38.273606239248465
 20
19.345063028254685
 40
0.1
 50
177.94839099999999
 51
241.88794200000001
  0
ARC
  8
_0-0_
  6
CONTINUOUS
 62
    7
 10
38.87316323924847
 20
21.996066028254631
 40
2.8476509999999999
 50
264.191756
 51
270.00000000000006
  0
ARC
  8
_0-0_
  6
CONTINUOUS
 62
    7
 10
38.737413239248554
 20
20.661536028254545
 40
1.5062340000000001
 50
256.20247099999995
 51
264.19175599999994
  0
ARC
  8
_0-0_
  6
CONTINUOUS
 62
    7
 10
38.533662239248542
 20
19.831858028254487
 40
0.651904
 50
241.88794200000001
 51
256.202471
  0
ARC
  8
_0-0_
  6
CONTINUOUS
 62
    7
 10
38.964331239248395
 20
19.320319028254403
 40
0.7911679999999997
 50
158.72482099999999
 51
177.94839099999999
  0
ARC
  8
_0-0_
  6
CONTINUOUS
 62
    7
 10
38.919892239248611
 20
19.33762302825437
 40
0.743479
 50
136.76970899999995
 51
158.72482099999999
  0
ARC
  8
_0-0_
  6
CONTINUOUS
 62
    7
 10
38.891458239248323
 20
19.364353028254413
 40
0.704453
 50
113.779517
 51
136.76970899999998
  0
ARC
  8
_0-0_
  6
CONTINUOUS
 62
    7
 10
38.87316323924847
 20
19.405873028254632
 40
0.6590819999999999
 50
90
 51
113.779517
  0
ARC
  8
_0-0_
  6
CONTINUOUS
 62
    7
 10
38.718200239248063
 20
20.995865028254343
 40
0.5999999999999997
 50
91.167000000000016
 51
180
  0
ARC
  8
_0-0_
  6
CONTINUOUS
 62
    7
 10
38.681254239248346
 20
20.879657028254428
 40
0.50809
 50
154.01317599999999
 51
166.06392
  0
ARC
  8
_0-0_
  6
CONTINUOUS
 62
    7
 10
38.774038239248284
 20
20.83443002825436
 40
0.611311
 50
130.356538
 51
154.01317599999999
  0
ARC
  8
_0-0_
  6
CONTINUOUS
 62
    7
 10
38.834108239248735
 20
20.763739028254463
 40
0.7040769999999999
 50
109.39114799999999
 51
130.35653799999997
  0
ARC
  8
_0-0_
  6
CONTINUOUS
 62
    7
 10
38.87316323924847
 20
20.652781028254708
 40
0.8217079999999996
 50
90
 51
109.391148
  0
ARC
  8
_0-0_
  6
CONTINUOUS
 62
    7
 10
38.527106239248269
 20
20.240921028254547
 40
0.753406
 50
101.400122
 51
111.19448200000004
  0
ARC
  8
_0-0_
  6
CONTINUOUS
 62
    7
 10
38.734418239248726
 20
19.212782028254537
 40
1.8022369999999999
 50
94.774321
 51
101.400122
  0
ARC
  8
_0-0_
  6
CONTINUOUS
 62
    7
 10
38.87316323924847
 20
17.551577028254655
 40
3.4692270000000001
 50
90
 51
94.774321
  0
ARC
  8
_0-0_
  6
CONTINUOUS
 62
    7
 10
38.236647239248441
 20
20.989983028254414
 40
0.05
 50
166.06391999999997
 51
291.19448199999999
  0
CIRCLE
  8
_0-0_
  6
CONTINUOUS
 62
    7
 10
13.480053239248036
 20
13.746733028254425
 40
8
  0
ARC
  8
_0-0_
  6
CONTINUOUS
 62
    7
 10
9.3800532392481273
 20
6.6453250282548879
 40
0.6999999999999998
 50
11.654264000000055
 51
108.34573600000003
  0
ARC
  8
_0-0_
  6
CONTINUOUS
 62
    7
 10
12.622919239248176
 20
5.5916540282547658
 40
0.6999999999999998
 50
35.65426400000004
 51
132.34573599999999
  0
ARC
  8
_0-0_
  6
CONTINUOUS
 62
    7
 10
16.670774239248431
 20
7.0699600282547408
 40
0.5999999999999997
 50
239.65426400000001
 51
295.54237499999999
  0
ARC
  8
_0-0_
  6
CONTINUOUS
 62
    7
 10
16.01399223924841
 20
5.9480700282548469
 40
0.6999999999999998
 50
59.654264000000019
 51
156.34573599999999
  0
ARC
  8
_0-0_
  6
CONTINUOUS
 62
    7
 10
14.823214239248273
 20
6.4696520282551546
 40
0.5999999999999997
 50
280.45762500000001
 51
336.34573599999999
  0
ARC
  8
_0-0_
  6
CONTINUOUS
 62
    7
 10
13.679233239248106
 20
6.3494140282547278
 40
0.5999999999999997
 50
215.65426400000001
 51
271.54237499999999
  0
ARC
  8
_0-0_
  6
CONTINUOUS
 62
    7
 10
10.653252239248332
 20
6.9079320282550043
 40
0.5999999999999997
 50
191.65426400000004
 51
247.54237500000005
  0
ARC
  8
_0-0_
  6
CONTINUOUS
 62
    7
 10
11.747236239248423
 20
6.5524750282548894
 40
0.5999999999999997
 50
256.45762500000001
 51
312.34573599999987
  0
CIRCLE
  8
_0-0_
  6
CONTINUOUS
 62
    7
 10
13.480053239248036
 20
13.746733028254425
 40
6.8000000000000007
  0
ARC
  8
_0-0_
  6
CONTINUOUS
 62
    7
 10
6.846113239248325
 20
8.9268940282551057
 40
0.6999999999999998
 50
347.65426400000001
 51
84.345735999999988
  0
ARC
  8
_0-0_
  6
CONTINUOUS
 62
    7
 10
8.116051239248236
 20
8.6489410282548533
 40
0.5999999999999997
 50
167.65426399999996
 51
223.54237499999999
  0
ARC
  8
_0-0_
  6
CONTINUOUS
 62
    7
 10
6.846113239248325
 20
18.566572028254654
 40
0.6999999999999998
 50
275.65426400000001
 51
12.345735999999992
  0
ARC
  8
_0-0_
  6
CONTINUOUS
 62
    7
 10
8.116051239248236
 20
18.844526028254336
 40
0.5999999999999997
 50
136.45762500000001
 51
192.34573600000002
  0
ARC
  8
_0-0_
  6
CONTINUOUS
 62
    7
 10
17.666947239248429
 20
7.6451010282549987
 40
0.5999999999999997
 50
304.45762500000001
 51
0.3457359999999689
  0
ARC
  8
_0-0_
  6
CONTINUOUS
 62
    7
 10
18.966924239248101
 20
7.6529460282550872
 40
0.6999999999999998
 50
83.654263999999984
 51
180.34573599999996
  0
ARC
  8
_0-0_
  6
CONTINUOUS
 62
    7
 10
17.666947239248429
 20
19.848365028254307
 40
0.5999999999999997
 50
359.65426400000001
 51
55.542374999999964
  0
ARC
  8
_0-0_
  6
CONTINUOUS
 62
    7
 10
18.966924239248101
 20
19.840521028254557
 40
0.6999999999999998
 50
179.65426399999998
 51
276.34573599999999
  0
ARC
  8
_0-0_
  6
CONTINUOUS
 62
    7
 10
20.816028239248453
 20
14.718053028254531
 40
0.5999999999999997
 50
311.65426400000001
 51
7.5423749999999972
  0
ARC
  8
_0-0_
  6
CONTINUOUS
 62
    7
 10
20.971126239248179
 20
10.41149302825454
 40
0.6999999999999998
 50
107.65426399999998
 51
204.34573599999999
  0
ARC
  8
_0-0_
  6
CONTINUOUS
 62
    7
 10
19.786729239248189
 20
9.8755790282544922
 40
0.5999999999999997
 50
328.45762500000001
 51
24.345736000000002
  0
ARC
  8
_0-0_
  6
CONTINUOUS
 62
    7
 10
19.110610239248444
 20
8.9449810282550288
 40
0.5999999999999997
 50
263.65426400000001
 51
319.54237499999999
  0
ARC
  8
_0-0_
  6
CONTINUOUS
 62
    7
 10
20.576871239248021
 20
11.650268028254345
 40
0.5999999999999997
 50
287.65426400000001
 51
343.54237499999999
  0
ARC
  8
_0-0_
  6
CONTINUOUS
 62
    7
 10
21.680053239248309
 20
13.746733028254425
 40
0.6999999999999998
 50
131.65426399999998
 51
228.34573600000002
  0
ARC
  8
_0-0_
  6
CONTINUOUS
 62
    7
 10
20.816028239248453
 20
12.775414028254659
 40
0.5999999999999997
 50
352.45762500000001
 51
48.345735999999988
  0
ARC
  8
_0-0_
  6
CONTINUOUS
 62
    7
 10
19.786729239248189
 20
17.617888028254697
 40
0.5999999999999997
 50
335.65426400000001
 51
31.542374999999979
  0
ARC
  8
_0-0_
  6
CONTINUOUS
 62
    7
 10
20.971126239248179
 20
17.081974028254649
 40
0.6999999999999998
 50
155.65426400000004
 51
252.34573600000007
  0
ARC
  8
_0-0_
  6
CONTINUOUS
 62
    7
 10
20.576871239248021
 20
15.843199028254389
 40
0.5999999999999997
 50
16.457624999999993
 51
72.34573599999996
  0
ARC
  8
_0-0_
  6
CONTINUOUS
 62
    7
 10
19.110610239248444
 20
18.548486028254615
 40
0.5999999999999997
 50
40.457625000000029
 51
96.345736000000002
  0
CIRCLE
  8
_0-0_
  6
CONTINUOUS
 62
    7
 10
13.480053239248036
 20
13.746733028254425
 40
3.668787
  0
ARC
  8
_0-0_
  6
CONTINUOUS
 62
    7
 10
8.9708772392480114
 20
7.8792520282551095
 40
0.5999999999999997
 50
232.45762500000006
 51
288.34573599999999
  0
ARC
  8
_0-0_
  6
CONTINUOUS
 62
    7
 10
12.622919239248176
 20
21.901813028254423
 40
0.6999999999999998
 50
227.65426400000004
 51
324.34573599999999
  0
ARC
  8
_0-0_
  6
CONTINUOUS
 62
    7
 10
16.670774239248431
 20
20.423506028254565
 40
0.5999999999999997
 50
64.457624999999993
 51
120.34573599999997
  0
ARC
  8
_0-0_
  6
CONTINUOUS
 62
    7
 10
14.823214239248273
 20
21.023815028254489
 40
0.5999999999999997
 50
23.654264000000015
 51
79.542374999999993
  0
ARC
  8
_0-0_
  6
CONTINUOUS
 62
    7
 10
16.01399223924841
 20
21.545397028254342
 40
0.6999999999999998
 50
203.65426400000001
 51
300.34573600000004
  0
ARC
  8
_0-0_
  6
CONTINUOUS
 62
    7
 10
13.679233239248106
 20
21.144052028254578
 40
0.5999999999999997
 50
88.457624999999993
 51
144.34573599999996
  0
ARC
  8
_0-0_
  6
CONTINUOUS
 62
    7
 10
8.9708772392480114
 20
19.614215028254534
 40
0.5999999999999997
 50
71.65426400000004
 51
127.54237500000001
  0
ARC
  8
_0-0_
  6
CONTINUOUS
 62
    7
 10
9.3800532392481273
 20
20.848142028254301
 40
0.6999999999999998
 50
251.65426400000004
 51
348.34573599999999
  0
ARC
  8
_0-0_
  6
CONTINUOUS
 62
    7
 10
11.747236239248423
 20
20.940991028254416
 40
0.5999999999999997
 50
47.654264000000005
 51
103.54237499999998
  0
ARC
  8
_0-0_
  6
CONTINUOUS
 62
    7
 10
10.653252239248332
 20
20.585534028254301
 40
0.5999999999999997
 50
112.45762500000001
 51
168.34573599999999
  0
ARC
  8
_0-0_
  6
CONTINUOUS
 62
    7
 10
6.1024372392482746
 20
14.321874028254683
 40
0.5999999999999997
 50
119.654264
 51
175.54237500000002
  0
ARC
  8
_0-0_
  6
CONTINUOUS
 62
    7
 10
6.9741962392483856
 20
10.220569028254545
 40
0.5999999999999997
 50
208.45762499999992
 51
264.34573599999999
  0
ARC
  8
_0-0_
  6
CONTINUOUS
 62
    7
 10
5.4592422392481694
 20
12.04185702825464
 40
0.6999999999999998
 50
323.65426400000001
 51
60.34573599999996
  0
ARC
  8
_0-0_
  6
CONTINUOUS
 62
    7
 10
6.5063352392483011
 20
11.271404028254551
 40
0.5999999999999997
 50
143.65426399999998
 51
199.54237499999999
  0
ARC
  8
_0-0_
  6
CONTINUOUS
 62
    7
 10
6.1024372392482746
 20
13.171592028254622
 40
0.5999999999999997
 50
184.45762500000004
 51
240.34573599999999
  0
ARC
  8
_0-0_
  6
CONTINUOUS
 62
    7
 10
6.9741962392483856
 20
17.272897028254306
 40
0.5999999999999997
 50
95.654263999999998
 51
151.54237499999999
  0
ARC
  8
_0-0_
  6
CONTINUOUS
 62
    7
 10
5.4592422392481694
 20
15.451609028254666
 40
0.6999999999999998
 50
299.65426400000001
 51
36.345735999999974
  0
ARC
  8
_0-0_
  6
CONTINUOUS
 62
    7
 10
6.5063352392483011
 20
16.2220620282543
 40
0.5999999999999997
 50
160.45762499999998
 51
216.34573600000007
  0
LINE
  8
_0-0_
  6
CONTINUOUS
 62
    7
 10
53.771982239248473
 20
11.746733028254425
 11
48.118200239248608
 21
11.746733028254425
  0
LINE
  8
_0-0_
  6
CONTINUOUS
 62
    7
 10
54.118200239248608
 20
12.096733028254334
 11
53.771982239248473
 21
11.746733028254425
  0
LINE
  8
_0-0_
  6
CONTINUOUS
 62
    7
 10
53.771982239248473
 20
15.746733028254425
 11
54.118200239248608
 21
15.396733028254516
  0
LINE
  8
_0-0_
  6
CONTINUOUS
 62
    7
 10
54.118200239248608
 20
15.396733028254516
 11
54.118200239248608
 21
12.096733028254334
  0
LINE
  8
_0-0_
  6
CONTINUOUS
 62
    7
 10
48.118200239248608
 20
15.746733028254425
 11
53.771982239248473
 21
15.746733028254425
  0
LINE
  8
_0-1_
  6
CONTINUOUS
 62
  152
 10
48.911982239248346
 20
11.746733028254425
 11
49.518200239248245
 21
12.096733028254334
  0
LINE
  8
_0-1_
  6
CONTINUOUS
 62
  152
 10
49.518200239248245
 20
11.746733028254425
 11
49.518200239248245
 21
15.746733028254425
  0
LINE
  8
_0-1_
  6
CONTINUOUS
 62
  152
 10
49.518200239248245
 20
15.396733028254516
 11
48.911982239248346
 21
15.746733028254425
  0
LINE
  8
_0-1_
  6
CONTINUOUS
 62
  152
 10
49.518200239248245
 20
12.096733028254334
 11
54.118200239248608
 21
12.096733028254334
  0
LINE
  8
_0-1_
  6
CONTINUOUS
 62
  152
 10
54.118200239248608
 20
15.396733028254516
 11
49.518200239248245
 21
15.396733028254516
  0
LINE
  8
_0-1_
  6
CONTINUOUS
 62
  152
 10
53.771982239248473
 20
11.746733028254425
 11
53.771982239248473
 21
15.746733028254425
  0
LINE
  8
_0-1_
  6
CENTER1
 62
  152
 10
55.118200239248608
 20
13.746733028254425
 11
36.118200239248608
 21
13.746733028254425
  0
LINE
  8
_0-1_
  6
CENTER1
 62
  152
 10
22.480053239248036
 20
13.746733028254425
 11
4.4800532392480363
 21
13.746733028254425
  0
LINE
  8
_0-1_
  6
CENTER1
 62
  152
 10
13.480053239248036
 20
4.7467330282548801
 11
13.480053239248036
 21
22.746733028254425
  0
CIRCLE
  8
_0-1_
  6
CONTINUOUS
 62
  152
 10
13.480053239248036
 20
13.746733028254425
 40
3
  0
ENDSEC
  0
EOF
