  0
SECTION
  2
HEADER
  9
$ACADVER
  1
AC1009
  9
$INSBASE
 10
0
 20
0
 30
0
  9
$EXTMIN
 10
0
 20
0
  9
$EXTMAX
 10
1189
 20
841
  9
$LIMMIN
 10
0
 20
0
  9
$LIMMAX
 10
1189
 20
841
  9
$LTSCALE
 40
1
  0
ENDSEC
  0
SECTION
  2
TABLES
  0
TABLE
  2
LTYPE
 70
     9
  0
LTYPE
  2
CONTINUOUS
 70
    64
  3
実線
 72
    65
 73
     0
 40
0.0
  0
LTYPE
  2
DASHED1
 70
    64
  3
--  --  --  --  --  --  --  --  
 72
    65
 73
     2
 40
2.5
 49
1.25
 49
-1.25
  0
LTYPE
  2
DASHED2
 70
    64
  3
----    ----    ----    ----    
 72
    65
 73
     2
 40
5.0
 49
2.5
 49
-2.5
  0
LTYPE
  2
DASHED3
 70
    64
  3
------  ------  ------  ------  
 72
    65
 73
     2
 40
5.0
 49
3.75
 49
-1.25
  0
LTYPE
  2
CENTER1
 70
    64
  3
----- - ----- - ----- - ----- - 
 72
    65
 73
     4
 40
10.0
 49
6.25
 49
-1.25
 49
1.25
 49
-1.25
  0
LTYPE
  2
CENTER2
 70
    64
  3
----------  --  ----------  --  
 72
    65
 73
     4
 40
20.0
 49
12.5
 49
-2.5
 49
2.5
 49
-2.5
  0
LTYPE
  2
PHANTOM1
 70
    64
  3
--- - - --- - - --- - - --- - - 
 72
    65
 73
     6
 40
10.0
 49
3.25
 49
-1.25
 49
1.25
 49
-1.25
 49
1.25
 49
-1.25
  0
LTYPE
  2
PHANTOM2
 70
    64
  3
--------  -  -  --------  -  -  
 72
    65
 73
     6
 40
20.0
 49
10.0
 49
-2.5
 49
1.25
 49
-2.5
 49
1.25
 49
-2.5
  0
LTYPE
  2
DOT
 70
    64
  3
-   -   -   -   -   -   -   -   
 72
    65
 73
     2
 40
2.5
 49
0.625
 49
-1.875
  0
LTYPE
  2
DUMMY
 70
    64
  3
ダミー
 72
    65
 73
     0
 40
0.0
  0
LTYPE
  2
RAND1
 70
    64
  3
ランダム線1
 72
    65
 73
     4
 40
10.0
 49
1.0
 49
-2.0
 49
3.0
 49
-4.0
  0
LTYPE
  2
RAND2
 70
    64
  3
ランダム線2
 72
    65
 73
     4
 40
14.0
 49
2.0
 49
-3.0
 49
4.0
 49
-5.0
  0
LTYPE
  2
RAND3
 70
    64
  3
ランダム線3
 72
    65
 73
     4
 40
18.0
 49
3.0
 49
-4.0
 49
5.0
 49
-6.0
  0
LTYPE
  2
RAND4
 70
    64
  3
ランダム線4
 72
    65
 73
     4
 40
22.0
 49
4.0
 49
-5.0
 49
6.0
 49
-7.0
  0
LTYPE
  2
RAND5
 70
    64
  3
ランダム線5
 72
    65
 73
     4
 40
26.0
 49
5.0
 49
-6.0
 49
7.0
 49
-8.0
  0
LTYPE
  2
LONG1
 70
    64
  3
----------  --  ----------  --  
 72
    65
 73
     4
 40
40.0
 49
32.5
 49
-2.5
 49
2.5
 49
-2.5
  0
LTYPE
  2
LONG2
 70
    64
  3
--------  -  -  --------  -  -  
 72
    65
 73
     6
 40
40.0
 49
30.0
 49
-2.5
 49
1.25
 49
-2.5
 49
1.25
 49
-2.5
  0
LTYPE
  2
LONG3
 70
    64
  3
+++++++++++++++..+++++++++++++++
 72
    65
 73
     2
 40
40.0
 49
37.5
 49
-2.5
  0
LTYPE
  2
LONG4
 70
    64
  3
+++++++++++++++..+++++++++++++++
 72
    65
 73
     2
 40
80.0
 49
75.0
 49
-5.0
  0
LTYPE
  2
LONG5
 70
    64
  3
----------  --  ----------  --  
 72
    65
 73
     4
 40
60.0
 49
37.5
 49
-7.5
 49
7.5
 49
-7.5
  0
LTYPE
  2
dashed
 70
   64
  3
-------   -------------   ------
 72
   65
 73
    2
 40
7.5
 49
6
 49
-1.5
  0
LTYPE
  2
dashed_spaced
 70
   64
  3
----        --------        ----
 72
   65
 73
    2
 40
12
 49
6
 49
-6
  0
LTYPE
  2
long_dashed_dotted
 70
   64
  3
------------- --- --------------
 72
   65
 73
    4
 40
15.25
 49
12
 49
-1.5
 49
0.25
 49
-1.5
  0
LTYPE
  2
long_dashed_double-dotted
 70
   64
  3
----------- --- --- ------------
 72
   65
 73
    6
 40
17
 49
12
 49
-1.5
 49
0.25
 49
-1.5
 49
0.25
 49
-1.5
  0
LTYPE
  2
long_dashed_triplicate-dotted
 70
   64
  3
--------- --- --- --- ----------
 72
   65
 73
    8
 40
18.75
 49
12
 49
-1.5
 49
0.25
 49
-1.5
 49
0.25
 49
-1.5
 49
0.25
 49
-1.5
  0
LTYPE
  2
dotted
 70
   64
  3
   -       -       -       -    
 72
   65
 73
    2
 40
1.75
 49
0.25
 49
-1.5
  0
LTYPE
  2
chain
 70
   64
  3
-------------- -- --------------
 72
   65
 73
    4
 40
18.5
 49
12
 49
-1.5
 49
3.5
 49
-1.5
  0
LTYPE
  2
chain_double_dash
 70
   64
  3
------------ -- -- -------------
 72
   65
 73
    6
 40
23.5
 49
12
 49
-1.5
 49
3.5
 49
-1.5
 49
3.5
 49
-1.5
  0
LTYPE
  2
dashed_dotted
 70
   64
  3
-----------     -     ----------
 72
   65
 73
    4
 40
9.25
 49
6
 49
-1.5
 49
0.25
 49
-1.5
  0
LTYPE
  2
double-dashed_dotted
 70
   64
  3
------   -----------   -   -----
 72
   65
 73
    6
 40
16.75
 49
6
 49
-1.5
 49
6
 49
-1.5
 49
0.25
 49
-1.5
  0
LTYPE
  2
dashed_double-dotted
 70
   64
  3
---------    -    -    ---------
 72
   65
 73
    6
 40
11
 49
6
 49
-1.5
 49
0.25
 49
-1.5
 49
0.25
 49
-1.5
  0
LTYPE
  2
double-dashed_double-dotted
 70
   64
  3
-----   ---------   -   -   ----
 72
   65
 73
    8
 40
18.5
 49
6
 49
-1.5
 49
6
 49
-1.5
 49
0.25
 49
-1.5
 49
0.25
 49
-1.5
  0
LTYPE
  2
dashed_triplicate-dotted
 70
   64
  3
-------    -    -    -    ------
 72
   65
 73
    8
 40
12.75
 49
6
 49
-1.5
 49
0.25
 49
-1.5
 49
0.25
 49
-1.5
 49
0.25
 49
-1.5
  0
LTYPE
  2
double-dashed_triplicate-dotted
 70
   64
  3
-----  ---------  -  -  -  -----
 72
   65
 73
   10
 40
20.25
 49
6
 49
-1.5
 49
6
 49
-1.5
 49
0.25
 49
-1.5
 49
0.25
 49
-1.5
 49
0.25
 49
-1.5
  0
LTYPE
  2
undefined
 70
   64
  3
--------------------------------
 72
   65
 73
    0
 40
0
  0
ENDTAB
  0
TABLE
  2
STYLE
  5
3
100
AcDbSymbolTable
 70
     1
  0
STYLE
  5
10
100
AcDbSymbolTableRecord
100
AcDbTextStyleTableRecord
  2
STANDARD
 70
     0
 40
0.0
 41
1.0
 50
0.0
 71
     0
 42
0.2
  3
txt
  4
bigfont.shx
  0
STYLE
  5
26
100
AcDbSymbolTableRecord
100
AcDbTextStyleTableRecord
  2
TATEGAKI
 70
    68
 40
0.0
 41
1.0
 50
0.0
 71
     0
 42
1.0
  3
txt
  4
bigfont.shx
  0
ENDTAB
  0
TABLE
  2
LAYER
 70
    4
  0
LAYER
  2
_0-0_
 70
   64
 62
    7
  6
CONTINUOUS
  0
LAYER
  2
_0-1_
 70
   64
 62
    7
  6
CONTINUOUS
  0
LAYER
  2
_0-f_
 70
   64
 62
    7
  6
CONTINUOUS
  0
LAYER
  2
ADD_LINE
 70
   64
 62
    7
  6
CONTINUOUS
  0
ENDTAB
  0
ENDSEC
  0
SECTION
  2
BLOCKS
  0
ENDSEC
  0
SECTION
  2
ENTITIES
  0
TEXT
  8
_0-f_
 62
    7
 10
3.7908412670253711
 20
3.392231552112662
 40
4.2999999999999998
 41
0.744186046511628
 50
0
  1
HAHH
  0
LINE
  8
_0-0_
  6
CONTINUOUS
 62
    7
 10
295.07685279978693
 20
184.17630134911005
 11
204.07685279978648
 21
184.17630134911005
  0
LINE
  8
_0-0_
  6
CONTINUOUS
 62
    7
 10
204.07685279978648
 20
184.17630134911005
 11
204.07685279978648
 21
139.17630134910985
  0
LINE
  8
_0-0_
  6
CONTINUOUS
 62
    7
 10
204.07685279978648
 20
139.17630134910985
 11
295.07685279978693
 21
139.17630134910985
  0
LINE
  8
_0-0_
  6
CONTINUOUS
 62
    7
 10
295.07685279978693
 20
139.17630134910985
 11
295.07685279978693
 21
184.17630134911005
  0
CIRCLE
  8
_0-0_
  6
CONTINUOUS
 62
    7
 10
199.57685279978648
 20
161.67630134910985
 40
3
  0
CIRCLE
  8
_0-0_
  6
CONTINUOUS
 62
    7
 10
299.57685279978693
 20
161.67630134910985
 40
3
  0
LINE
  8
_0-0_
  6
CONTINUOUS
 62
    7
 10
23.677072859783152
 20
31.992696003099866
 11
23.677072859783152
 21
54.992696003099866
  0
LINE
  8
_0-0_
  6
CONTINUOUS
 62
    7
 10
26.177072859783152
 20
57.492696003099866
 11
107.17707285978224
 21
57.492696003099866
  0
LINE
  8
_0-0_
  6
CONTINUOUS
 62
    7
 10
109.67707285978224
 20
54.992696003099866
 11
109.67707285978224
 21
31.992696003099866
  0
LINE
  8
_0-0_
  6
CONTINUOUS
 62
    7
 10
107.17707285978224
 20
29.492696003099866
 11
26.177072859783152
 21
29.492696003099866
  0
LINE
  8
_0-0_
  6
CONTINUOUS
 62
    7
 10
6.6770728597831521
 20
13.492696003099866
 11
126.67707285978315
 21
13.492696003099866
  0
LINE
  8
_0-0_
  6
CONTINUOUS
 62
    7
 10
126.67707285978315
 20
13.492696003099866
 11
126.67707285978315
 21
73.492696003099866
  0
LINE
  8
_0-0_
  6
CONTINUOUS
 62
    7
 10
126.67707285978315
 20
73.492696003099866
 11
6.6770728597831521
 21
73.492696003099866
  0
LINE
  8
_0-0_
  6
CONTINUOUS
 62
    7
 10
6.6770728597831521
 20
73.492696003099866
 11
6.6770728597831521
 21
13.492696003099866
  0
ARC
  8
_0-0_
  6
CONTINUOUS
 62
    7
 10
26.177072859783152
 20
54.992696003099866
 40
2.5
 50
90
 51
180
  0
ARC
  8
_0-0_
  6
CONTINUOUS
 62
    7
 10
26.177072859783152
 20
31.992696003099866
 40
2.5
 50
180
 51
270
  0
ARC
  8
_0-0_
  6
CONTINUOUS
 62
    7
 10
107.17707285978224
 20
31.992696003099866
 40
2.5
 50
270
 51
0
  0
ARC
  8
_0-0_
  6
CONTINUOUS
 62
    7
 10
107.17707285978224
 20
54.992696003099866
 40
2.5
 50
0
 51
90
  0
LINE
  8
_0-0_
  6
CONTINUOUS
 62
    7
 10
24.177072859783152
 20
137.40837057987233
 11
109.17707285978315
 21
137.40837057987233
  0
LINE
  8
_0-0_
  6
CONTINUOUS
 62
    7
 10
111.67707285978315
 20
134.90837057987233
 11
111.67707285978315
 21
124.20837057987228
  0
LINE
  8
_0-0_
  6
CONTINUOUS
 62
    7
 10
114.67707285978315
 20
124.20837057987228
 11
114.67707285978315
 21
131.70837057987228
  0
LINE
  8
_0-0_
  6
CONTINUOUS
 62
    7
 10
114.67707285978315
 20
131.70837057987228
 11
115.37707285978342
 21
132.4083705798721
  0
LINE
  8
_0-0_
  6
CONTINUOUS
 62
    7
 10
115.37707285978342
 20
132.4083705798721
 11
117.97707285978333
 21
132.4083705798721
  0
LINE
  8
_0-0_
  6
CONTINUOUS
 62
    7
 10
117.97707285978333
 20
132.4083705798721
 11
118.67707285978315
 21
131.70837057987228
  0
LINE
  8
_0-0_
  6
CONTINUOUS
 62
    7
 10
118.67707285978315
 20
131.70837057987228
 11
118.67707285978315
 21
124.20837057987228
  0
LINE
  8
_0-0_
  6
CONTINUOUS
 62
    7
 10
125.67707285978315
 20
124.20837057987228
 11
7.6770728597831521
 21
124.20837057987228
  0
LINE
  8
_0-0_
  6
CONTINUOUS
 62
    7
 10
7.4370728597833704
 20
124.12837057987235
 11
6.877072859783425
 21
123.70837057987228
  0
LINE
  8
_0-0_
  6
CONTINUOUS
 62
    7
 10
6.877072859783425
 20
122.9083705798721
 11
7.4370728597833704
 21
122.48837057987248
  0
LINE
  8
_0-0_
  6
CONTINUOUS
 62
    7
 10
7.6770728597831521
 20
122.4083705798721
 11
125.67707285978315
 21
122.4083705798721
  0
LINE
  8
_0-0_
  6
CONTINUOUS
 62
    7
 10
125.91707285978339
 20
122.48837057987248
 11
126.47707285978333
 21
122.9083705798721
  0
LINE
  8
_0-0_
  6
CONTINUOUS
 62
    7
 10
126.47707285978333
 20
123.70837057987228
 11
125.91707285978339
 21
124.12837057987235
  0
LINE
  8
_0-0_
  6
CONTINUOUS
 62
    7
 10
21.677072859783152
 20
124.20837057987228
 11
21.677072859783152
 21
134.90837057987233
  0
LINE
  8
_0-0_
  6
CONTINUOUS
 62
    7
 10
15.377072859783425
 20
132.4083705798721
 11
14.677072859783152
 21
131.70837057987228
  0
LINE
  8
_0-0_
  6
CONTINUOUS
 62
    7
 10
14.677072859783152
 20
131.70837057987228
 11
14.677072859783152
 21
124.20837057987228
  0
LINE
  8
_0-0_
  6
CONTINUOUS
 62
    7
 10
17.977072859783334
 20
132.4083705798721
 11
15.377072859783425
 21
132.4083705798721
  0
LINE
  8
_0-0_
  6
CONTINUOUS
 62
    7
 10
18.677072859783152
 20
131.70837057987228
 11
17.977072859783334
 21
132.4083705798721
  0
LINE
  8
_0-0_
  6
CONTINUOUS
 62
    7
 10
18.677072859783152
 20
131.70837057987228
 11
18.677072859783152
 21
124.20837057987228
  0
ARC
  8
_0-0_
  6
CONTINUOUS
 62
    7
 10
7.1770728597831521
 20
123.30837057987219
 40
0.499999999999909
 50
126.8698976458128
 51
233.13010235418722
  0
ARC
  8
_0-0_
  6
CONTINUOUS
 62
    7
 10
7.6770728597831521
 20
123.80837057987219
 40
0.400000000000091
 50
90
 51
126.86989764582449
  0
ARC
  8
_0-0_
  6
CONTINUOUS
 62
    7
 10
7.6770728597831521
 20
122.80837057987219
 40
0.3999999999998181
 50
233.13010235417551
 51
270
  0
ARC
  8
_0-0_
  6
CONTINUOUS
 62
    7
 10
125.67707285978315
 20
123.80837057987219
 40
0.400000000000091
 50
53.130102354123409
 51
90
  0
ARC
  8
_0-0_
  6
CONTINUOUS
 62
    7
 10
126.17707285978315
 20
123.30837057987219
 40
0.5000000000001818
 50
306.86989764585445
 51
53.130102354145549
  0
ARC
  8
_0-0_
  6
CONTINUOUS
 62
    7
 10
125.67707285978315
 20
122.80837057987219
 40
0.400000000000091
 50
270
 51
306.86989764587662
  0
ARC
  8
_0-0_
  6
CONTINUOUS
 62
    7
 10
24.177072859783152
 20
134.90837057987233
 40
2.5
 50
90
 51
180
  0
ARC
  8
_0-0_
  6
CONTINUOUS
 62
    7
 10
109.17707285978315
 20
134.90837057987233
 40
2.5
 50
0
 51
90
  0
LINE
  8
_0-0_
  6
CONTINUOUS
 62
    7
 10
176.05570046064997
 20
73.292696003100048
 11
176.47570046065005
 21
72.732696003099647
  0
LINE
  8
_0-0_
  6
CONTINUOUS
 62
    7
 10
176.55570046064997
 20
72.492696003099866
 11
176.55570046064997
 21
14.492696003099866
  0
LINE
  8
_0-0_
  6
CONTINUOUS
 62
    7
 10
174.75570046065025
 20
14.492696003099866
 11
174.75570046065025
 21
72.492696003099866
  0
LINE
  8
_0-0_
  6
CONTINUOUS
 62
    7
 10
174.83570046065017
 20
72.732696003099647
 11
175.25570046065025
 21
73.292696003100048
  0
LINE
  8
_0-0_
  6
CONTINUOUS
 62
    7
 10
176.55570046064997
 20
65.492696003099866
 11
187.44744170786237
 21
64.670254368698863
  0
LINE
  8
_0-0_
  6
CONTINUOUS
 62
    7
 10
189.75570046065025
 20
62.177618154944923
 11
189.75570046065025
 21
24.807773851254808
  0
LINE
  8
_0-0_
  6
CONTINUOUS
 62
    7
 10
187.44744170786237
 20
22.315137637500868
 11
176.55570046064997
 21
21.492696003099866
  0
LINE
  8
_0-0_
  6
CONTINUOUS
 62
    7
 10
176.55570046064997
 20
41.492696003099866
 11
184.05570046064997
 21
41.492696003099866
  0
LINE
  8
_0-0_
  6
CONTINUOUS
 62
    7
 10
184.05570046064997
 20
41.492696003099866
 11
184.75570046065025
 21
42.192696003099684
  0
LINE
  8
_0-0_
  6
CONTINUOUS
 62
    7
 10
184.75570046065025
 20
42.192696003099684
 11
184.75570046065025
 21
44.792696003100048
  0
LINE
  8
_0-0_
  6
CONTINUOUS
 62
    7
 10
184.75570046065025
 20
44.792696003100048
 11
184.05570046064997
 21
45.492696003099866
  0
LINE
  8
_0-0_
  6
CONTINUOUS
 62
    7
 10
184.05570046064997
 20
45.492696003099866
 11
176.55570046064997
 21
45.492696003099866
  0
ARC
  8
_0-0_
  6
CONTINUOUS
 62
    7
 10
176.15570046065034
 20
72.492696003099866
 40
0.3999999999996362
 50
0
 51
36.869897645870083
  0
ARC
  8
_0-0_
  6
CONTINUOUS
 62
    7
 10
175.65570046065034
 20
72.992696003099866
 40
0.4999999999998179
 50
36.869897645885722
 51
143.13010235414563
  0
ARC
  8
_0-0_
  6
CONTINUOUS
 62
    7
 10
175.15570046065034
 20
72.492696003099866
 40
0.4000000000001364
 50
143.13010235416903
 51
180
  0
ARC
  8
_0-0_
  6
CONTINUOUS
 62
    7
 10
187.25570046065025
 20
62.177618154944923
 40
2.5
 50
0
 51
85.601294644998092
  0
ARC
  8
_0-0_
  6
CONTINUOUS
 62
    7
 10
187.25570046065025
 20
24.807773851254808
 40
2.500000000000234
 50
274.39870535500154
 51
0
  0
LINE
  8
_0-0_
  6
CONTINUOUS
 62
    7
 10
176.05570046064997
 20
13.692696003099684
 11
176.47570046065005
 21
14.252696003100084
  0
LINE
  8
_0-0_
  6
CONTINUOUS
 62
    7
 10
174.83570046065017
 20
14.252696003100084
 11
175.25570046065025
 21
13.692696003099684
  0
ARC
  8
_0-0_
  6
CONTINUOUS
 62
    7
 10
176.15570046065034
 20
14.492696003099866
 40
0.3999999999996362
 50
323.13010235412992
 51
0.0000000000000127
  0
ARC
  8
_0-0_
  6
CONTINUOUS
 62
    7
 10
175.65570046065034
 20
13.992696003099866
 40
0.4999999999998179
 50
216.86989764585437
 51
323.13010235411429
  0
ARC
  8
_0-0_
  6
CONTINUOUS
 62
    7
 10
175.15570046065034
 20
14.492696003099866
 40
0.4000000000001364
 50
180
 51
216.86989764583097
  0
LINE
  8
_0-1_
  6
CENTER1
 62
  152
 10
299.57685279978693
 20
164.67630134910982
 11
299.57685279978693
 21
158.67630134910985
  0
LINE
  8
_0-1_
  6
CENTER1
 62
  152
 10
302.57685279978693
 20
161.67630134910985
 11
196.57685279978648
 21
161.67630134910985
  0
LINE
  8
_0-1_
  6
CENTER1
 62
  152
 10
199.57685279978648
 20
158.67630134910985
 11
199.57685279978648
 21
164.67630134910982
  0
LINE
  8
_0-1_
  6
CENTER1
 62
  152
 10
249.57685279978648
 20
184.17630134911005
 11
249.57685279978648
 21
139.17630134910985
  0
LINE
  8
_0-1_
  6
CENTER1
 62
  152
 10
129.67707285978315
 20
43.492696003099866
 11
3.6770728597831521
 21
43.492696003099866
  0
LINE
  8
_0-1_
  6
CENTER1
 62
  152
 10
66.677072859783152
 20
10.492696003099866
 11
66.677072859783152
 21
76.492696003099866
  0
LINE
  8
_0-1_
  6
CENTER1
 62
  152
 10
66.677072859783152
 20
118.4083705798721
 11
66.677072859783152
 21
141.40837057987233
  0
LINE
  8
_0-1_
  6
CONTINUOUS
 62
  152
 10
117.97707285978333
 20
124.20837057987228
 11
117.97707285978333
 21
132.4083705798721
  0
LINE
  8
_0-1_
  6
CONTINUOUS
 62
  152
 10
118.67707285978315
 20
131.70837057987228
 11
114.67707285978315
 21
131.70837057987228
  0
LINE
  8
_0-1_
  6
CONTINUOUS
 62
  152
 10
115.37707285978342
 20
132.4083705798721
 11
115.37707285978342
 21
124.20837057987228
  0
LINE
  8
_0-1_
  6
CENTER1
 62
  152
 10
116.67707285978315
 20
119.4083705798721
 11
116.67707285978315
 21
134.40837057987233
  0
LINE
  8
_0-1_
  6
CENTER1
 62
  152
 10
16.677072859783152
 20
134.40837057987233
 11
16.677072859783152
 21
119.4083705798721
  0
LINE
  8
_0-1_
  6
CONTINUOUS
 62
  152
 10
15.377072859783425
 20
124.20837057987228
 11
15.377072859783425
 21
132.4083705798721
  0
LINE
  8
_0-1_
  6
CONTINUOUS
 62
  152
 10
17.977072859783334
 20
124.20837057987228
 11
17.977072859783334
 21
132.4083705798721
  0
LINE
  8
_0-1_
  6
CONTINUOUS
 62
  152
 10
14.677072859783152
 20
131.70837057987228
 11
18.677072859783152
 21
131.70837057987228
  0
LINE
  8
_0-1_
  6
CONTINUOUS
 62
  152
 10
176.55570046064997
 20
44.792696003100048
 11
184.75570046065025
 21
44.792696003100048
  0
LINE
  8
_0-1_
  6
CONTINUOUS
 62
  152
 10
184.05570046064997
 20
45.492696003099866
 11
184.05570046064997
 21
41.492696003099866
  0
LINE
  8
_0-1_
  6
CONTINUOUS
 62
  152
 10
184.75570046065025
 20
42.192696003099684
 11
176.55570046064997
 21
42.192696003099684
  0
LINE
  8
_0-1_
  6
CENTER1
 62
  152
 10
171.75570046065025
 20
43.492696003099866
 11
192.75570046065025
 21
43.492696003099866
  0
ENDSEC
  0
EOF
