  0
SECTION
  2
HEADER
  9
$ACADVER
  1
AC1009
  9
$INSBASE
 10
0
 20
0
 30
0
  9
$EXTMIN
 10
0
 20
0
  9
$EXTMAX
 10
1189
 20
841
  9
$LIMMIN
 10
0
 20
0
  9
$LIMMAX
 10
1189
 20
841
  9
$LTSCALE
 40
1
  0
ENDSEC
  0
SECTION
  2
TABLES
  0
TABLE
  2
LTYPE
 70
     9
  0
LTYPE
  2
CONTINUOUS
 70
    64
  3
実線
 72
    65
 73
     0
 40
0.0
  0
LTYPE
  2
DASHED1
 70
    64
  3
--  --  --  --  --  --  --  --  
 72
    65
 73
     2
 40
2.5
 49
1.25
 49
-1.25
  0
LTYPE
  2
DASHED2
 70
    64
  3
----    ----    ----    ----    
 72
    65
 73
     2
 40
5.0
 49
2.5
 49
-2.5
  0
LTYPE
  2
DASHED3
 70
    64
  3
------  ------  ------  ------  
 72
    65
 73
     2
 40
5.0
 49
3.75
 49
-1.25
  0
LTYPE
  2
CENTER1
 70
    64
  3
----- - ----- - ----- - ----- - 
 72
    65
 73
     4
 40
10.0
 49
6.25
 49
-1.25
 49
1.25
 49
-1.25
  0
LTYPE
  2
CENTER2
 70
    64
  3
----------  --  ----------  --  
 72
    65
 73
     4
 40
20.0
 49
12.5
 49
-2.5
 49
2.5
 49
-2.5
  0
LTYPE
  2
PHANTOM1
 70
    64
  3
--- - - --- - - --- - - --- - - 
 72
    65
 73
     6
 40
10.0
 49
3.25
 49
-1.25
 49
1.25
 49
-1.25
 49
1.25
 49
-1.25
  0
LTYPE
  2
PHANTOM2
 70
    64
  3
--------  -  -  --------  -  -  
 72
    65
 73
     6
 40
20.0
 49
10.0
 49
-2.5
 49
1.25
 49
-2.5
 49
1.25
 49
-2.5
  0
LTYPE
  2
DOT
 70
    64
  3
-   -   -   -   -   -   -   -   
 72
    65
 73
     2
 40
2.5
 49
0.625
 49
-1.875
  0
LTYPE
  2
DUMMY
 70
    64
  3
ダミー
 72
    65
 73
     0
 40
0.0
  0
LTYPE
  2
RAND1
 70
    64
  3
ランダム線1
 72
    65
 73
     4
 40
10.0
 49
1.0
 49
-2.0
 49
3.0
 49
-4.0
  0
LTYPE
  2
RAND2
 70
    64
  3
ランダム線2
 72
    65
 73
     4
 40
14.0
 49
2.0
 49
-3.0
 49
4.0
 49
-5.0
  0
LTYPE
  2
RAND3
 70
    64
  3
ランダム線3
 72
    65
 73
     4
 40
18.0
 49
3.0
 49
-4.0
 49
5.0
 49
-6.0
  0
LTYPE
  2
RAND4
 70
    64
  3
ランダム線4
 72
    65
 73
     4
 40
22.0
 49
4.0
 49
-5.0
 49
6.0
 49
-7.0
  0
LTYPE
  2
RAND5
 70
    64
  3
ランダム線5
 72
    65
 73
     4
 40
26.0
 49
5.0
 49
-6.0
 49
7.0
 49
-8.0
  0
LTYPE
  2
LONG1
 70
    64
  3
----------  --  ----------  --  
 72
    65
 73
     4
 40
40.0
 49
32.5
 49
-2.5
 49
2.5
 49
-2.5
  0
LTYPE
  2
LONG2
 70
    64
  3
--------  -  -  --------  -  -  
 72
    65
 73
     6
 40
40.0
 49
30.0
 49
-2.5
 49
1.25
 49
-2.5
 49
1.25
 49
-2.5
  0
LTYPE
  2
LONG3
 70
    64
  3
+++++++++++++++..+++++++++++++++
 72
    65
 73
     2
 40
40.0
 49
37.5
 49
-2.5
  0
LTYPE
  2
LONG4
 70
    64
  3
+++++++++++++++..+++++++++++++++
 72
    65
 73
     2
 40
80.0
 49
75.0
 49
-5.0
  0
LTYPE
  2
LONG5
 70
    64
  3
----------  --  ----------  --  
 72
    65
 73
     4
 40
60.0
 49
37.5
 49
-7.5
 49
7.5
 49
-7.5
  0
LTYPE
  2
dashed
 70
   64
  3
-------   -------------   ------
 72
   65
 73
    2
 40
7.5
 49
6
 49
-1.5
  0
LTYPE
  2
dashed_spaced
 70
   64
  3
----        --------        ----
 72
   65
 73
    2
 40
12
 49
6
 49
-6
  0
LTYPE
  2
long_dashed_dotted
 70
   64
  3
------------- --- --------------
 72
   65
 73
    4
 40
15.25
 49
12
 49
-1.5
 49
0.25
 49
-1.5
  0
LTYPE
  2
long_dashed_double-dotted
 70
   64
  3
----------- --- --- ------------
 72
   65
 73
    6
 40
17
 49
12
 49
-1.5
 49
0.25
 49
-1.5
 49
0.25
 49
-1.5
  0
LTYPE
  2
long_dashed_triplicate-dotted
 70
   64
  3
--------- --- --- --- ----------
 72
   65
 73
    8
 40
18.75
 49
12
 49
-1.5
 49
0.25
 49
-1.5
 49
0.25
 49
-1.5
 49
0.25
 49
-1.5
  0
LTYPE
  2
dotted
 70
   64
  3
   -       -       -       -    
 72
   65
 73
    2
 40
1.75
 49
0.25
 49
-1.5
  0
LTYPE
  2
chain
 70
   64
  3
-------------- -- --------------
 72
   65
 73
    4
 40
18.5
 49
12
 49
-1.5
 49
3.5
 49
-1.5
  0
LTYPE
  2
chain_double_dash
 70
   64
  3
------------ -- -- -------------
 72
   65
 73
    6
 40
23.5
 49
12
 49
-1.5
 49
3.5
 49
-1.5
 49
3.5
 49
-1.5
  0
LTYPE
  2
dashed_dotted
 70
   64
  3
-----------     -     ----------
 72
   65
 73
    4
 40
9.25
 49
6
 49
-1.5
 49
0.25
 49
-1.5
  0
LTYPE
  2
double-dashed_dotted
 70
   64
  3
------   -----------   -   -----
 72
   65
 73
    6
 40
16.75
 49
6
 49
-1.5
 49
6
 49
-1.5
 49
0.25
 49
-1.5
  0
LTYPE
  2
dashed_double-dotted
 70
   64
  3
---------    -    -    ---------
 72
   65
 73
    6
 40
11
 49
6
 49
-1.5
 49
0.25
 49
-1.5
 49
0.25
 49
-1.5
  0
LTYPE
  2
double-dashed_double-dotted
 70
   64
  3
-----   ---------   -   -   ----
 72
   65
 73
    8
 40
18.5
 49
6
 49
-1.5
 49
6
 49
-1.5
 49
0.25
 49
-1.5
 49
0.25
 49
-1.5
  0
LTYPE
  2
dashed_triplicate-dotted
 70
   64
  3
-------    -    -    -    ------
 72
   65
 73
    8
 40
12.75
 49
6
 49
-1.5
 49
0.25
 49
-1.5
 49
0.25
 49
-1.5
 49
0.25
 49
-1.5
  0
LTYPE
  2
double-dashed_triplicate-dotted
 70
   64
  3
-----  ---------  -  -  -  -----
 72
   65
 73
   10
 40
20.25
 49
6
 49
-1.5
 49
6
 49
-1.5
 49
0.25
 49
-1.5
 49
0.25
 49
-1.5
 49
0.25
 49
-1.5
  0
LTYPE
  2
undefined
 70
   64
  3
--------------------------------
 72
   65
 73
    0
 40
0
  0
LTYPE
  2
_
 70
   64
  3
                                
 72
   65
 73
    0
 40
0
  0
LTYPE
  2
__18
 70
   64
  3
                                
 72
   65
 73
    0
 40
0
  0
LTYPE
  2
__19
 70
   64
  3
                                
 72
   65
 73
    0
 40
0
  0
LTYPE
  2
__20
 70
   64
  3
                                
 72
   65
 73
    0
 40
0
  0
LTYPE
  2
__21
 70
   64
  3
                                
 72
   65
 73
    0
 40
0
  0
LTYPE
  2
__22
 70
   64
  3
                                
 72
   65
 73
    0
 40
0
  0
LTYPE
  2
__23
 70
   64
  3
                                
 72
   65
 73
    0
 40
0
  0
LTYPE
  2
__24
 70
   64
  3
                                
 72
   65
 73
    0
 40
0
  0
LTYPE
  2
__25
 70
   64
  3
                                
 72
   65
 73
    0
 40
0
  0
LTYPE
  2
__26
 70
   64
  3
                                
 72
   65
 73
    0
 40
0
  0
LTYPE
  2
__27
 70
   64
  3
                                
 72
   65
 73
    0
 40
0
  0
LTYPE
  2
__28
 70
   64
  3
                                
 72
   65
 73
    0
 40
0
  0
LTYPE
  2
__29
 70
   64
  3
                                
 72
   65
 73
    0
 40
0
  0
LTYPE
  2
__30
 70
   64
  3
                                
 72
   65
 73
    0
 40
0
  0
LTYPE
  2
__31
 70
   64
  3
                                
 72
   65
 73
    0
 40
0
  0
LTYPE
  2
__32
 70
   64
  3
                                
 72
   65
 73
    0
 40
0
  0
ENDTAB
  0
TABLE
  2
STYLE
  5
3
100
AcDbSymbolTable
 70
     1
  0
STYLE
  5
10
100
AcDbSymbolTableRecord
100
AcDbTextStyleTableRecord
  2
STANDARD
 70
     0
 40
0.0
 41
1.0
 50
0.0
 71
     0
 42
0.2
  3
txt
  4
bigfont.shx
  0
STYLE
  5
26
100
AcDbSymbolTableRecord
100
AcDbTextStyleTableRecord
  2
TATEGAKI
 70
    68
 40
0.0
 41
1.0
 50
0.0
 71
     0
 42
1.0
  3
txt
  4
bigfont.shx
  0
ENDTAB
  0
TABLE
  2
LAYER
 70
    5
  0
LAYER
  2
_0-0_
 70
   64
 62
    7
  6
CONTINUOUS
  0
LAYER
  2
_0-1_
 70
   64
 62
    7
  6
CONTINUOUS
  0
LAYER
  2
_0-2_
 70
   64
 62
    7
  6
CONTINUOUS
  0
LAYER
  2
_0-f_
 70
   64
 62
    7
  6
CONTINUOUS
  0
LAYER
  2
ADD_LINE
 70
   64
 62
    7
  6
CONTINUOUS
  0
ENDTAB
  0
ENDSEC
  0
SECTION
  2
BLOCKS
  0
ENDSEC
  0
SECTION
  2
ENTITIES
  0
TEXT
  8
_0-f_
 62
    7
 10
1.9311991528273893
 20
2.0771607447780411
 40
4.2999999999999998
 41
0.744186046511628
 50
0
  1
HABS
  0
LINE
  8
_0-0_
  6
CONTINUOUS
 62
    7
 10
28.323442455680947
 20
69.517077580379748
 11
126.323442455681
 21
69.517077580379748
  0
LINE
  8
_0-0_
  6
CONTINUOUS
 62
    7
 10
126.323442455681
 20
61.517077580379748
 11
28.323442455680947
 21
61.517077580379748
  0
LINE
  8
_0-0_
  6
CONTINUOUS
 62
    7
 10
21.323442455680947
 20
54.517077580379748
 11
21.323442455680947
 21
29.517077580379748
  0
LINE
  8
_0-0_
  6
CONTINUOUS
 62
    7
 10
21.323442455680947
 20
29.517077580379748
 11
13.323442455680947
 21
29.517077580379748
  0
LINE
  8
_0-0_
  6
CONTINUOUS
 62
    7
 10
13.323442455680947
 20
29.517077580379748
 11
13.323442455680947
 21
54.517077580379748
  0
LINE
  8
_0-0_
  6
CONTINUOUS
 62
    7
 10
14.323442455680947
 20
49.517077580379748
 11
20.323442455680947
 21
49.517077580379748
  0
LINE
  8
_0-0_
  6
CONTINUOUS
 62
    7
 10
133.323442455681
 20
29.517077580379748
 11
133.323442455681
 21
54.517077580379748
  0
LINE
  8
_0-0_
  6
CONTINUOUS
 62
    7
 10
134.323442455681
 20
49.517077580379748
 11
140.323442455681
 21
49.517077580379748
  0
LINE
  8
_0-0_
  6
CONTINUOUS
 62
    7
 10
133.323442455681
 20
29.517077580379748
 11
141.323442455681
 21
29.517077580379748
  0
LINE
  8
_0-0_
  6
CONTINUOUS
 62
    7
 10
141.323442455681
 20
29.517077580379748
 11
141.323442455681
 21
54.517077580379748
  0
ARC
  8
_0-0_
  6
CONTINUOUS
 62
    7
 10
126.323442455681
 20
54.517077580379748
 40
7.0000000000000142
 50
0
 51
90
  0
ARC
  8
_0-0_
  6
CONTINUOUS
 62
    7
 10
126.323442455681
 20
54.517077580379748
 40
15.000000000000014
 50
0
 51
90
  0
ARC
  8
_0-0_
  6
CONTINUOUS
 62
    7
 10
28.323442455680947
 20
54.517077580379748
 40
7.0000000000000142
 50
90
 51
180
  0
ARC
  8
_0-0_
  6
CONTINUOUS
 62
    7
 10
28.323442455680947
 20
54.517077580379748
 40
15.000000000000014
 50
90
 51
180
  0
LINE
  8
_0-0_
  6
CONTINUOUS
 62
    7
 10
191.16406210433627
 20
54.312300741682805
 11
199.49204550352181
 21
67.637073580379649
  0
LINE
  8
_0-0_
  6
CONTINUOUS
 62
    7
 10
206.27603184975499
 20
63.39708192306199
 11
197.94804845056944
 21
50.072309084365145
  0
LINE
  8
_0-0_
  6
CONTINUOUS
 62
    7
 10
196.88403650352313
 20
46.362314306474047
 11
196.8840415035221
 21
29.517076580379864
  0
LINE
  8
_0-0_
  6
CONTINUOUS
 62
    7
 10
188.88403650352359
 20
46.362311931916167
 11
188.8840415035221
 21
29.517076580379864
  0
ARC
  8
_0-0_
  6
CONTINUOUS
 62
    7
 10
203.88403650352313
 20
46.362316384211965
 40
7
 50
147.99461563238106
 51
180.00001700651782
  0
ARC
  8
_0-0_
  6
CONTINUOUS
 62
    7
 10
202.88403606048462
 20
65.517075271524675
 40
3.9999999999989608
 50
327.99456699999871
 51
0
  0
ARC
  8
_0-0_
  6
CONTINUOUS
 62
    7
 10
203.88403650352313
 20
46.362316384211965
 40
15
 50
147.99461563238106
 51
180.00001700651782
  0
ARC
  8
_0-0_
  6
CONTINUOUS
 62
    7
 10
202.8840368270686
 20
65.517074792409687
 40
4.0000000000015472
 50
327.99461562999994
 51
147.99456564523609
  0
LINE
  8
_0-0_
  6
CONTINUOUS
 62
    7
 10
188.8840415035221
 20
29.517076580379864
 11
196.8840415035221
 21
29.517076580379864
  0
LINE
  8
_0-0_
  6
CONTINUOUS
 62
    7
 10
137.32344245568055
 20
142.16500313660026
 11
17.323442455680947
 21
142.16500313660026
  0
LINE
  8
_0-0_
  6
CONTINUOUS
 62
    7
 10
13.323442455680947
 20
128.16500313660026
 11
13.323442455680947
 21
138.16500313660026
  0
LINE
  8
_0-0_
  6
CONTINUOUS
 62
    7
 10
141.323442455681
 20
138.16500313660026
 11
141.323442455681
 21
128.16500313660026
  0
LINE
  8
_0-0_
  6
CONTINUOUS
 62
    7
 10
133.323442455681
 20
128.16500313660026
 11
133.323442455681
 21
134.16500313660026
  0
LINE
  8
_0-0_
  6
CONTINUOUS
 62
    7
 10
137.32344245568055
 20
134.16500313660026
 11
17.323442455680947
 21
134.16500313660026
  0
LINE
  8
_0-0_
  6
CONTINUOUS
 62
    7
 10
21.323442455680947
 20
134.16500313660026
 11
21.323442455680947
 21
128.16500313660026
  0
ARC
  8
_0-0_
  6
CONTINUOUS
 62
    7
 10
17.323442455680947
 20
138.16500313660026
 40
4
 50
180
 51
270
  0
ARC
  8
_0-0_
  6
CONTINUOUS
 62
    7
 10
17.323442455680947
 20
138.16500313660026
 40
4
 50
90
 51
180
  0
ARC
  8
_0-0_
  6
CONTINUOUS
 62
    7
 10
137.32344245568055
 20
138.16500313660026
 40
4
 50
0
 51
90
  0
ARC
  8
_0-0_
  6
CONTINUOUS
 62
    7
 10
137.32344245568055
 20
138.16500313660026
 40
4
 50
270
 51
0
  0
ARC
  8
_0-0_
  6
CONTINUOUS
 62
    7
 10
17.323442455680947
 20
128.16500313660026
 40
4
 50
180
 51
0
  0
ARC
  8
_0-0_
  6
CONTINUOUS
 62
    7
 10
137.323442455681
 20
128.16500313660026
 40
4
 50
180
 51
0
  0
LINE
  8
_0-1_
  6
CENTER1
 62
  152
 10
77.323442455680947
 20
29.517076580379864
 11
77.323442455680947
 21
69.517077580379748
  0
LINE
  8
_0-1_
  6
CENTER1
 62
  152
 10
17.323442455680947
 20
47.517077580379748
 11
17.323442455680947
 21
29.517076580379864
  0
LINE
  8
_0-1_
  6
DASHED2
 62
  152
 10
19.281434455680596
 20
29.517076580379864
 11
19.281434455680596
 21
41.579602580380026
  0
LINE
  8
_0-1_
  6
DASHED2
 62
  152
 10
19.281434455680596
 20
41.579602580380026
 11
17.323442455680947
 21
42.579088580379732
  0
LINE
  8
_0-1_
  6
DASHED2
 62
  152
 10
17.323442455680947
 20
42.579088580379732
 11
15.36444245568066
 21
41.579088580379732
  0
LINE
  8
_0-1_
  6
DASHED2
 62
  152
 10
15.36444245568066
 20
41.579088580379732
 11
19.281434455680596
 21
41.579088580379732
  0
LINE
  8
_0-1_
  6
DASHED2
 62
  152
 10
19.281434455680596
 20
39.517076580379864
 11
19.823442455680947
 21
38.579088580379732
  0
LINE
  8
_0-1_
  6
DASHED2
 62
  152
 10
19.823442455680947
 20
38.579088580379732
 11
14.823442455680947
 21
38.579088580379732
  0
LINE
  8
_0-1_
  6
DASHED2
 62
  152
 10
14.823442455680947
 20
38.579088580379732
 11
15.36444245568066
 21
39.517076580379864
  0
LINE
  8
_0-1_
  6
DASHED2
 62
  152
 10
14.823442455680947
 20
38.579088580379732
 11
14.823442455680947
 21
29.517076580379864
  0
LINE
  8
_0-1_
  6
DASHED2
 62
  152
 10
15.36444245568066
 20
29.517076580379864
 11
15.36444245568066
 21
41.579088580379732
  0
LINE
  8
_0-1_
  6
DASHED2
 62
  152
 10
19.823442455680947
 20
38.579088580379732
 11
19.823442455680947
 21
29.517076580379864
  0
LINE
  8
_0-1_
  6
CENTER1
 62
  152
 10
137.323442455681
 20
47.517077580379748
 11
137.323442455681
 21
29.517076580379864
  0
LINE
  8
_0-1_
  6
DASHED2
 62
  152
 10
135.3654504556809
 20
29.517076580379864
 11
135.3654504556809
 21
41.579602580380026
  0
LINE
  8
_0-1_
  6
DASHED2
 62
  152
 10
135.3654504556809
 20
41.579602580380026
 11
137.323442455681
 21
42.579088580379732
  0
LINE
  8
_0-1_
  6
DASHED2
 62
  152
 10
137.323442455681
 20
42.579088580379732
 11
139.28244245568084
 21
41.579088580379732
  0
LINE
  8
_0-1_
  6
DASHED2
 62
  152
 10
139.28244245568084
 20
41.579088580379732
 11
135.3654504556809
 21
41.579088580379732
  0
LINE
  8
_0-1_
  6
DASHED2
 62
  152
 10
135.3654504556809
 20
39.517076580379864
 11
134.823442455681
 21
38.579088580379732
  0
LINE
  8
_0-1_
  6
DASHED2
 62
  152
 10
134.823442455681
 20
38.579088580379732
 11
139.823442455681
 21
38.579088580379732
  0
LINE
  8
_0-1_
  6
DASHED2
 62
  152
 10
139.823442455681
 20
38.579088580379732
 11
139.28244245568084
 21
39.517076580379864
  0
LINE
  8
_0-1_
  6
DASHED2
 62
  152
 10
139.823442455681
 20
38.579088580379732
 11
139.823442455681
 21
29.517076580379864
  0
LINE
  8
_0-1_
  6
DASHED2
 62
  152
 10
139.28244245568084
 20
29.517076580379864
 11
139.28244245568084
 21
41.579088580379732
  0
LINE
  8
_0-1_
  6
DASHED2
 62
  152
 10
134.823442455681
 20
38.579088580379732
 11
134.823442455681
 21
29.517076580379864
  0
LINE
  8
_0-1_
  6
DASHED2
 62
  152
 10
195.38404150352164
 20
29.517076580379864
 11
195.38404150352164
 21
38.579088580379732
  0
LINE
  8
_0-1_
  6
DASHED2
 62
  152
 10
195.38404150352164
 20
38.579088580379732
 11
190.38404150352164
 21
38.579088580379732
  0
LINE
  8
_0-1_
  6
DASHED2
 62
  152
 10
190.38404150352164
 20
38.579088580379732
 11
190.92604950352154
 21
39.517076580379864
  0
LINE
  8
_0-1_
  6
DASHED2
 62
  152
 10
190.38404150352164
 20
38.579088580379732
 11
190.38404150352164
 21
29.517076580379864
  0
LINE
  8
_0-1_
  6
DASHED2
 62
  152
 10
190.92604950352154
 20
29.517076580379864
 11
190.92604950352154
 21
41.579088580379732
  0
LINE
  8
_0-1_
  6
DASHED2
 62
  152
 10
190.92604950352154
 20
41.579088580379732
 11
194.84304150352148
 21
41.579088580379732
  0
LINE
  8
_0-1_
  6
DASHED2
 62
  152
 10
194.84304150352148
 20
41.579088580379732
 11
194.84304150352148
 21
29.517076580379864
  0
LINE
  8
_0-1_
  6
CENTER1
 62
  152
 10
192.8840415035221
 20
29.517076580379864
 11
192.88403650352359
 21
46.362313119195107
  0
LINE
  8
_0-1_
  6
DASHED2
 62
  152
 10
192.88404150352164
 20
42.579088580379732
 11
190.92604950352154
 21
41.579088580379732
  0
LINE
  8
_0-1_
  6
DASHED2
 62
  152
 10
192.88404150352164
 20
42.579088580379732
 11
194.84304150352148
 21
41.579088580379732
  0
LINE
  8
_0-1_
  6
DASHED2
 62
  152
 10
194.84304150352148
 20
39.517076580379864
 11
195.38404150352164
 21
38.579088580379732
  0
LINE
  8
_0-1_
  6
CENTER1
 62
  152
 10
77.323442455680947
 20
134.16500313660026
 11
77.323442455680947
 21
142.16500313660026
  0
LINE
  8
_0-1_
  6
CENTER1
 62
  152
 10
17.323442455680947
 20
142.16500313660026
 11
17.323442455680947
 21
124.16500313660026
  0
LINE
  8
_0-1_
  6
CENTER1
 62
  152
 10
13.323442455680947
 20
138.16500313660026
 11
141.323442455681
 21
138.16500313660026
  0
LINE
  8
_0-1_
  6
CENTER1
 62
  152
 10
141.323442455681
 20
128.16500313660026
 11
133.323442455681
 21
128.16500313660026
  0
LINE
  8
_0-1_
  6
CENTER1
 62
  152
 10
21.323442455680947
 20
128.16500313660026
 11
13.323442455680947
 21
128.16500313660026
  0
LINE
  8
_0-1_
  6
CENTER1
 62
  152
 10
137.32344245568055
 20
124.16500313660026
 11
137.32344245568055
 21
142.16500313660026
  0
LINE
  8
_0-2_
  6
CONTINUOUS
 62
  152
 10
143.22344255104844
 20
24.169349818085095
 11
131.42344236031357
 21
24.169349818085095
  0
LINE
  8
ADD_LINE
  6
DOT
 62
    9
 10
137.323442455681
 20
24.517076580379864
 11
136.61633567449434
 21
25.224183361566531
  0
LINE
  8
ADD_LINE
  6
DOT
 62
    9
 10
137.323442455681
 20
24.517076580379864
 11
138.03054923686767
 21
25.224183361566531
  0
LINE
  8
_0-2_
  6
CONTINUOUS
 62
   56
 10
143.22344255104844
 20
24.169349818085095
 11
143.22344255104844
 21
24.517076580379864
  0
LINE
  8
_0-2_
  6
CONTINUOUS
 62
   56
 10
131.42344236031357
 20
24.169349818085095
 11
131.42344236031357
 21
24.517076580379864
  0
ARC
  8
_0-2_
  6
CONTINUOUS
 62
   56
 10
137.323442455681
 20
29.117076485012433
 40
7.6999998092651367
 50
219.98310852050784
 51
320.01687622070312
  0
LINE
  8
_0-2_
  6
CONTINUOUS
 62
   56
 10
143.22344255104844
 20
24.517076580385094
 11
131.42344236031357
 21
24.517076580385094
  0
LINE
  8
_0-2_
  6
CONTINUOUS
 62
  152
 10
139.47344255104844
 20
24.517076580379864
 11
139.47344255104844
 21
32.517077580379748
  0
LINE
  8
_0-2_
  6
CONTINUOUS
 62
  152
 10
135.17344236031357
 20
24.517076580379864
 11
135.17344236031357
 21
32.517077580379748
  0
LINE
  8
_0-2_
  6
CONTINUOUS
 62
  152
 10
134.823442455681
 20
32.167077198910022
 11
139.823442455681
 21
32.167077198910022
  0
LINE
  8
_0-2_
  6
CONTINUOUS
 62
   56
 10
139.823442455681
 20
24.517076580379864
 11
139.823442455681
 21
32.167077198910022
  0
LINE
  8
_0-2_
  6
CONTINUOUS
 62
   56
 10
139.47344255104844
 20
32.517077580379748
 11
139.823442455681
 21
32.167077198910022
  0
LINE
  8
_0-2_
  6
CONTINUOUS
 62
   56
 10
134.823442455681
 20
24.517076580379864
 11
134.823442455681
 21
32.167077198910022
  0
LINE
  8
_0-2_
  6
CONTINUOUS
 62
   56
 10
135.17344236031357
 20
32.517077580379748
 11
134.823442455681
 21
32.167077198910022
  0
LINE
  8
_0-2_
  6
CONTINUOUS
 62
   56
 10
139.47344255104844
 20
32.517077580379748
 11
135.17344236031357
 21
32.517077580379748
  0
LINE
  8
_0-2_
  6
CENTER1
 62
  152
 10
137.323442455681
 20
32.517077580379748
 11
137.323442455681
 21
6.1134096376576395
  0
LINE
  8
_0-2_
  6
CONTINUOUS
 62
   56
 10
139.77344250336472
 20
12.114191822606756
 11
139.77344250336472
 21
13.094191841680242
  0
LINE
  8
_0-2_
  6
CONTINUOUS
 62
   56
 10
136.83344244614426
 20
15.054191879827215
 11
137.81344246521775
 21
15.054191879827215
  0
LINE
  8
_0-2_
  6
CONTINUOUS
 62
   56
 10
134.87344240799729
 20
12.114191822606756
 11
134.87344240799729
 21
13.094191841680242
  0
LINE
  8
_0-2_
  6
CONTINUOUS
 62
   56
 10
136.83344244614426
 20
10.154191784459783
 11
137.81344246521775
 21
10.154191784459783
  0
LINE
  8
_0-2_
  6
CONTINUOUS
 62
   56
 10
137.81344246521775
 20
14.074191860753729
 11
137.81344246521775
 21
15.054191879827215
  0
LINE
  8
_0-2_
  6
CONTINUOUS
 62
   56
 10
138.79344248429123
 20
13.094191841680242
 11
139.77344250336472
 21
13.094191841680242
  0
LINE
  8
_0-2_
  6
CONTINUOUS
 62
   56
 10
138.79344248429123
 20
12.114191822606756
 11
139.77344250336472
 21
12.114191822606756
  0
LINE
  8
_0-2_
  6
CONTINUOUS
 62
   56
 10
137.81344246521775
 20
11.13419180353327
 11
137.81344246521775
 21
10.154191784459783
  0
LINE
  8
_0-2_
  6
CONTINUOUS
 62
   56
 10
136.83344244614426
 20
11.13419180353327
 11
136.83344244614426
 21
10.154191784459783
  0
LINE
  8
_0-2_
  6
CONTINUOUS
 62
   56
 10
135.85344242707077
 20
12.114191822606756
 11
134.87344240799729
 21
12.114191822606756
  0
LINE
  8
_0-2_
  6
CONTINUOUS
 62
   56
 10
135.85344242707077
 20
13.094191841680242
 11
134.87344240799729
 21
13.094191841680242
  0
LINE
  8
_0-2_
  6
CONTINUOUS
 62
   56
 10
136.83344244614426
 20
14.074191860753729
 11
136.83344244614426
 21
15.054191879827215
  0
CIRCLE
  8
_0-2_
  6
CONTINUOUS
 62
   56
 10
137.323442455681
 20
12.604191832143499
 40
5.9000000953674316
  0
ARC
  8
_0-2_
  6
CONTINUOUS
 62
   56
 10
138.79344248429123
 20
14.074191860753729
 40
0.9800000190734863
 50
180
 51
270
  0
ARC
  8
_0-2_
  6
CONTINUOUS
 62
   56
 10
138.79344248429123
 20
11.13419180353327
 40
0.9800000190734863
 50
90
 51
180
  0
ARC
  8
_0-2_
  6
CONTINUOUS
 62
   56
 10
135.85344242707077
 20
11.13419180353327
 40
0.9800000190734863
 50
0
 51
90
  0
ARC
  8
_0-2_
  6
CONTINUOUS
 62
   56
 10
135.85344242707077
 20
14.074191860753729
 40
0.9800000190734863
 50
270
 51
0
  0
LINE
  8
_0-2_
  6
CENTER1
 62
  152
 10
130.11371949975796
 20
12.604191832143499
 11
145.44819243423086
 21
12.604191832143499
  0
ENDSEC
  0
EOF
