  0
SECTION
  2
HEADER
  9
$ACADVER
  1
AC1009
  9
$INSBASE
 10
0
 20
0
 30
0
  9
$EXTMIN
 10
0
 20
0
  9
$EXTMAX
 10
1189
 20
841
  9
$LIMMIN
 10
0
 20
0
  9
$LIMMAX
 10
1189
 20
841
  9
$LTSCALE
 40
1
  0
ENDSEC
  0
SECTION
  2
TABLES
  0
TABLE
  2
LTYPE
 70
     9
  0
LTYPE
  2
CONTINUOUS
 70
    64
  3
実線
 72
    65
 73
     0
 40
0.0
  0
LTYPE
  2
DASHED1
 70
    64
  3
--  --  --  --  --  --  --  --  
 72
    65
 73
     2
 40
2.5
 49
1.25
 49
-1.25
  0
LTYPE
  2
DASHED2
 70
    64
  3
----    ----    ----    ----    
 72
    65
 73
     2
 40
5.0
 49
2.5
 49
-2.5
  0
LTYPE
  2
DASHED3
 70
    64
  3
------  ------  ------  ------  
 72
    65
 73
     2
 40
5.0
 49
3.75
 49
-1.25
  0
LTYPE
  2
CENTER1
 70
    64
  3
----- - ----- - ----- - ----- - 
 72
    65
 73
     4
 40
10.0
 49
6.25
 49
-1.25
 49
1.25
 49
-1.25
  0
LTYPE
  2
CENTER2
 70
    64
  3
----------  --  ----------  --  
 72
    65
 73
     4
 40
20.0
 49
12.5
 49
-2.5
 49
2.5
 49
-2.5
  0
LTYPE
  2
PHANTOM1
 70
    64
  3
--- - - --- - - --- - - --- - - 
 72
    65
 73
     6
 40
10.0
 49
3.25
 49
-1.25
 49
1.25
 49
-1.25
 49
1.25
 49
-1.25
  0
LTYPE
  2
PHANTOM2
 70
    64
  3
--------  -  -  --------  -  -  
 72
    65
 73
     6
 40
20.0
 49
10.0
 49
-2.5
 49
1.25
 49
-2.5
 49
1.25
 49
-2.5
  0
LTYPE
  2
DOT
 70
    64
  3
-   -   -   -   -   -   -   -   
 72
    65
 73
     2
 40
2.5
 49
0.625
 49
-1.875
  0
LTYPE
  2
DUMMY
 70
    64
  3
ダミー
 72
    65
 73
     0
 40
0.0
  0
LTYPE
  2
RAND1
 70
    64
  3
ランダム線1
 72
    65
 73
     4
 40
10.0
 49
1.0
 49
-2.0
 49
3.0
 49
-4.0
  0
LTYPE
  2
RAND2
 70
    64
  3
ランダム線2
 72
    65
 73
     4
 40
14.0
 49
2.0
 49
-3.0
 49
4.0
 49
-5.0
  0
LTYPE
  2
RAND3
 70
    64
  3
ランダム線3
 72
    65
 73
     4
 40
18.0
 49
3.0
 49
-4.0
 49
5.0
 49
-6.0
  0
LTYPE
  2
RAND4
 70
    64
  3
ランダム線4
 72
    65
 73
     4
 40
22.0
 49
4.0
 49
-5.0
 49
6.0
 49
-7.0
  0
LTYPE
  2
RAND5
 70
    64
  3
ランダム線5
 72
    65
 73
     4
 40
26.0
 49
5.0
 49
-6.0
 49
7.0
 49
-8.0
  0
LTYPE
  2
LONG1
 70
    64
  3
----------  --  ----------  --  
 72
    65
 73
     4
 40
40.0
 49
32.5
 49
-2.5
 49
2.5
 49
-2.5
  0
LTYPE
  2
LONG2
 70
    64
  3
--------  -  -  --------  -  -  
 72
    65
 73
     6
 40
40.0
 49
30.0
 49
-2.5
 49
1.25
 49
-2.5
 49
1.25
 49
-2.5
  0
LTYPE
  2
LONG3
 70
    64
  3
+++++++++++++++..+++++++++++++++
 72
    65
 73
     2
 40
40.0
 49
37.5
 49
-2.5
  0
LTYPE
  2
LONG4
 70
    64
  3
+++++++++++++++..+++++++++++++++
 72
    65
 73
     2
 40
80.0
 49
75.0
 49
-5.0
  0
LTYPE
  2
LONG5
 70
    64
  3
----------  --  ----------  --  
 72
    65
 73
     4
 40
60.0
 49
37.5
 49
-7.5
 49
7.5
 49
-7.5
  0
LTYPE
  2
dashed
 70
   64
  3
-------   -------------   ------
 72
   65
 73
    2
 40
7.5
 49
6
 49
-1.5
  0
LTYPE
  2
dashed_spaced
 70
   64
  3
----        --------        ----
 72
   65
 73
    2
 40
12
 49
6
 49
-6
  0
LTYPE
  2
long_dashed_dotted
 70
   64
  3
------------- --- --------------
 72
   65
 73
    4
 40
15.25
 49
12
 49
-1.5
 49
0.25
 49
-1.5
  0
LTYPE
  2
long_dashed_double-dotted
 70
   64
  3
----------- --- --- ------------
 72
   65
 73
    6
 40
17
 49
12
 49
-1.5
 49
0.25
 49
-1.5
 49
0.25
 49
-1.5
  0
LTYPE
  2
long_dashed_triplicate-dotted
 70
   64
  3
--------- --- --- --- ----------
 72
   65
 73
    8
 40
18.75
 49
12
 49
-1.5
 49
0.25
 49
-1.5
 49
0.25
 49
-1.5
 49
0.25
 49
-1.5
  0
LTYPE
  2
dotted
 70
   64
  3
   -       -       -       -    
 72
   65
 73
    2
 40
1.75
 49
0.25
 49
-1.5
  0
LTYPE
  2
chain
 70
   64
  3
-------------- -- --------------
 72
   65
 73
    4
 40
18.5
 49
12
 49
-1.5
 49
3.5
 49
-1.5
  0
LTYPE
  2
chain_double_dash
 70
   64
  3
------------ -- -- -------------
 72
   65
 73
    6
 40
23.5
 49
12
 49
-1.5
 49
3.5
 49
-1.5
 49
3.5
 49
-1.5
  0
LTYPE
  2
dashed_dotted
 70
   64
  3
-----------     -     ----------
 72
   65
 73
    4
 40
9.25
 49
6
 49
-1.5
 49
0.25
 49
-1.5
  0
LTYPE
  2
double-dashed_dotted
 70
   64
  3
------   -----------   -   -----
 72
   65
 73
    6
 40
16.75
 49
6
 49
-1.5
 49
6
 49
-1.5
 49
0.25
 49
-1.5
  0
LTYPE
  2
dashed_double-dotted
 70
   64
  3
---------    -    -    ---------
 72
   65
 73
    6
 40
11
 49
6
 49
-1.5
 49
0.25
 49
-1.5
 49
0.25
 49
-1.5
  0
LTYPE
  2
double-dashed_double-dotted
 70
   64
  3
-----   ---------   -   -   ----
 72
   65
 73
    8
 40
18.5
 49
6
 49
-1.5
 49
6
 49
-1.5
 49
0.25
 49
-1.5
 49
0.25
 49
-1.5
  0
LTYPE
  2
dashed_triplicate-dotted
 70
   64
  3
-------    -    -    -    ------
 72
   65
 73
    8
 40
12.75
 49
6
 49
-1.5
 49
0.25
 49
-1.5
 49
0.25
 49
-1.5
 49
0.25
 49
-1.5
  0
LTYPE
  2
double-dashed_triplicate-dotted
 70
   64
  3
-----  ---------  -  -  -  -----
 72
   65
 73
   10
 40
20.25
 49
6
 49
-1.5
 49
6
 49
-1.5
 49
0.25
 49
-1.5
 49
0.25
 49
-1.5
 49
0.25
 49
-1.5
  0
LTYPE
  2
undefined
 70
   64
  3
--------------------------------
 72
   65
 73
    0
 40
0
  0
ENDTAB
  0
TABLE
  2
STYLE
  5
3
100
AcDbSymbolTable
 70
     1
  0
STYLE
  5
10
100
AcDbSymbolTableRecord
100
AcDbTextStyleTableRecord
  2
STANDARD
 70
     0
 40
0.0
 41
1.0
 50
0.0
 71
     0
 42
0.2
  3
txt
  4
bigfont.shx
  0
STYLE
  5
26
100
AcDbSymbolTableRecord
100
AcDbTextStyleTableRecord
  2
TATEGAKI
 70
    68
 40
0.0
 41
1.0
 50
0.0
 71
     0
 42
1.0
  3
txt
  4
bigfont.shx
  0
ENDTAB
  0
TABLE
  2
LAYER
 70
    4
  0
LAYER
  2
_0-0_
 70
   64
 62
    7
  6
CONTINUOUS
  0
LAYER
  2
_0-1_
 70
   64
 62
    7
  6
CONTINUOUS
  0
LAYER
  2
_0-e_
 70
   64
 62
    7
  6
CONTINUOUS
  0
LAYER
  2
ADD_LINE
 70
   64
 62
    7
  6
CONTINUOUS
  0
ENDTAB
  0
ENDSEC
  0
SECTION
  2
BLOCKS
  0
ENDSEC
  0
SECTION
  2
ENTITIES
  0
LINE
  8
_0-0_
  6
CONTINUOUS
 62
    7
 10
341.38062948781362
 20
180.61636788787243
 11
241.38062948781362
 21
180.61636788787243
  0
LINE
  8
_0-0_
  6
CONTINUOUS
 62
    7
 10
241.38062948781362
 20
188.61636788787243
 11
341.38062948781362
 21
188.61636788787243
  0
LINE
  8
_0-0_
  6
CONTINUOUS
 62
    7
 10
337.38062948781362
 20
147.99600177319962
 11
245.38062948781408
 21
147.99600177319962
  0
LINE
  8
_0-0_
  6
CONTINUOUS
 62
    7
 10
247.38062948781362
 20
139.99600177320008
 11
335.38062948781408
 21
139.99600177320008
  0
LINE
  8
_0-0_
  6
CONTINUOUS
 62
    7
 10
337.38062948781362
 20
137.99600177319962
 11
337.38062948781362
 21
116.99600177320008
  0
LINE
  8
_0-0_
  6
CONTINUOUS
 62
    7
 10
337.38062948781362
 20
116.99600177320008
 11
345.38062948781408
 21
116.99600177320008
  0
LINE
  8
_0-0_
  6
CONTINUOUS
 62
    7
 10
345.38062948781408
 20
116.99600177320008
 11
345.38062948781408
 21
139.99600177320008
  0
LINE
  8
_0-0_
  6
CONTINUOUS
 62
    7
 10
370.28223693343261
 20
116.99600177320008
 11
378.28223693343261
 21
116.99600177320008
  0
LINE
  8
_0-0_
  6
CONTINUOUS
 62
    7
 10
378.28223693343261
 20
116.99600177320008
 11
378.28223693343261
 21
143.99600177320008
  0
LINE
  8
_0-0_
  6
CONTINUOUS
 62
    7
 10
370.28223693343261
 20
143.99600177320008
 11
370.28223693343261
 21
116.99600177320008
  0
LINE
  8
_0-0_
  6
CONTINUOUS
 62
    7
 10
245.38062948781408
 20
116.99600177320008
 11
245.38062948781408
 21
137.99600177319962
  0
LINE
  8
_0-0_
  6
CONTINUOUS
 62
    7
 10
237.38062948781362
 20
116.99600177320008
 11
245.38062948781408
 21
116.99600177320008
  0
LINE
  8
_0-0_
  6
CONTINUOUS
 62
    7
 10
237.38062948781362
 20
116.99600177320008
 11
237.38062948781362
 21
139.99600177320008
  0
LINE
  8
_0-0_
  6
CONTINUOUS
 62
    7
 10
166.82640706971233
 20
123.0341987095901
 11
166.82640706971233
 21
141.0341987095901
  0
LINE
  8
_0-0_
  6
CONTINUOUS
 62
    7
 10
158.82640706971233
 20
141.0341987095901
 11
158.82640706971233
 21
123.0341987095901
  0
LINE
  8
_0-0_
  6
CONTINUOUS
 62
    7
 10
158.82640706971233
 20
123.0341987095901
 11
166.82640706971233
 21
123.0341987095901
  0
LINE
  8
_0-0_
  6
CONTINUOUS
 62
    7
 10
126.14126858830923
 20
137.0341987095901
 11
126.14126858830923
 21
123.0341987095901
  0
LINE
  8
_0-0_
  6
CONTINUOUS
 62
    7
 10
126.14126858830923
 20
123.0341987095901
 11
118.14126858830878
 21
123.0341987095901
  0
LINE
  8
_0-0_
  6
CONTINUOUS
 62
    7
 10
118.14126858830878
 20
123.0341987095901
 11
118.14126858830878
 21
135.0341987095901
  0
LINE
  8
_0-0_
  6
CONTINUOUS
 62
    7
 10
116.14126858830923
 20
137.0341987095901
 11
68.141268588308776
 21
137.0341987095901
  0
LINE
  8
_0-0_
  6
CONTINUOUS
 62
    7
 10
66.141268588309231
 20
135.0341987095901
 11
66.141268588309231
 21
123.0341987095901
  0
LINE
  8
_0-0_
  6
CONTINUOUS
 62
    7
 10
66.141268588309231
 20
123.0341987095901
 11
58.141268588308776
 21
123.0341987095901
  0
LINE
  8
_0-0_
  6
CONTINUOUS
 62
    7
 10
58.141268588308776
 20
123.0341987095901
 11
58.141268588308776
 21
137.0341987095901
  0
LINE
  8
_0-0_
  6
CONTINUOUS
 62
    7
 10
66.141268588309231
 20
145.0341987095901
 11
118.14126858830878
 21
145.0341987095901
  0
LINE
  8
_0-0_
  6
CONTINUOUS
 62
    7
 10
62.141268588308776
 20
188.61636788787243
 11
122.14126858830878
 21
188.61636788787243
  0
LINE
  8
_0-0_
  6
CONTINUOUS
 62
    7
 10
122.14126858830878
 20
180.61636788787243
 11
62.141268588308776
 21
180.61636788787243
  0
ARC
  8
_0-0_
  6
CONTINUOUS
 62
    7
 10
62.141268588308776
 20
184.61636788787243
 40
4
 50
180
 51
270
  0
ARC
  8
_0-0_
  6
CONTINUOUS
 62
    7
 10
62.141268588308776
 20
184.61636788787243
 40
4
 50
90
 51
180
  0
ARC
  8
_0-0_
  6
CONTINUOUS
 62
    7
 10
122.14126858830878
 20
184.61636788787243
 40
4
 50
0
 51
90
  0
ARC
  8
_0-0_
  6
CONTINUOUS
 62
    7
 10
122.14126858830878
 20
184.61636788787243
 40
4
 50
270
 51
0
  0
ARC
  8
_0-0_
  6
CONTINUOUS
 62
    7
 10
66.141268588309231
 20
137.0341987095901
 40
8
 50
90
 51
180
  0
ARC
  8
_0-0_
  6
CONTINUOUS
 62
    7
 10
68.141268588308776
 20
135.0341987095901
 40
2
 50
90
 51
180
  0
ARC
  8
_0-0_
  6
CONTINUOUS
 62
    7
 10
118.14126858830878
 20
137.0341987095901
 40
8
 50
0
 51
90
  0
ARC
  8
_0-0_
  6
CONTINUOUS
 62
    7
 10
116.14126858830923
 20
135.0341987095901
 40
2
 50
0
 51
90
  0
ARC
  8
_0-0_
  6
CONTINUOUS
 62
    7
 10
162.82640706971188
 20
141.0341987095901
 40
3.9999999999997726
 50
0
 51
180
  0
ARC
  8
_0-0_
  6
CONTINUOUS
 62
    7
 10
241.38062948781362
 20
184.61636788787243
 40
4
 50
180
 51
270
  0
ARC
  8
_0-0_
  6
CONTINUOUS
 62
    7
 10
241.38062948781362
 20
184.61636788787243
 40
4
 50
90
 51
180
  0
ARC
  8
_0-0_
  6
CONTINUOUS
 62
    7
 10
341.38062948781362
 20
184.61636788787243
 40
4
 50
0
 51
90
  0
ARC
  8
_0-0_
  6
CONTINUOUS
 62
    7
 10
341.38062948781362
 20
184.61636788787243
 40
4
 50
270
 51
0
  0
ARC
  8
_0-0_
  6
CONTINUOUS
 62
    7
 10
245.38062948781408
 20
139.99600177320008
 40
8
 50
90
 51
180
  0
ARC
  8
_0-0_
  6
CONTINUOUS
 62
    7
 10
247.38062948781362
 20
137.99600177319962
 40
2
 50
90
 51
180
  0
ARC
  8
_0-0_
  6
CONTINUOUS
 62
    7
 10
337.38062948781362
 20
139.99600177320008
 40
8
 50
0
 51
90
  0
ARC
  8
_0-0_
  6
CONTINUOUS
 62
    7
 10
335.38062948781408
 20
137.99600177319962
 40
2
 50
0
 51
90
  0
ARC
  8
_0-0_
  6
CONTINUOUS
 62
    7
 10
374.28223693343216
 20
143.99600177320008
 40
3.9999999999997726
 50
0
 51
180
  0
LINE
  8
_0-1_
  6
CENTER1
 62
  152
 10
345.38062948781408
 20
184.61636788787243
 11
337.38062948781362
 21
184.61636788787243
  0
LINE
  8
_0-1_
  6
CENTER1
 62
  152
 10
241.38062948781362
 20
180.61636788787243
 11
241.38062948781362
 21
188.61636788787243
  0
LINE
  8
_0-1_
  6
CENTER1
 62
  152
 10
341.38062948781362
 20
188.61636788787243
 11
341.38062948781362
 21
180.61636788787243
  0
LINE
  8
_0-1_
  6
CENTER1
 62
  152
 10
341.38062948781362
 20
139.99600177320008
 11
341.38062948781362
 21
116.99600177320008
  0
LINE
  8
_0-1_
  6
CENTER1
 62
  152
 10
378.28223693343216
 20
143.99600177320008
 11
370.28223693343261
 21
143.99600177320008
  0
LINE
  8
_0-1_
  6
CENTER1
 62
  152
 10
374.28223693343216
 20
116.99600177320008
 11
374.28223693343216
 21
147.99600177320008
  0
LINE
  8
_0-1_
  6
CENTER1
 62
  152
 10
291.38062948781362
 20
147.99600177319962
 11
291.38062948781362
 21
116.99600177320008
  0
LINE
  8
_0-1_
  6
DASHED2
 62
  152
 10
243.33962948781391
 20
132.99600177320008
 11
243.33962948781391
 21
116.99600177320008
  0
LINE
  8
_0-1_
  6
DASHED2
 62
  152
 10
243.88062948781362
 20
116.99600177320008
 11
243.88062948781362
 21
129.99600177320008
  0
LINE
  8
_0-1_
  6
DASHED2
 62
  152
 10
243.88062948781362
 20
129.99600177320008
 11
238.88062948781362
 21
129.99600177320008
  0
LINE
  8
_0-1_
  6
DASHED2
 62
  152
 10
238.88062948781362
 20
129.99600177320008
 11
238.88062948781362
 21
116.99600177320008
  0
LINE
  8
_0-1_
  6
DASHED2
 62
  152
 10
239.42263748781397
 20
116.99600177320008
 11
239.42263748781397
 21
132.99651577319992
  0
LINE
  8
_0-1_
  6
DASHED2
 62
  152
 10
239.42263748781397
 20
132.99651577319992
 11
241.38062948781362
 21
133.99600177320008
  0
LINE
  8
_0-1_
  6
DASHED2
 62
  152
 10
241.38062948781362
 20
133.99600177320008
 11
243.33962948781391
 21
132.99600177320008
  0
LINE
  8
_0-1_
  6
DASHED2
 62
  152
 10
243.33962948781391
 20
132.99600177320008
 11
239.42263748781397
 21
132.99600177320008
  0
LINE
  8
_0-1_
  6
DASHED2
 62
  152
 10
239.42263748781397
 20
130.93398977319976
 11
238.88062948781362
 21
129.99600177320008
  0
LINE
  8
_0-1_
  6
DASHED2
 62
  152
 10
243.88062948781362
 20
129.99600177320008
 11
243.33962948781391
 21
130.93398977319976
  0
LINE
  8
_0-1_
  6
CENTER1
 62
  152
 10
241.38062948781362
 20
134.93398977319976
 11
241.38062948781362
 21
116.99600177320008
  0
LINE
  8
_0-1_
  6
CENTER1
 62
  152
 10
237.38062948781362
 20
184.61636788787243
 11
245.38062948781408
 21
184.61636788787243
  0
LINE
  8
_0-1_
  6
CENTER1
 62
  152
 10
166.82640706971233
 20
141.0341987095901
 11
158.82640706971233
 21
141.0341987095901
  0
LINE
  8
_0-1_
  6
CENTER1
 62
  152
 10
162.82640706971188
 20
123.0341987095901
 11
162.82640706971188
 21
145.0341987095901
  0
LINE
  8
_0-1_
  6
DASHED2
 62
  152
 10
60.183276588309127
 20
136.03471270959039
 11
62.141268588308776
 21
137.0341987095901
  0
LINE
  8
_0-1_
  6
DASHED2
 62
  152
 10
62.141268588308776
 20
137.0341987095901
 11
64.100268588309063
 21
136.0341987095901
  0
LINE
  8
_0-1_
  6
DASHED2
 62
  152
 10
64.100268588309063
 20
136.0341987095901
 11
64.100268588309063
 21
123.0341987095901
  0
LINE
  8
_0-1_
  6
DASHED2
 62
  152
 10
64.641268588308776
 20
123.0341987095901
 11
64.641268588308776
 21
133.0341987095901
  0
LINE
  8
_0-1_
  6
DASHED2
 62
  152
 10
64.641268588308776
 20
133.0341987095901
 11
59.641268588308776
 21
133.0341987095901
  0
LINE
  8
_0-1_
  6
DASHED2
 62
  152
 10
59.641268588308776
 20
133.0341987095901
 11
59.641268588308776
 21
123.0341987095901
  0
LINE
  8
_0-1_
  6
DASHED2
 62
  152
 10
60.183276588309127
 20
123.0341987095901
 11
60.183276588309127
 21
136.03471270959039
  0
LINE
  8
_0-1_
  6
DASHED2
 62
  152
 10
60.183276588309127
 20
136.0341987095901
 11
64.100268588309063
 21
136.0341987095901
  0
LINE
  8
_0-1_
  6
DASHED2
 62
  152
 10
64.100268588309063
 20
133.97218670959023
 11
64.641268588308776
 21
133.0341987095901
  0
LINE
  8
_0-1_
  6
DASHED2
 62
  152
 10
59.641268588308776
 20
133.0341987095901
 11
60.183276588309127
 21
133.97218670959023
  0
LINE
  8
_0-1_
  6
CENTER1
 62
  152
 10
62.141268588308776
 20
137.97218670959023
 11
62.141268588308776
 21
123.0341987095901
  0
LINE
  8
_0-1_
  6
CENTER1
 62
  152
 10
122.14126858830878
 20
137.0341987095901
 11
122.14126858830878
 21
123.0341987095901
  0
LINE
  8
_0-1_
  6
CENTER1
 62
  152
 10
92.141268588308776
 20
123.0341987095901
 11
92.141268588308776
 21
145.0341987095901
  0
LINE
  8
_0-1_
  6
CENTER1
 62
  152
 10
66.141268588309231
 20
184.61636788787243
 11
58.141268588308776
 21
184.61636788787243
  0
LINE
  8
_0-1_
  6
CENTER1
 62
  152
 10
62.141268588308776
 20
180.61636788787243
 11
62.141268588308776
 21
188.61636788787243
  0
LINE
  8
_0-1_
  6
CENTER1
 62
  152
 10
122.14126858830878
 20
188.61636788787243
 11
122.14126858830878
 21
180.61636788787243
  0
LINE
  8
_0-1_
  6
CENTER1
 62
  152
 10
118.14126858830878
 20
184.61636788787243
 11
126.14126858830923
 21
184.61636788787243
  0
TEXT
  8
_0-e_
 62
    7
 10
63.460142000716814
 20
191.04892446585714
 40
5
 41
1
 50
0
  1
HAB1
  0
TEXT
  8
_0-e_
 62
    7
 10
242.32725055376295
 20
191.04892446585714
 40
5
 41
1
 50
0
  1
HAB2
  0
LINE
  8
_0-0_
  6
CONTINUOUS
 62
    7
 10
292.9726997379467
 20
70.98664463082082
 11
192.9726997379467
 21
70.98664463082082
  0
LINE
  8
_0-0_
  6
CONTINUOUS
 62
    7
 10
192.9726997379467
 20
78.98664463082082
 11
292.9726997379467
 21
78.98664463082082
  0
LINE
  8
_0-0_
  6
CONTINUOUS
 62
    7
 10
288.9726997379467
 20
38.366278516147986
 11
196.97269973794715
 21
38.366278516147986
  0
LINE
  8
_0-0_
  6
CONTINUOUS
 62
    7
 10
198.9726997379467
 20
30.366278516148441
 11
286.97269973794715
 21
30.366278516148441
  0
LINE
  8
_0-0_
  6
CONTINUOUS
 62
    7
 10
288.9726997379467
 20
28.366278516147986
 11
288.9726997379467
 21
7.3662785161484408
  0
LINE
  8
_0-0_
  6
CONTINUOUS
 62
    7
 10
288.9726997379467
 20
7.3662785161484408
 11
296.97269973794715
 21
7.3662785161484408
  0
LINE
  8
_0-0_
  6
CONTINUOUS
 62
    7
 10
296.97269973794715
 20
7.3662785161484408
 11
296.97269973794715
 21
30.366278516148441
  0
LINE
  8
_0-0_
  6
CONTINUOUS
 62
    7
 10
321.87430718356569
 20
7.3662785161484408
 11
329.87430718356569
 21
7.3662785161484408
  0
LINE
  8
_0-0_
  6
CONTINUOUS
 62
    7
 10
329.87430718356569
 20
7.3662785161484408
 11
329.87430718356569
 21
34.366278516148441
  0
LINE
  8
_0-0_
  6
CONTINUOUS
 62
    7
 10
321.87430718356569
 20
34.366278516148441
 11
321.87430718356569
 21
7.3662785161484408
  0
LINE
  8
_0-0_
  6
CONTINUOUS
 62
    7
 10
196.97269973794715
 20
7.3662785161484408
 11
196.97269973794715
 21
28.366278516147986
  0
LINE
  8
_0-0_
  6
CONTINUOUS
 62
    7
 10
188.9726997379467
 20
7.3662785161484408
 11
196.97269973794715
 21
7.3662785161484408
  0
LINE
  8
_0-0_
  6
CONTINUOUS
 62
    7
 10
188.9726997379467
 20
7.3662785161484408
 11
188.9726997379467
 21
30.366278516148441
  0
LINE
  8
_0-0_
  6
CONTINUOUS
 62
    7
 10
118.41847731984541
 20
13.404475452538463
 11
118.41847731984541
 21
31.404475452538463
  0
LINE
  8
_0-0_
  6
CONTINUOUS
 62
    7
 10
110.41847731984541
 20
31.404475452538463
 11
110.41847731984541
 21
13.404475452538463
  0
LINE
  8
_0-0_
  6
CONTINUOUS
 62
    7
 10
110.41847731984541
 20
13.404475452538463
 11
118.41847731984541
 21
13.404475452538463
  0
LINE
  8
_0-0_
  6
CONTINUOUS
 62
    7
 10
77.733338838442251
 20
27.404475452538463
 11
77.733338838442251
 21
13.404475452538463
  0
LINE
  8
_0-0_
  6
CONTINUOUS
 62
    7
 10
77.733338838442251
 20
13.404475452538463
 11
69.733338838441796
 21
13.404475452538463
  0
LINE
  8
_0-0_
  6
CONTINUOUS
 62
    7
 10
69.733338838441796
 20
13.404475452538463
 11
69.733338838441796
 21
25.404475452538463
  0
LINE
  8
_0-0_
  6
CONTINUOUS
 62
    7
 10
67.733338838442251
 20
27.404475452538463
 11
19.733338838441796
 21
27.404475452538463
  0
LINE
  8
_0-0_
  6
CONTINUOUS
 62
    7
 10
17.733338838442251
 20
25.404475452538463
 11
17.733338838442251
 21
13.404475452538463
  0
LINE
  8
_0-0_
  6
CONTINUOUS
 62
    7
 10
17.733338838442251
 20
13.404475452538463
 11
9.7333388384417958
 21
13.404475452538463
  0
LINE
  8
_0-0_
  6
CONTINUOUS
 62
    7
 10
9.7333388384417958
 20
13.404475452538463
 11
9.7333388384417958
 21
27.404475452538463
  0
LINE
  8
_0-0_
  6
CONTINUOUS
 62
    7
 10
17.733338838442251
 20
35.404475452538463
 11
69.733338838441796
 21
35.404475452538463
  0
LINE
  8
_0-0_
  6
CONTINUOUS
 62
    7
 10
13.733338838441796
 20
78.98664463082082
 11
73.733338838441796
 21
78.98664463082082
  0
LINE
  8
_0-0_
  6
CONTINUOUS
 62
    7
 10
73.733338838441796
 20
70.98664463082082
 11
13.733338838441796
 21
70.98664463082082
  0
ARC
  8
_0-0_
  6
CONTINUOUS
 62
    7
 10
13.733338838441796
 20
74.98664463082082
 40
4
 50
180
 51
270
  0
ARC
  8
_0-0_
  6
CONTINUOUS
 62
    7
 10
13.733338838441796
 20
74.98664463082082
 40
4
 50
90
 51
180
  0
ARC
  8
_0-0_
  6
CONTINUOUS
 62
    7
 10
73.733338838441796
 20
74.98664463082082
 40
4
 50
0
 51
90
  0
ARC
  8
_0-0_
  6
CONTINUOUS
 62
    7
 10
73.733338838441796
 20
74.98664463082082
 40
4
 50
270
 51
0
  0
ARC
  8
_0-0_
  6
CONTINUOUS
 62
    7
 10
17.733338838442251
 20
27.404475452538463
 40
8
 50
90
 51
180
  0
ARC
  8
_0-0_
  6
CONTINUOUS
 62
    7
 10
19.733338838441796
 20
25.404475452538463
 40
2
 50
90
 51
180
  0
ARC
  8
_0-0_
  6
CONTINUOUS
 62
    7
 10
69.733338838441796
 20
27.404475452538463
 40
8
 50
0
 51
90
  0
ARC
  8
_0-0_
  6
CONTINUOUS
 62
    7
 10
67.733338838442251
 20
25.404475452538463
 40
2
 50
0
 51
90
  0
ARC
  8
_0-0_
  6
CONTINUOUS
 62
    7
 10
114.41847731984495
 20
31.404475452538463
 40
3.9999999999997726
 50
0
 51
180
  0
ARC
  8
_0-0_
  6
CONTINUOUS
 62
    7
 10
192.9726997379467
 20
74.98664463082082
 40
4
 50
180
 51
270
  0
ARC
  8
_0-0_
  6
CONTINUOUS
 62
    7
 10
192.9726997379467
 20
74.98664463082082
 40
4
 50
90
 51
180
  0
ARC
  8
_0-0_
  6
CONTINUOUS
 62
    7
 10
292.9726997379467
 20
74.98664463082082
 40
4
 50
0
 51
90
  0
ARC
  8
_0-0_
  6
CONTINUOUS
 62
    7
 10
292.9726997379467
 20
74.98664463082082
 40
4
 50
270
 51
0
  0
ARC
  8
_0-0_
  6
CONTINUOUS
 62
    7
 10
196.97269973794715
 20
30.366278516148441
 40
8
 50
90
 51
180
  0
ARC
  8
_0-0_
  6
CONTINUOUS
 62
    7
 10
198.9726997379467
 20
28.366278516147986
 40
2
 50
90
 51
180
  0
ARC
  8
_0-0_
  6
CONTINUOUS
 62
    7
 10
288.9726997379467
 20
30.366278516148441
 40
8
 50
0
 51
90
  0
ARC
  8
_0-0_
  6
CONTINUOUS
 62
    7
 10
286.97269973794715
 20
28.366278516147986
 40
2
 50
0
 51
90
  0
ARC
  8
_0-0_
  6
CONTINUOUS
 62
    7
 10
325.87430718356524
 20
34.366278516148441
 40
3.9999999999997726
 50
0
 51
180
  0
LINE
  8
_0-1_
  6
CENTER1
 62
  152
 10
296.97269973794715
 20
74.98664463082082
 11
288.9726997379467
 21
74.98664463082082
  0
LINE
  8
_0-1_
  6
CENTER1
 62
  152
 10
192.9726997379467
 20
70.98664463082082
 11
192.9726997379467
 21
78.98664463082082
  0
LINE
  8
_0-1_
  6
CENTER1
 62
  152
 10
292.9726997379467
 20
78.98664463082082
 11
292.9726997379467
 21
70.98664463082082
  0
LINE
  8
_0-1_
  6
CENTER1
 62
  152
 10
292.9726997379467
 20
30.366278516148441
 11
292.9726997379467
 21
7.3662785161484408
  0
LINE
  8
_0-1_
  6
CENTER1
 62
  152
 10
329.87430718356524
 20
34.366278516148441
 11
321.87430718356569
 21
34.366278516148441
  0
LINE
  8
_0-1_
  6
CENTER1
 62
  152
 10
325.87430718356524
 20
7.3662785161484408
 11
325.87430718356524
 21
38.366278516148441
  0
LINE
  8
_0-1_
  6
CENTER1
 62
  152
 10
242.9726997379467
 20
38.366278516147986
 11
242.9726997379467
 21
7.3662785161484408
  0
LINE
  8
_0-1_
  6
DASHED2
 62
  152
 10
194.93169973794699
 20
23.366278516148441
 11
194.93169973794699
 21
7.3662785161484408
  0
LINE
  8
_0-1_
  6
DASHED2
 62
  152
 10
195.4726997379467
 20
7.3662785161484408
 11
195.4726997379467
 21
20.366278516148441
  0
LINE
  8
_0-1_
  6
DASHED2
 62
  152
 10
195.4726997379467
 20
20.366278516148441
 11
190.4726997379467
 21
20.366278516148441
  0
LINE
  8
_0-1_
  6
DASHED2
 62
  152
 10
190.4726997379467
 20
20.366278516148441
 11
190.4726997379467
 21
7.3662785161484408
  0
LINE
  8
_0-1_
  6
DASHED2
 62
  152
 10
191.01470773794705
 20
7.3662785161484408
 11
191.01470773794705
 21
23.36679251614828
  0
LINE
  8
_0-1_
  6
DASHED2
 62
  152
 10
191.01470773794705
 20
23.36679251614828
 11
192.9726997379467
 21
24.366278516148441
  0
LINE
  8
_0-1_
  6
DASHED2
 62
  152
 10
192.9726997379467
 20
24.366278516148441
 11
194.93169973794699
 21
23.366278516148441
  0
LINE
  8
_0-1_
  6
DASHED2
 62
  152
 10
194.93169973794699
 20
23.366278516148441
 11
191.01470773794705
 21
23.366278516148441
  0
LINE
  8
_0-1_
  6
DASHED2
 62
  152
 10
191.01470773794705
 20
21.304266516148118
 11
190.4726997379467
 21
20.366278516148441
  0
LINE
  8
_0-1_
  6
DASHED2
 62
  152
 10
195.4726997379467
 20
20.366278516148441
 11
194.93169973794699
 21
21.304266516148118
  0
LINE
  8
_0-1_
  6
CENTER1
 62
  152
 10
192.9726997379467
 20
25.304266516148118
 11
192.9726997379467
 21
7.3662785161484408
  0
LINE
  8
_0-1_
  6
CENTER1
 62
  152
 10
188.9726997379467
 20
74.98664463082082
 11
196.97269973794715
 21
74.98664463082082
  0
LINE
  8
_0-1_
  6
CENTER1
 62
  152
 10
118.41847731984541
 20
31.404475452538463
 11
110.41847731984541
 21
31.404475452538463
  0
LINE
  8
_0-1_
  6
CENTER1
 62
  152
 10
114.41847731984495
 20
13.404475452538463
 11
114.41847731984495
 21
35.404475452538463
  0
LINE
  8
_0-1_
  6
DASHED2
 62
  152
 10
11.775346838442147
 20
26.404989452538757
 11
13.733338838441796
 21
27.404475452538463
  0
LINE
  8
_0-1_
  6
DASHED2
 62
  152
 10
13.733338838441796
 20
27.404475452538463
 11
15.692338838442083
 21
26.404475452538463
  0
LINE
  8
_0-1_
  6
DASHED2
 62
  152
 10
15.692338838442083
 20
26.404475452538463
 11
15.692338838442083
 21
13.404475452538463
  0
LINE
  8
_0-1_
  6
DASHED2
 62
  152
 10
16.233338838441796
 20
13.404475452538463
 11
16.233338838441796
 21
23.404475452538463
  0
LINE
  8
_0-1_
  6
DASHED2
 62
  152
 10
16.233338838441796
 20
23.404475452538463
 11
11.233338838441796
 21
23.404475452538463
  0
LINE
  8
_0-1_
  6
DASHED2
 62
  152
 10
11.233338838441796
 20
23.404475452538463
 11
11.233338838441796
 21
13.404475452538463
  0
LINE
  8
_0-1_
  6
DASHED2
 62
  152
 10
11.775346838442147
 20
13.404475452538463
 11
11.775346838442147
 21
26.404989452538757
  0
LINE
  8
_0-1_
  6
DASHED2
 62
  152
 10
11.775346838442147
 20
26.404475452538463
 11
15.692338838442083
 21
26.404475452538463
  0
LINE
  8
_0-1_
  6
DASHED2
 62
  152
 10
15.692338838442083
 20
24.342463452538595
 11
16.233338838441796
 21
23.404475452538463
  0
LINE
  8
_0-1_
  6
DASHED2
 62
  152
 10
11.233338838441796
 20
23.404475452538463
 11
11.775346838442147
 21
24.342463452538595
  0
LINE
  8
_0-1_
  6
CENTER1
 62
  152
 10
13.733338838441796
 20
28.342463452538595
 11
13.733338838441796
 21
13.404475452538463
  0
LINE
  8
_0-1_
  6
CENTER1
 62
  152
 10
73.733338838441796
 20
27.404475452538463
 11
73.733338838441796
 21
13.404475452538463
  0
LINE
  8
_0-1_
  6
CENTER1
 62
  152
 10
43.733338838441796
 20
13.404475452538463
 11
43.733338838441796
 21
35.404475452538463
  0
LINE
  8
_0-1_
  6
CENTER1
 62
  152
 10
17.733338838442251
 20
74.98664463082082
 11
9.7333388384417958
 21
74.98664463082082
  0
LINE
  8
_0-1_
  6
CENTER1
 62
  152
 10
13.733338838441796
 20
70.98664463082082
 11
13.733338838441796
 21
78.98664463082082
  0
LINE
  8
_0-1_
  6
CENTER1
 62
  152
 10
73.733338838441796
 20
78.98664463082082
 11
73.733338838441796
 21
70.98664463082082
  0
LINE
  8
_0-1_
  6
CENTER1
 62
  152
 10
69.733338838441796
 20
74.98664463082082
 11
77.733338838442251
 21
74.98664463082082
  0
TEXT
  8
_0-e_
 62
    7
 10
15.052212250849834
 20
81.419201208805475
 40
5
 41
1
 50
0
  1
HAB1
  0
TEXT
  8
_0-e_
 62
    7
 10
193.91932080389603
 20
81.419201208805475
 40
5
 41
1
 50
0
  1
HAB2
  0
ENDSEC
  0
EOF
