  0
SECTION
  2
HEADER
  9
$ACADVER
  1
AC1009
  9
$INSBASE
 10
0
 20
0
 30
0
  9
$EXTMIN
 10
0
 20
0
  9
$EXTMAX
 10
1189
 20
841
  9
$LIMMIN
 10
0
 20
0
  9
$LIMMAX
 10
1189
 20
841
  9
$LTSCALE
 40
1
  0
ENDSEC
  0
SECTION
  2
TABLES
  0
TABLE
  2
LTYPE
 70
     9
  0
LTYPE
  2
CONTINUOUS
 70
    64
  3
実線
 72
    65
 73
     0
 40
0.0
  0
LTYPE
  2
DASHED1
 70
    64
  3
--  --  --  --  --  --  --  --  
 72
    65
 73
     2
 40
2.5
 49
1.25
 49
-1.25
  0
LTYPE
  2
DASHED2
 70
    64
  3
----    ----    ----    ----    
 72
    65
 73
     2
 40
5.0
 49
2.5
 49
-2.5
  0
LTYPE
  2
DASHED3
 70
    64
  3
------  ------  ------  ------  
 72
    65
 73
     2
 40
5.0
 49
3.75
 49
-1.25
  0
LTYPE
  2
CENTER1
 70
    64
  3
----- - ----- - ----- - ----- - 
 72
    65
 73
     4
 40
10.0
 49
6.25
 49
-1.25
 49
1.25
 49
-1.25
  0
LTYPE
  2
CENTER2
 70
    64
  3
----------  --  ----------  --  
 72
    65
 73
     4
 40
20.0
 49
12.5
 49
-2.5
 49
2.5
 49
-2.5
  0
LTYPE
  2
PHANTOM1
 70
    64
  3
--- - - --- - - --- - - --- - - 
 72
    65
 73
     6
 40
10.0
 49
3.25
 49
-1.25
 49
1.25
 49
-1.25
 49
1.25
 49
-1.25
  0
LTYPE
  2
PHANTOM2
 70
    64
  3
--------  -  -  --------  -  -  
 72
    65
 73
     6
 40
20.0
 49
10.0
 49
-2.5
 49
1.25
 49
-2.5
 49
1.25
 49
-2.5
  0
LTYPE
  2
DOT
 70
    64
  3
-   -   -   -   -   -   -   -   
 72
    65
 73
     2
 40
2.5
 49
0.625
 49
-1.875
  0
LTYPE
  2
DUMMY
 70
    64
  3
ダミー
 72
    65
 73
     0
 40
0.0
  0
LTYPE
  2
RAND1
 70
    64
  3
ランダム線1
 72
    65
 73
     4
 40
10.0
 49
1.0
 49
-2.0
 49
3.0
 49
-4.0
  0
LTYPE
  2
RAND2
 70
    64
  3
ランダム線2
 72
    65
 73
     4
 40
14.0
 49
2.0
 49
-3.0
 49
4.0
 49
-5.0
  0
LTYPE
  2
RAND3
 70
    64
  3
ランダム線3
 72
    65
 73
     4
 40
18.0
 49
3.0
 49
-4.0
 49
5.0
 49
-6.0
  0
LTYPE
  2
RAND4
 70
    64
  3
ランダム線4
 72
    65
 73
     4
 40
22.0
 49
4.0
 49
-5.0
 49
6.0
 49
-7.0
  0
LTYPE
  2
RAND5
 70
    64
  3
ランダム線5
 72
    65
 73
     4
 40
26.0
 49
5.0
 49
-6.0
 49
7.0
 49
-8.0
  0
LTYPE
  2
LONG1
 70
    64
  3
----------  --  ----------  --  
 72
    65
 73
     4
 40
40.0
 49
32.5
 49
-2.5
 49
2.5
 49
-2.5
  0
LTYPE
  2
LONG2
 70
    64
  3
--------  -  -  --------  -  -  
 72
    65
 73
     6
 40
40.0
 49
30.0
 49
-2.5
 49
1.25
 49
-2.5
 49
1.25
 49
-2.5
  0
LTYPE
  2
LONG3
 70
    64
  3
+++++++++++++++..+++++++++++++++
 72
    65
 73
     2
 40
40.0
 49
37.5
 49
-2.5
  0
LTYPE
  2
LONG4
 70
    64
  3
+++++++++++++++..+++++++++++++++
 72
    65
 73
     2
 40
80.0
 49
75.0
 49
-5.0
  0
LTYPE
  2
LONG5
 70
    64
  3
----------  --  ----------  --  
 72
    65
 73
     4
 40
60.0
 49
37.5
 49
-7.5
 49
7.5
 49
-7.5
  0
LTYPE
  2
dashed
 70
   64
  3
-------   -------------   ------
 72
   65
 73
    2
 40
7.5
 49
6
 49
-1.5
  0
LTYPE
  2
dashed_spaced
 70
   64
  3
----        --------        ----
 72
   65
 73
    2
 40
12
 49
6
 49
-6
  0
LTYPE
  2
long_dashed_dotted
 70
   64
  3
------------- --- --------------
 72
   65
 73
    4
 40
15.25
 49
12
 49
-1.5
 49
0.25
 49
-1.5
  0
LTYPE
  2
long_dashed_double-dotted
 70
   64
  3
----------- --- --- ------------
 72
   65
 73
    6
 40
17
 49
12
 49
-1.5
 49
0.25
 49
-1.5
 49
0.25
 49
-1.5
  0
LTYPE
  2
long_dashed_triplicate-dotted
 70
   64
  3
--------- --- --- --- ----------
 72
   65
 73
    8
 40
18.75
 49
12
 49
-1.5
 49
0.25
 49
-1.5
 49
0.25
 49
-1.5
 49
0.25
 49
-1.5
  0
LTYPE
  2
dotted
 70
   64
  3
   -       -       -       -    
 72
   65
 73
    2
 40
1.75
 49
0.25
 49
-1.5
  0
LTYPE
  2
chain
 70
   64
  3
-------------- -- --------------
 72
   65
 73
    4
 40
18.5
 49
12
 49
-1.5
 49
3.5
 49
-1.5
  0
LTYPE
  2
chain_double_dash
 70
   64
  3
------------ -- -- -------------
 72
   65
 73
    6
 40
23.5
 49
12
 49
-1.5
 49
3.5
 49
-1.5
 49
3.5
 49
-1.5
  0
LTYPE
  2
dashed_dotted
 70
   64
  3
-----------     -     ----------
 72
   65
 73
    4
 40
9.25
 49
6
 49
-1.5
 49
0.25
 49
-1.5
  0
LTYPE
  2
double-dashed_dotted
 70
   64
  3
------   -----------   -   -----
 72
   65
 73
    6
 40
16.75
 49
6
 49
-1.5
 49
6
 49
-1.5
 49
0.25
 49
-1.5
  0
LTYPE
  2
dashed_double-dotted
 70
   64
  3
---------    -    -    ---------
 72
   65
 73
    6
 40
11
 49
6
 49
-1.5
 49
0.25
 49
-1.5
 49
0.25
 49
-1.5
  0
LTYPE
  2
double-dashed_double-dotted
 70
   64
  3
-----   ---------   -   -   ----
 72
   65
 73
    8
 40
18.5
 49
6
 49
-1.5
 49
6
 49
-1.5
 49
0.25
 49
-1.5
 49
0.25
 49
-1.5
  0
LTYPE
  2
dashed_triplicate-dotted
 70
   64
  3
-------    -    -    -    ------
 72
   65
 73
    8
 40
12.75
 49
6
 49
-1.5
 49
0.25
 49
-1.5
 49
0.25
 49
-1.5
 49
0.25
 49
-1.5
  0
LTYPE
  2
double-dashed_triplicate-dotted
 70
   64
  3
-----  ---------  -  -  -  -----
 72
   65
 73
   10
 40
20.25
 49
6
 49
-1.5
 49
6
 49
-1.5
 49
0.25
 49
-1.5
 49
0.25
 49
-1.5
 49
0.25
 49
-1.5
  0
LTYPE
  2
undefined
 70
   64
  3
--------------------------------
 72
   65
 73
    0
 40
0
  0
LTYPE
  2
_
 70
   64
  3
                                
 72
   65
 73
    0
 40
0
  0
LTYPE
  2
__18
 70
   64
  3
                                
 72
   65
 73
    0
 40
0
  0
LTYPE
  2
__19
 70
   64
  3
                                
 72
   65
 73
    0
 40
0
  0
LTYPE
  2
__20
 70
   64
  3
                                
 72
   65
 73
    0
 40
0
  0
LTYPE
  2
__21
 70
   64
  3
                                
 72
   65
 73
    0
 40
0
  0
LTYPE
  2
__22
 70
   64
  3
                                
 72
   65
 73
    0
 40
0
  0
LTYPE
  2
__23
 70
   64
  3
                                
 72
   65
 73
    0
 40
0
  0
LTYPE
  2
__24
 70
   64
  3
                                
 72
   65
 73
    0
 40
0
  0
LTYPE
  2
__25
 70
   64
  3
                                
 72
   65
 73
    0
 40
0
  0
LTYPE
  2
__26
 70
   64
  3
                                
 72
   65
 73
    0
 40
0
  0
LTYPE
  2
__27
 70
   64
  3
                                
 72
   65
 73
    0
 40
0
  0
LTYPE
  2
__28
 70
   64
  3
                                
 72
   65
 73
    0
 40
0
  0
LTYPE
  2
__29
 70
   64
  3
                                
 72
   65
 73
    0
 40
0
  0
LTYPE
  2
__30
 70
   64
  3
                                
 72
   65
 73
    0
 40
0
  0
LTYPE
  2
__31
 70
   64
  3
                                
 72
   65
 73
    0
 40
0
  0
LTYPE
  2
__32
 70
   64
  3
                                
 72
   65
 73
    0
 40
0
  0
ENDTAB
  0
TABLE
  2
STYLE
  5
3
100
AcDbSymbolTable
 70
     1
  0
STYLE
  5
10
100
AcDbSymbolTableRecord
100
AcDbTextStyleTableRecord
  2
STANDARD
 70
     0
 40
0.0
 41
1.0
 50
0.0
 71
     0
 42
0.2
  3
txt
  4
bigfont.shx
  0
STYLE
  5
26
100
AcDbSymbolTableRecord
100
AcDbTextStyleTableRecord
  2
TATEGAKI
 70
    68
 40
0.0
 41
1.0
 50
0.0
 71
     0
 42
1.0
  3
txt
  4
bigfont.shx
  0
ENDTAB
  0
TABLE
  2
LAYER
 70
    4
  0
LAYER
  2
_0-0_
 70
   64
 62
    7
  6
CONTINUOUS
  0
LAYER
  2
_0-1_
 70
   64
 62
    7
  6
CONTINUOUS
  0
LAYER
  2
_0-e_
 70
   64
 62
    7
  6
CONTINUOUS
  0
LAYER
  2
ADD_LINE
 70
   64
 62
    7
  6
CONTINUOUS
  0
ENDTAB
  0
ENDSEC
  0
SECTION
  2
BLOCKS
  0
ENDSEC
  0
SECTION
  2
ENTITIES
  0
LINE
  8
_0-0_
  6
CENTER1
 62
  152
 10
65.124329128018417
 20
101.90464641481424
 11
65.124329128018417
 21
91.904646414814238
  0
ARC
  8
_0-0_
  6
CENTER1
 62
  152
 10
74.124329128018417
 20
101.90464641481424
 40
9
 50
90
 51
180
  0
LINE
  8
_0-0_
  6
CENTER1
 62
  152
 10
74.124329128018417
 20
110.90464641481424
 11
116.12432912801847
 21
110.90464641481424
  0
ARC
  8
_0-0_
  6
CENTER1
 62
  152
 10
116.12432912801847
 20
101.90464641481424
 40
9
 50
0
 51
90
  0
LINE
  8
_0-0_
  6
CENTER1
 62
  152
 10
125.12432912801847
 20
101.90464641481424
 11
125.12432912801847
 21
91.904646414814238
  0
LINE
  8
_0-0_
  6
CENTER1
 62
  152
 10
57.776803712491528
 20
82.823928006814242
 11
72.753425398986792
 21
82.823928006814242
  0
LINE
  8
_0-0_
  6
CENTER1
 62
  152
 10
65.124329128018417
 20
91.904646414814238
 11
65.124329128018417
 21
72.335074490948273
  0
CIRCLE
  8
_0-0_
  6
CONTINUOUS
 62
  152
 10
65.124329128018417
 20
82.823928006814242
 40
2
  0
CIRCLE
  8
_0-0_
  6
CONTINUOUS
 62
    7
 10
65.124329128018417
 20
82.823928006814242
 40
1.7000000476837158
  0
LINE
  8
_0-0_
  6
CENTER1
 62
  152
 10
237.01884864753799
 20
103.90464641481424
 11
237.01884864753799
 21
91.904646414814238
  0
ARC
  8
_0-0_
  6
CENTER1
 62
  152
 10
250.51884864753799
 20
103.90464641481424
 40
13.5
 50
90
 51
180
  0
LINE
  8
_0-0_
  6
CENTER1
 62
  152
 10
323.51884864753799
 20
117.40464641481424
 11
250.51884864753799
 21
117.40464641481424
  0
ARC
  8
_0-0_
  6
CENTER1
 62
  152
 10
323.51884864753799
 20
103.90464641481424
 40
13.5
 50
0
 51
90
  0
LINE
  8
_0-0_
  6
CENTER1
 62
  152
 10
337.01884864753799
 20
103.90464641481424
 11
337.01884864753799
 21
91.904646414814238
  0
LINE
  8
_0-0_
  6
CENTER1
 62
  152
 10
237.01884864753799
 20
91.904646414814238
 11
237.01884864753799
 21
71.993436616022279
  0
LINE
  8
_0-0_
  6
CENTER1
 62
  152
 10
228.70059858010779
 20
80.134039344570169
 11
246.46902953568838
 21
80.134039344570169
  0
CIRCLE
  8
_0-0_
  6
CONTINUOUS
 62
  152
 10
237.01884864753799
 20
80.134039344570624
 40
2.5
  0
CIRCLE
  8
_0-0_
  6
CONTINUOUS
 62
    7
 10
237.01884864753799
 20
80.134039344570624
 40
2.1500000953674316
  0
ARC
  8
_0-0_
  6
CONTINUOUS
 62
    7
 10
116.12432912801847
 20
101.90464641481424
 40
6
 50
0
 51
90
  0
LINE
  8
_0-0_
  6
CONTINUOUS
 62
    7
 10
74.124329128018417
 20
107.90464641481424
 11
116.12432912801847
 21
107.90464641481424
  0
ARC
  8
_0-0_
  6
CONTINUOUS
 62
    7
 10
74.124329128018417
 20
101.90464641481424
 40
6
 50
90
 51
180
  0
ARC
  8
_0-0_
  6
CONTINUOUS
 62
    7
 10
74.124329128018417
 20
101.90464641481424
 40
12
 50
90
 51
180
  0
LINE
  8
_0-0_
  6
CONTINUOUS
 62
    7
 10
116.12432912801847
 20
113.90464641481424
 11
74.124329128018417
 21
113.90464641481424
  0
ARC
  8
_0-0_
  6
CONTINUOUS
 62
    7
 10
116.12432912801847
 20
101.90464641481424
 40
12
 50
0
 51
90
  0
LINE
  8
_0-0_
  6
CONTINUOUS
 62
    7
 10
122.12432912801847
 20
101.90464641481424
 11
122.12432912801847
 21
91.904646414814238
  0
LINE
  8
_0-0_
  6
CONTINUOUS
 62
    7
 10
128.12432912801847
 20
101.90464641481424
 11
128.12432912801847
 21
91.904646414814238
  0
LINE
  8
_0-0_
  6
CONTINUOUS
 62
    7
 10
122.12432912801847
 20
91.904646414814238
 11
128.12432912801847
 21
91.904646414814238
  0
LINE
  8
_0-0_
  6
CONTINUOUS
 62
    7
 10
68.124329128018417
 20
101.90464641481424
 11
68.124329128018417
 21
91.904646414814238
  0
LINE
  8
_0-0_
  6
CONTINUOUS
 62
    7
 10
62.124329128018417
 20
101.90464641481424
 11
62.124329128018417
 21
91.904646414814238
  0
LINE
  8
_0-0_
  6
CONTINUOUS
 62
    7
 10
62.124329128018417
 20
91.904646414814238
 11
68.124329128018417
 21
91.904646414814238
  0
CIRCLE
  8
_0-0_
  6
CONTINUOUS
 62
    7
 10
65.124329128018417
 20
82.823928006814242
 40
3
  0
ARC
  8
_0-0_
  6
CONTINUOUS
 62
    7
 10
250.51884864753799
 20
103.90464641481424
 40
9
 50
90
 51
180
  0
LINE
  8
_0-0_
  6
CONTINUOUS
 62
    7
 10
323.51884864753799
 20
112.90464641481424
 11
250.51884864753799
 21
112.90464641481424
  0
ARC
  8
_0-0_
  6
CONTINUOUS
 62
    7
 10
323.51884864753799
 20
103.90464641481424
 40
9
 50
0
 51
90
  0
ARC
  8
_0-0_
  6
CONTINUOUS
 62
    7
 10
250.51884864753799
 20
103.90464641481424
 40
18
 50
90
 51
180
  0
LINE
  8
_0-0_
  6
CONTINUOUS
 62
    7
 10
323.51884864753799
 20
121.90464641481424
 11
250.51884864753799
 21
121.90464641481424
  0
ARC
  8
_0-0_
  6
CONTINUOUS
 62
    7
 10
323.51884864753799
 20
103.90464641481424
 40
18
 50
0
 51
90
  0
LINE
  8
_0-0_
  6
CONTINUOUS
 62
    7
 10
241.51884864753799
 20
103.90464641481424
 11
241.51884864753799
 21
91.904646414814238
  0
LINE
  8
_0-0_
  6
CONTINUOUS
 62
    7
 10
232.51884864753799
 20
103.90464641481424
 11
232.51884864753799
 21
91.904646414814238
  0
LINE
  8
_0-0_
  6
CONTINUOUS
 62
    7
 10
241.51884864753799
 20
91.904646414814238
 11
232.51884864753799
 21
91.904646414814238
  0
LINE
  8
_0-0_
  6
CONTINUOUS
 62
    7
 10
332.51884864753799
 20
103.90464641481424
 11
332.51884864753799
 21
91.904646414814238
  0
LINE
  8
_0-0_
  6
CONTINUOUS
 62
    7
 10
341.51884864753799
 20
103.90464641481424
 11
341.51884864753799
 21
91.904646414814238
  0
LINE
  8
_0-0_
  6
CONTINUOUS
 62
    7
 10
341.51884864753799
 20
91.904646414814238
 11
332.51884864753799
 21
91.904646414814238
  0
CIRCLE
  8
_0-0_
  6
CONTINUOUS
 62
    7
 10
237.01884864753799
 20
80.134039344570169
 40
4.5
  0
LINE
  8
_0-0_
  6
CONTINUOUS
 62
    7
 10
147.5646444433338
 20
91.904646414814238
 11
153.5646444433338
 21
91.904646414814238
  0
LINE
  8
_0-0_
  6
CONTINUOUS
 62
    7
 10
366.95916396285332
 20
91.904646414814238
 11
357.95916396285332
 21
91.904646414814238
  0
LINE
  8
_0-0_
  6
CONTINUOUS
 62
    7
 10
147.5646444433338
 20
110.90464641481424
 11
147.5646444433338
 21
91.904646414814238
  0
LINE
  8
_0-0_
  6
CONTINUOUS
 62
    7
 10
153.5646444433338
 20
110.90464641481424
 11
153.5646444433338
 21
91.904646414814238
  0
LINE
  8
_0-0_
  6
CENTER1
 62
  152
 10
362.45916396285332
 20
125.13861833647883
 11
362.45916396285332
 21
91.904646414814238
  0
LINE
  8
_0-0_
  6
CONTINUOUS
 62
    7
 10
357.95916396285332
 20
117.40464641481424
 11
357.95916396285332
 21
91.904646414814238
  0
LINE
  8
_0-0_
  6
CONTINUOUS
 62
    7
 10
366.95916396285332
 20
117.40464641481424
 11
366.95916396285332
 21
91.904646414814238
  0
ARC
  8
_0-0_
  6
CONTINUOUS
 62
    7
 10
362.45916396285332
 20
117.40464641481424
 40
4.5
 50
0
 51
180
  0
ARC
  8
_0-0_
  6
CONTINUOUS
 62
    7
 10
150.5646444433338
 20
110.90464641481424
 40
3
 50
0
 51
180
  0
LINE
  8
_0-0_
  6
CENTER1
 62
  152
 10
145.13797592260681
 20
110.90464641481424
 11
157.38925737647446
 21
110.90464641481424
  0
LINE
  8
_0-0_
  6
CENTER1
 62
  152
 10
150.5646444433338
 20
116.97109736723371
 11
150.5646444433338
 21
91.904646414814238
  0
LINE
  8
_0-0_
  6
CENTER1
 62
  152
 10
353.97127770499264
 20
117.40464641481424
 11
369.89794359502065
 21
117.40464641481424
  0
LINE
  8
_0-0_
  6
DASHED2
 62
  152
 10
63.124329128018417
 20
98.904646414814238
 11
63.124329128018417
 21
91.904646414814238
  0
LINE
  8
_0-0_
  6
DASHED2
 62
  152
 10
63.124329128018417
 20
98.904646414814238
 11
65.124329128018417
 21
98.904646414814238
  0
LINE
  8
_0-0_
  6
DASHED2
 62
  152
 10
63.124329128018417
 20
98.904646414814238
 11
63.424329080018424
 21
99.077851467858295
  0
LINE
  8
_0-0_
  6
DASHED2
 62
  152
 10
63.424329080018424
 20
99.077851467858295
 11
65.124329128018417
 21
99.077851467858295
  0
LINE
  8
_0-0_
  6
DASHED2
 62
  152
 10
63.424329080018424
 20
100.48722084523757
 11
63.424329080018424
 21
91.904646414814238
  0
LINE
  8
_0-0_
  6
DASHED2
 62
  152
 10
67.124329128018417
 20
98.904646414814238
 11
67.124329128018417
 21
91.904646414814238
  0
LINE
  8
_0-0_
  6
DASHED2
 62
  152
 10
67.124329128018417
 20
98.904646414814238
 11
65.124329128018417
 21
98.904646414814238
  0
LINE
  8
_0-0_
  6
DASHED2
 62
  152
 10
67.124329128018417
 20
98.904646414814238
 11
66.824329176018523
 21
99.077851467858295
  0
LINE
  8
_0-0_
  6
DASHED2
 62
  152
 10
66.824329176018523
 20
99.077851467858295
 11
65.124329128018417
 21
99.077851467858295
  0
LINE
  8
_0-0_
  6
DASHED2
 62
  152
 10
66.824329176018523
 20
100.48722084523757
 11
66.824329176018523
 21
91.904646414814238
  0
LINE
  8
_0-0_
  6
DASHED2
 62
  152
 10
234.51884864753799
 20
99.904646414814238
 11
234.51884864753799
 21
91.904646414814238
  0
LINE
  8
_0-0_
  6
DASHED2
 62
  152
 10
237.01884864753799
 20
99.904646414814238
 11
234.51884864753799
 21
99.904646414814238
  0
LINE
  8
_0-0_
  6
DASHED2
 62
  152
 10
234.51884864753799
 20
99.904646414814238
 11
234.86884855213799
 21
100.10671895395137
  0
LINE
  8
_0-0_
  6
DASHED2
 62
  152
 10
234.86884855213799
 20
100.10671895395137
 11
237.01884864753799
 21
100.10671895395137
  0
LINE
  8
_0-0_
  6
DASHED2
 62
  152
 10
234.86884855213799
 20
101.32586690269352
 11
234.86884855213799
 21
91.904646414814238
  0
LINE
  8
_0-0_
  6
DASHED2
 62
  152
 10
239.51884864753799
 20
99.904646414814238
 11
239.51884864753799
 21
91.904646414814238
  0
LINE
  8
_0-0_
  6
DASHED2
 62
  152
 10
237.01884864753799
 20
99.904646414814238
 11
239.51884864753799
 21
99.904646414814238
  0
LINE
  8
_0-0_
  6
DASHED2
 62
  152
 10
239.51884864753799
 20
99.904646414814238
 11
239.168848742938
 21
100.10671895395137
  0
LINE
  8
_0-0_
  6
DASHED2
 62
  152
 10
239.168848742938
 20
100.10671895395137
 11
237.01884864753799
 21
100.10671895395137
  0
LINE
  8
_0-0_
  6
DASHED2
 62
  152
 10
239.168848742938
 20
101.32586690269352
 11
239.168848742938
 21
91.904646414814238
  0
TEXT
  8
_0-e_
 62
    7
 10
69.100836170101843
 20
117.34980946993448
 40
5
 41
1
 50
0
  1
HAB1A
  0
TEXT
  8
_0-e_
 62
    7
 10
249.85828462070765
 20
127.6102576875486
 40
5
 41
1
 50
0
  1
HAB2A
  0
LINE
  8
_0-1_
  6
CONTINUOUS
 62
  152
 10
129.82432893728361
 20
86.616201985178236
 11
120.42432931875334
 21
86.616201985178236
  0
LINE
  8
ADD_LINE
  6
DOT
 62
    9
 10
125.12432912801847
 20
86.904646414814238
 11
124.41722234683181
 21
87.611753196000905
  0
LINE
  8
ADD_LINE
  6
DOT
 62
    9
 10
125.12432912801847
 20
86.904646414814238
 11
125.83143590920514
 21
87.611753196000905
  0
LINE
  8
_0-1_
  6
CONTINUOUS
 62
   56
 10
129.82432893728361
 20
86.616201985178236
 11
129.82432893728361
 21
86.904646414814238
  0
LINE
  8
_0-1_
  6
CONTINUOUS
 62
   56
 10
120.42432931875334
 20
86.616201985178236
 11
120.42432931875334
 21
86.904646414814238
  0
ARC
  8
_0-1_
  6
CONTINUOUS
 62
   56
 10
125.12432912801847
 20
90.504646319446806
 40
6.0999999046325684
 50
219.60191345214844
 51
320.3980712890625
  0
LINE
  8
_0-1_
  6
CONTINUOUS
 62
   56
 10
129.82432893728361
 20
86.904646414778256
 11
120.42432931875334
 21
86.904646414778256
  0
LINE
  8
_0-1_
  6
CONTINUOUS
 62
  152
 10
126.82432917570219
 20
86.904646414814238
 11
126.82432917570219
 21
94.904646414778256
  0
LINE
  8
_0-1_
  6
CONTINUOUS
 62
  152
 10
123.42432908033476
 20
86.904646414814238
 11
123.42432908033476
 21
94.904646414778256
  0
LINE
  8
_0-1_
  6
CONTINUOUS
 62
  152
 10
127.12432912801847
 20
94.604646224043393
 11
123.12432912801847
 21
94.604646224043393
  0
LINE
  8
_0-1_
  6
CONTINUOUS
 62
   56
 10
123.12432912801847
 20
86.904646414814238
 11
123.12432912801847
 21
94.604646224043393
  0
LINE
  8
_0-1_
  6
CONTINUOUS
 62
   56
 10
123.42432908033476
 20
94.904646414778256
 11
123.12432912801847
 21
94.604646224043393
  0
LINE
  8
_0-1_
  6
CONTINUOUS
 62
   56
 10
126.82432917570219
 20
94.904646414778256
 11
123.42432908033476
 21
94.904646414778256
  0
LINE
  8
_0-1_
  6
CONTINUOUS
 62
   56
 10
126.82432917570219
 20
94.904646414778256
 11
127.12432912801847
 21
94.604646224043393
  0
LINE
  8
_0-1_
  6
CONTINUOUS
 62
   56
 10
127.12432912801847
 20
86.904646414814238
 11
127.12432912801847
 21
94.604646224043393
  0
LINE
  8
_0-1_
  6
CONTINUOUS
 62
   56
 10
127.22432903265104
 20
72.779151936005519
 11
127.22432903265104
 21
73.619151909779475
  0
LINE
  8
_0-1_
  6
CONTINUOUS
 62
   56
 10
124.7043291411315
 20
75.299151827525066
 11
125.54432911490545
 21
75.299151827525066
  0
LINE
  8
_0-1_
  6
CONTINUOUS
 62
   56
 10
123.02432922338591
 20
72.779151936005519
 11
123.02432922338591
 21
73.619151909779475
  0
LINE
  8
_0-1_
  6
CONTINUOUS
 62
   56
 10
124.7043291411315
 20
71.099152018259929
 11
125.54432911490545
 21
71.099152018259929
  0
LINE
  8
_0-1_
  6
CONTINUOUS
 62
   56
 10
125.54432911490545
 20
74.459151913355754
 11
125.54432911490545
 21
75.299151827525066
  0
LINE
  8
_0-1_
  6
CONTINUOUS
 62
   56
 10
126.38432911848173
 20
73.619151909779475
 11
127.22432903265104
 21
73.619151909779475
  0
LINE
  8
_0-1_
  6
CONTINUOUS
 62
   56
 10
126.38432911848173
 20
72.779151936005519
 11
127.22432903265104
 21
72.779151936005519
  0
LINE
  8
_0-1_
  6
CONTINUOUS
 62
   56
 10
125.54432911490545
 20
71.93915193242924
 11
125.54432911490545
 21
71.099152018259929
  0
LINE
  8
_0-1_
  6
CONTINUOUS
 62
   56
 10
124.7043291411315
 20
71.93915193242924
 11
124.7043291411315
 21
71.099152018259929
  0
LINE
  8
_0-1_
  6
CONTINUOUS
 62
   56
 10
123.86432913755522
 20
72.779151936005519
 11
123.02432922338591
 21
72.779151936005519
  0
LINE
  8
_0-1_
  6
CONTINUOUS
 62
   56
 10
123.86432913755522
 20
73.619151909779475
 11
123.02432922338591
 21
73.619151909779475
  0
LINE
  8
_0-1_
  6
CONTINUOUS
 62
   56
 10
124.7043291411315
 20
74.459151913355754
 11
124.7043291411315
 21
75.299151827525066
  0
CIRCLE
  8
_0-1_
  6
CONTINUOUS
 62
   56
 10
125.12432912801847
 20
73.199151922892497
 40
4.6999998092651367
  0
ARC
  8
_0-1_
  6
CONTINUOUS
 62
   56
 10
126.38432911848173
 20
74.459151913355754
 40
0.8399999737739563
 50
180
 51
270
  0
ARC
  8
_0-1_
  6
CONTINUOUS
 62
   56
 10
126.38432911848173
 20
71.93915193242924
 40
0.8399999737739563
 50
90
 51
180
  0
ARC
  8
_0-1_
  6
CONTINUOUS
 62
   56
 10
123.86432913755522
 20
71.93915193242924
 40
0.8399999737739563
 50
0
 51
90
  0
ARC
  8
_0-1_
  6
CONTINUOUS
 62
   56
 10
123.86432913755522
 20
74.459151913355754
 40
0.8399999737739563
 50
270
 51
0
  0
LINE
  8
_0-1_
  6
CENTER1
 62
  152
 10
125.12432912801847
 20
96.02506930683461
 11
125.12432912801847
 21
67.898346464062342
  0
LINE
  8
_0-1_
  6
CENTER1
 62
  152
 10
119.8605226146671
 20
73.199151922892497
 11
130.40804368070667
 21
73.199151922892497
  0
LINE
  8
_0-1_
  6
CONTINUOUS
 62
  152
 10
342.91884874290542
 20
86.556919652519468
 11
331.11884855217056
 21
86.556919652519468
  0
LINE
  8
_0-1_
  6
CONTINUOUS
 62
  152
 10
339.16884874290542
 20
86.904646414814238
 11
339.16884874290542
 21
96.904646414814238
  0
LINE
  8
_0-1_
  6
CONTINUOUS
 62
  152
 10
334.86884855217056
 20
86.904646414814238
 11
334.86884855217056
 21
96.904646414814238
  0
LINE
  8
_0-1_
  6
CONTINUOUS
 62
  152
 10
334.51884864753799
 20
96.554646033344511
 11
339.51884864753799
 21
96.554646033344511
  0
LINE
  8
ADD_LINE
  6
DOT
 62
    9
 10
337.01884864753799
 20
86.904646414814238
 11
336.31174186635133
 21
87.611753196000905
  0
LINE
  8
ADD_LINE
  6
DOT
 62
    9
 10
337.01884864753799
 20
86.904646414814238
 11
337.72595542872466
 21
87.611753196000905
  0
LINE
  8
_0-1_
  6
CONTINUOUS
 62
   56
 10
342.91884874290542
 20
86.556919652519468
 11
342.91884874290542
 21
86.904646414814238
  0
LINE
  8
_0-1_
  6
CONTINUOUS
 62
   56
 10
331.11884855217056
 20
86.556919652519468
 11
331.11884855217056
 21
86.904646414814238
  0
LINE
  8
_0-1_
  6
CONTINUOUS
 62
   56
 10
339.51884864753799
 20
86.904646414814238
 11
339.51884864753799
 21
96.554646033344511
  0
LINE
  8
_0-1_
  6
CONTINUOUS
 62
   56
 10
339.16884874290542
 20
96.904646414814238
 11
339.51884864753799
 21
96.554646033344511
  0
LINE
  8
_0-1_
  6
CONTINUOUS
 62
   56
 10
334.51884864753799
 20
86.904646414814238
 11
334.51884864753799
 21
96.554646033344511
  0
LINE
  8
_0-1_
  6
CONTINUOUS
 62
   56
 10
334.86884855217056
 20
96.904646414814238
 11
334.51884864753799
 21
96.554646033344511
  0
LINE
  8
_0-1_
  6
CONTINUOUS
 62
   56
 10
339.16884874290542
 20
96.904646414814238
 11
334.86884855217056
 21
96.904646414814238
  0
ARC
  8
_0-1_
  6
CONTINUOUS
 62
   56
 10
337.01884864753799
 20
91.504646319446806
 40
7.6999998092651367
 50
219.98310852050784
 51
320.01687622070312
  0
LINE
  8
_0-1_
  6
CONTINUOUS
 62
   56
 10
342.91884874290542
 20
86.904646414819467
 11
331.11884855217056
 21
86.904646414819467
  0
LINE
  8
_0-1_
  6
CENTER1
 62
  152
 10
337.01884864753799
 20
97.931924388449545
 11
337.01884864753799
 21
66.289361190330794
  0
LINE
  8
_0-1_
  6
CENTER1
 62
  152
 10
330.10805758236688
 20
73.199151924819489
 11
343.52234078430445
 21
73.199151924819489
  0
LINE
  8
_0-1_
  6
CONTINUOUS
 62
   56
 10
339.46884869522171
 20
72.709151915282746
 11
339.46884869522171
 21
73.689151934356232
  0
LINE
  8
_0-1_
  6
CONTINUOUS
 62
   56
 10
336.52884863800125
 20
75.649151972503205
 11
337.50884865707474
 21
75.649151972503205
  0
LINE
  8
_0-1_
  6
CONTINUOUS
 62
   56
 10
334.56884859985428
 20
72.709151915282746
 11
334.56884859985428
 21
73.689151934356232
  0
LINE
  8
_0-1_
  6
CONTINUOUS
 62
   56
 10
336.52884863800125
 20
70.749151877135773
 11
337.50884865707474
 21
70.749151877135773
  0
LINE
  8
_0-1_
  6
CONTINUOUS
 62
   56
 10
337.50884865707474
 20
74.669151953429719
 11
337.50884865707474
 21
75.649151972503205
  0
LINE
  8
_0-1_
  6
CONTINUOUS
 62
   56
 10
338.48884867614822
 20
73.689151934356232
 11
339.46884869522171
 21
73.689151934356232
  0
LINE
  8
_0-1_
  6
CONTINUOUS
 62
   56
 10
338.48884867614822
 20
72.709151915282746
 11
339.46884869522171
 21
72.709151915282746
  0
LINE
  8
_0-1_
  6
CONTINUOUS
 62
   56
 10
337.50884865707474
 20
71.72915189620926
 11
337.50884865707474
 21
70.749151877135773
  0
LINE
  8
_0-1_
  6
CONTINUOUS
 62
   56
 10
336.52884863800125
 20
71.72915189620926
 11
336.52884863800125
 21
70.749151877135773
  0
LINE
  8
_0-1_
  6
CONTINUOUS
 62
   56
 10
335.54884861892776
 20
72.709151915282746
 11
334.56884859985428
 21
72.709151915282746
  0
LINE
  8
_0-1_
  6
CONTINUOUS
 62
   56
 10
335.54884861892776
 20
73.689151934356232
 11
334.56884859985428
 21
73.689151934356232
  0
LINE
  8
_0-1_
  6
CONTINUOUS
 62
   56
 10
336.52884863800125
 20
74.669151953429719
 11
336.52884863800125
 21
75.649151972503205
  0
CIRCLE
  8
_0-1_
  6
CONTINUOUS
 62
   56
 10
337.01884864753799
 20
73.199151924819489
 40
5.9000000953674316
  0
ARC
  8
_0-1_
  6
CONTINUOUS
 62
   56
 10
338.48884867614822
 20
74.669151953429719
 40
0.9800000190734863
 50
180
 51
270
  0
ARC
  8
_0-1_
  6
CONTINUOUS
 62
   56
 10
338.48884867614822
 20
71.72915189620926
 40
0.9800000190734863
 50
90
 51
180
  0
ARC
  8
_0-1_
  6
CONTINUOUS
 62
   56
 10
335.54884861892776
 20
71.72915189620926
 40
0.9800000190734863
 50
0
 51
90
  0
ARC
  8
_0-1_
  6
CONTINUOUS
 62
   56
 10
335.54884861892776
 20
74.669151953429719
 40
0.9800000190734863
 50
270
 51
0
  0
ENDSEC
  0
EOF
