  0
SECTION
  2
HEADER
  9
$ACADVER
  1
AC1009
  9
$INSBASE
 10
0
 20
0
 30
0
  9
$EXTMIN
 10
0
 20
0
  9
$EXTMAX
 10
1189
 20
841
  9
$LIMMIN
 10
0
 20
0
  9
$LIMMAX
 10
1189
 20
841
  9
$LTSCALE
 40
1
  0
ENDSEC
  0
SECTION
  2
TABLES
  0
TABLE
  2
LTYPE
 70
     9
  0
LTYPE
  2
CONTINUOUS
 70
    64
  3
実線
 72
    65
 73
     0
 40
0.0
  0
LTYPE
  2
DASHED1
 70
    64
  3
--  --  --  --  --  --  --  --  
 72
    65
 73
     2
 40
2.5
 49
1.25
 49
-1.25
  0
LTYPE
  2
DASHED2
 70
    64
  3
----    ----    ----    ----    
 72
    65
 73
     2
 40
5.0
 49
2.5
 49
-2.5
  0
LTYPE
  2
DASHED3
 70
    64
  3
------  ------  ------  ------  
 72
    65
 73
     2
 40
5.0
 49
3.75
 49
-1.25
  0
LTYPE
  2
CENTER1
 70
    64
  3
----- - ----- - ----- - ----- - 
 72
    65
 73
     4
 40
10.0
 49
6.25
 49
-1.25
 49
1.25
 49
-1.25
  0
LTYPE
  2
CENTER2
 70
    64
  3
----------  --  ----------  --  
 72
    65
 73
     4
 40
20.0
 49
12.5
 49
-2.5
 49
2.5
 49
-2.5
  0
LTYPE
  2
PHANTOM1
 70
    64
  3
--- - - --- - - --- - - --- - - 
 72
    65
 73
     6
 40
10.0
 49
3.25
 49
-1.25
 49
1.25
 49
-1.25
 49
1.25
 49
-1.25
  0
LTYPE
  2
PHANTOM2
 70
    64
  3
--------  -  -  --------  -  -  
 72
    65
 73
     6
 40
20.0
 49
10.0
 49
-2.5
 49
1.25
 49
-2.5
 49
1.25
 49
-2.5
  0
LTYPE
  2
DOT
 70
    64
  3
-   -   -   -   -   -   -   -   
 72
    65
 73
     2
 40
2.5
 49
0.625
 49
-1.875
  0
LTYPE
  2
DUMMY
 70
    64
  3
ダミー
 72
    65
 73
     0
 40
0.0
  0
LTYPE
  2
RAND1
 70
    64
  3
ランダム線1
 72
    65
 73
     4
 40
10.0
 49
1.0
 49
-2.0
 49
3.0
 49
-4.0
  0
LTYPE
  2
RAND2
 70
    64
  3
ランダム線2
 72
    65
 73
     4
 40
14.0
 49
2.0
 49
-3.0
 49
4.0
 49
-5.0
  0
LTYPE
  2
RAND3
 70
    64
  3
ランダム線3
 72
    65
 73
     4
 40
18.0
 49
3.0
 49
-4.0
 49
5.0
 49
-6.0
  0
LTYPE
  2
RAND4
 70
    64
  3
ランダム線4
 72
    65
 73
     4
 40
22.0
 49
4.0
 49
-5.0
 49
6.0
 49
-7.0
  0
LTYPE
  2
RAND5
 70
    64
  3
ランダム線5
 72
    65
 73
     4
 40
26.0
 49
5.0
 49
-6.0
 49
7.0
 49
-8.0
  0
LTYPE
  2
LONG1
 70
    64
  3
----------  --  ----------  --  
 72
    65
 73
     4
 40
40.0
 49
32.5
 49
-2.5
 49
2.5
 49
-2.5
  0
LTYPE
  2
LONG2
 70
    64
  3
--------  -  -  --------  -  -  
 72
    65
 73
     6
 40
40.0
 49
30.0
 49
-2.5
 49
1.25
 49
-2.5
 49
1.25
 49
-2.5
  0
LTYPE
  2
LONG3
 70
    64
  3
+++++++++++++++..+++++++++++++++
 72
    65
 73
     2
 40
40.0
 49
37.5
 49
-2.5
  0
LTYPE
  2
LONG4
 70
    64
  3
+++++++++++++++..+++++++++++++++
 72
    65
 73
     2
 40
80.0
 49
75.0
 49
-5.0
  0
LTYPE
  2
LONG5
 70
    64
  3
----------  --  ----------  --  
 72
    65
 73
     4
 40
60.0
 49
37.5
 49
-7.5
 49
7.5
 49
-7.5
  0
LTYPE
  2
dashed
 70
   64
  3
-------   -------------   ------
 72
   65
 73
    2
 40
7.5
 49
6
 49
-1.5
  0
LTYPE
  2
dashed_spaced
 70
   64
  3
----        --------        ----
 72
   65
 73
    2
 40
12
 49
6
 49
-6
  0
LTYPE
  2
long_dashed_dotted
 70
   64
  3
------------- --- --------------
 72
   65
 73
    4
 40
15.25
 49
12
 49
-1.5
 49
0.25
 49
-1.5
  0
LTYPE
  2
long_dashed_double-dotted
 70
   64
  3
----------- --- --- ------------
 72
   65
 73
    6
 40
17
 49
12
 49
-1.5
 49
0.25
 49
-1.5
 49
0.25
 49
-1.5
  0
LTYPE
  2
long_dashed_triplicate-dotted
 70
   64
  3
--------- --- --- --- ----------
 72
   65
 73
    8
 40
18.75
 49
12
 49
-1.5
 49
0.25
 49
-1.5
 49
0.25
 49
-1.5
 49
0.25
 49
-1.5
  0
LTYPE
  2
dotted
 70
   64
  3
   -       -       -       -    
 72
   65
 73
    2
 40
1.75
 49
0.25
 49
-1.5
  0
LTYPE
  2
chain
 70
   64
  3
-------------- -- --------------
 72
   65
 73
    4
 40
18.5
 49
12
 49
-1.5
 49
3.5
 49
-1.5
  0
LTYPE
  2
chain_double_dash
 70
   64
  3
------------ -- -- -------------
 72
   65
 73
    6
 40
23.5
 49
12
 49
-1.5
 49
3.5
 49
-1.5
 49
3.5
 49
-1.5
  0
LTYPE
  2
dashed_dotted
 70
   64
  3
-----------     -     ----------
 72
   65
 73
    4
 40
9.25
 49
6
 49
-1.5
 49
0.25
 49
-1.5
  0
LTYPE
  2
double-dashed_dotted
 70
   64
  3
------   -----------   -   -----
 72
   65
 73
    6
 40
16.75
 49
6
 49
-1.5
 49
6
 49
-1.5
 49
0.25
 49
-1.5
  0
LTYPE
  2
dashed_double-dotted
 70
   64
  3
---------    -    -    ---------
 72
   65
 73
    6
 40
11
 49
6
 49
-1.5
 49
0.25
 49
-1.5
 49
0.25
 49
-1.5
  0
LTYPE
  2
double-dashed_double-dotted
 70
   64
  3
-----   ---------   -   -   ----
 72
   65
 73
    8
 40
18.5
 49
6
 49
-1.5
 49
6
 49
-1.5
 49
0.25
 49
-1.5
 49
0.25
 49
-1.5
  0
LTYPE
  2
dashed_triplicate-dotted
 70
   64
  3
-------    -    -    -    ------
 72
   65
 73
    8
 40
12.75
 49
6
 49
-1.5
 49
0.25
 49
-1.5
 49
0.25
 49
-1.5
 49
0.25
 49
-1.5
  0
LTYPE
  2
double-dashed_triplicate-dotted
 70
   64
  3
-----  ---------  -  -  -  -----
 72
   65
 73
   10
 40
20.25
 49
6
 49
-1.5
 49
6
 49
-1.5
 49
0.25
 49
-1.5
 49
0.25
 49
-1.5
 49
0.25
 49
-1.5
  0
LTYPE
  2
undefined
 70
   64
  3
--------------------------------
 72
   65
 73
    0
 40
0
  0
ENDTAB
  0
TABLE
  2
STYLE
  5
3
100
AcDbSymbolTable
 70
     1
  0
STYLE
  5
10
100
AcDbSymbolTableRecord
100
AcDbTextStyleTableRecord
  2
STANDARD
 70
     0
 40
0.0
 41
1.0
 50
0.0
 71
     0
 42
0.2
  3
txt
  4
bigfont.shx
  0
STYLE
  5
26
100
AcDbSymbolTableRecord
100
AcDbTextStyleTableRecord
  2
TATEGAKI
 70
    68
 40
0.0
 41
1.0
 50
0.0
 71
     0
 42
1.0
  3
txt
  4
bigfont.shx
  0
ENDTAB
  0
TABLE
  2
LAYER
 70
    4
  0
LAYER
  2
_0-0_
 70
   64
 62
    7
  6
CONTINUOUS
  0
LAYER
  2
_0-1_
 70
   64
 62
    7
  6
CONTINUOUS
  0
LAYER
  2
_0-3_
 70
   64
 62
    7
  6
CONTINUOUS
  0
LAYER
  2
ADD_LINE
 70
   64
 62
    7
  6
CONTINUOUS
  0
ENDTAB
  0
ENDSEC
  0
SECTION
  2
BLOCKS
  0
ENDSEC
  0
SECTION
  2
ENTITIES
  0
LINE
  8
_0-0_
  6
CONTINUOUS
 62
    7
 10
130.48908646927794
 20
47.786464265481868
 11
131.18523889198423
 21
48.992235631421977
  0
LINE
  8
_0-0_
  6
CONTINUOUS
 62
    7
 10
131.58716268063108
 20
50.492235631421977
 11
131.58716268063108
 21
54.688388054128495
  0
LINE
  8
_0-0_
  6
CONTINUOUS
 62
    7
 10
131.58716268063108
 20
54.688388054128495
 11
13.587162680631081
 21
54.688388054128495
  0
LINE
  8
_0-0_
  6
CONTINUOUS
 62
    7
 10
13.587162680631081
 20
54.688388054128495
 11
13.587162680631081
 21
50.492235631421977
  0
LINE
  8
_0-0_
  6
CONTINUOUS
 62
    7
 10
13.989086469277936
 20
48.992235631421977
 11
14.685238891984227
 21
47.786464265481868
  0
LINE
  8
_0-0_
  6
CONTINUOUS
 62
    7
 10
15.327371099167067
 20
47.090311842775122
 11
22.587162680631081
 21
47.090311842775122
  0
LINE
  8
_0-0_
  6
CONTINUOUS
 62
    7
 10
30.087162680631081
 20
21.688388054128495
 11
30.087162680631081
 21
43.48838805412845
  0
LINE
  8
_0-0_
  6
CONTINUOUS
 62
    7
 10
30.2871626806309
 20
43.688388054128495
 11
114.88716268063126
 21
43.688388054128495
  0
LINE
  8
_0-0_
  6
CONTINUOUS
 62
    7
 10
115.08716268063108
 20
43.48838805412845
 11
115.08716268063108
 21
21.688388054128495
  0
LINE
  8
_0-0_
  6
CONTINUOUS
 62
    7
 10
115.08716268063108
 20
21.688388054128495
 11
130.08716268063108
 21
21.688388054128495
  0
LINE
  8
_0-0_
  6
CONTINUOUS
 62
    7
 10
130.08716268063108
 20
21.688388054128495
 11
130.08716268063108
 21
46.286464265481868
  0
LINE
  8
_0-0_
  6
CONTINUOUS
 62
    7
 10
129.8469542620951
 20
47.090311842775122
 11
122.58716268063108
 21
47.090311842775122
  0
LINE
  8
_0-0_
  6
CONTINUOUS
 62
    7
 10
15.087162680631081
 20
46.286464265481868
 11
15.087162680631081
 21
21.688388054128495
  0
LINE
  8
_0-0_
  6
CONTINUOUS
 62
    7
 10
15.087162680631081
 20
21.688388054128495
 11
30.087162680631081
 21
21.688388054128495
  0
ARC
  8
_0-0_
  6
CONTINUOUS
 62
    7
 10
22.423802119887114
 20
36.761818578251791
 40
10.32978507947332
 50
43.254350692251762
 51
89.093857152847505
  0
ARC
  8
_0-0_
  6
CONTINUOUS
 62
    7
 10
122.75052324137459
 20
36.761818578251791
 40
10.32978507947332
 50
90.906142847152495
 51
136.74564930774824
  0
ARC
  8
_0-0_
  6
CONTINUOUS
 62
    7
 10
133.08716268063108
 20
46.286464265481868
 40
3
 50
150.00000000000043
 51
180
  0
ARC
  8
_0-0_
  6
CONTINUOUS
 62
    7
 10
128.58716268063108
 20
50.492235631421977
 40
3
 50
330.00000000000114
 51
0.000000000000019
  0
ARC
  8
_0-0_
  6
CONTINUOUS
 62
    7
 10
114.88716268063126
 20
43.48838805412845
 40
0.2
 50
0
 51
90
  0
ARC
  8
_0-0_
  6
CONTINUOUS
 62
    7
 10
12.087162680631081
 20
46.286464265481868
 40
3
 50
0
 51
29.999999999999584
  0
ARC
  8
_0-0_
  6
CONTINUOUS
 62
    7
 10
16.587162680631081
 20
50.492235631421977
 40
3
 50
180
 51
209.99999999999883
  0
ARC
  8
_0-0_
  6
CONTINUOUS
 62
    7
 10
30.2871626806309
 20
43.48838805412845
 40
0.2
 50
90
 51
180
  0
LINE
  8
_0-0_
  6
CONTINUOUS
 62
    7
 10
199.2153649535411
 20
21.688388054128495
 11
199.2153649535411
 21
46.286464265481868
  0
LINE
  8
_0-0_
  6
CONTINUOUS
 62
    7
 10
198.97515653500511
 20
47.090311842775122
 11
184.45557337207708
 21
47.090311842775122
  0
LINE
  8
_0-0_
  6
CONTINUOUS
 62
    7
 10
184.2153649535411
 20
46.286464265481868
 11
184.2153649535411
 21
21.688388054128495
  0
LINE
  8
_0-0_
  6
CONTINUOUS
 62
    7
 10
184.2153649535411
 20
21.688388054128495
 11
199.2153649535411
 21
21.688388054128495
  0
LINE
  8
_0-0_
  6
CONTINUOUS
 62
    7
 10
200.7153649535411
 20
54.688388054128495
 11
200.7153649535411
 21
50.492235631421977
  0
LINE
  8
_0-0_
  6
CONTINUOUS
 62
    7
 10
200.3134411648947
 20
48.992235631421977
 11
199.61728874218795
 21
47.786464265481868
  0
LINE
  8
_0-0_
  6
CONTINUOUS
 62
    7
 10
200.7153649535411
 20
54.688388054128495
 11
182.7153649535411
 21
54.688388054128495
  0
LINE
  8
_0-0_
  6
CONTINUOUS
 62
    7
 10
182.7153649535411
 20
54.688388054128495
 11
182.7153649535411
 21
50.492235631421977
  0
LINE
  8
_0-0_
  6
CONTINUOUS
 62
    7
 10
183.11728874218795
 20
48.992235631421977
 11
183.8134411648947
 21
47.786464265481868
  0
ARC
  8
_0-0_
  6
CONTINUOUS
 62
    7
 10
181.2153649535411
 20
46.286464265481868
 40
3
 50
0.0000000000000127
 51
29.999999999999599
  0
ARC
  8
_0-0_
  6
CONTINUOUS
 62
    7
 10
185.7153649535411
 20
50.492235631421977
 40
3
 50
180
 51
209.99999999999883
  0
ARC
  8
_0-0_
  6
CONTINUOUS
 62
    7
 10
202.2153649535411
 20
46.286464265481868
 40
3
 50
150.00000000000043
 51
180
  0
ARC
  8
_0-0_
  6
CONTINUOUS
 62
    7
 10
197.7153649535411
 20
50.492235631421977
 40
3
 50
330.00000000000114
 51
0.000000000000019
  0
LINE
  8
_0-0_
  6
CONTINUOUS
 62
    7
 10
22.587162680631081
 20
122.02322360119035
 11
122.58716268063108
 21
122.02322360119035
  0
LINE
  8
_0-0_
  6
CONTINUOUS
 62
    7
 10
122.58716268063108
 20
104.02322360119035
 11
22.587162680631081
 21
104.02322360119035
  0
CIRCLE
  8
_0-0_
  6
CONTINUOUS
 62
    7
 10
122.58716268063108
 20
113.02322360119035
 40
2.6000000000000001
  0
CIRCLE
  8
_0-0_
  6
CONTINUOUS
 62
    7
 10
22.587162680631081
 20
113.02322360119035
 40
2.6000000000000001
  0
CIRCLE
  8
_0-0_
  6
CONTINUOUS
 62
    7
 10
122.58716268063108
 20
113.02322360119035
 40
5.0999999999999996
  0
CIRCLE
  8
_0-0_
  6
CONTINUOUS
 62
    7
 10
22.587162680631081
 20
113.02322360119035
 40
5.0999999999999996
  0
CIRCLE
  8
_0-0_
  6
CONTINUOUS
 62
    7
 10
122.58716268063108
 20
113.02322360119035
 40
6
  0
CIRCLE
  8
_0-0_
  6
CONTINUOUS
 62
    7
 10
22.587162680631081
 20
113.02322360119035
 40
6
  0
ARC
  8
_0-0_
  6
CONTINUOUS
 62
    7
 10
122.58716268063108
 20
113.02322360119035
 40
9
 50
270
 51
90
  0
ARC
  8
_0-0_
  6
CONTINUOUS
 62
    7
 10
22.587162680631081
 20
113.02322360119035
 40
9
 50
90
 51
270
  0
LINE
  8
_0-0_
  6
CONTINUOUS
 62
    7
 10
257.81296093999049
 20
21.688388054128495
 11
257.81296093999049
 21
46.286464265481868
  0
LINE
  8
_0-0_
  6
CONTINUOUS
 62
    7
 10
257.5727525214545
 20
47.090311842775122
 11
243.05316935852647
 21
47.090311842775122
  0
LINE
  8
_0-0_
  6
CONTINUOUS
 62
    7
 10
242.81296093999049
 20
46.286464265481868
 11
242.81296093999049
 21
21.688388054128495
  0
LINE
  8
_0-0_
  6
CONTINUOUS
 62
    7
 10
242.81296093999049
 20
21.688388054128495
 11
257.81296093999049
 21
21.688388054128495
  0
LINE
  8
_0-0_
  6
CONTINUOUS
 62
    7
 10
259.31296093999049
 20
54.688388054128495
 11
259.31296093999049
 21
50.492235631421977
  0
LINE
  8
_0-0_
  6
CONTINUOUS
 62
    7
 10
258.91103715134409
 20
48.992235631421977
 11
258.21488472863734
 21
47.786464265481868
  0
LINE
  8
_0-0_
  6
CONTINUOUS
 62
    7
 10
259.31296093999049
 20
54.688388054128495
 11
241.31296093999049
 21
54.688388054128495
  0
LINE
  8
_0-0_
  6
CONTINUOUS
 62
    7
 10
241.31296093999049
 20
54.688388054128495
 11
241.31296093999049
 21
50.492235631421977
  0
LINE
  8
_0-0_
  6
CONTINUOUS
 62
    7
 10
241.71488472863734
 20
48.992235631421977
 11
242.41103715134409
 21
47.786464265481868
  0
ARC
  8
_0-0_
  6
CONTINUOUS
 62
    7
 10
239.81296093999049
 20
46.286464265481868
 40
3
 50
0.0000000000000127
 51
29.999999999999599
  0
ARC
  8
_0-0_
  6
CONTINUOUS
 62
    7
 10
244.31296093999049
 20
50.492235631421977
 40
3
 50
180
 51
209.99999999999883
  0
ARC
  8
_0-0_
  6
CONTINUOUS
 62
    7
 10
260.81296093999049
 20
46.286464265481868
 40
3
 50
150.00000000000043
 51
180
  0
ARC
  8
_0-0_
  6
CONTINUOUS
 62
    7
 10
256.31296093999049
 20
50.492235631421977
 40
3
 50
330.00000000000114
 51
0.000000000000019
  0
LINE
  8
_0-1_
  6
CENTER1
 62
  152
 10
72.587162680631081
 20
21.688388054128495
 11
72.587162680631081
 21
54.688388054128495
  0
LINE
  8
_0-1_
  6
CENTER1
 62
  152
 10
131.58716268063108
 20
113.02322360119035
 11
13.587162680631081
 21
113.02322360119035
  0
LINE
  8
_0-1_
  6
CENTER1
 62
  152
 10
22.587162680631081
 20
104.02322360119035
 11
22.587162680631081
 21
122.02322360119035
  0
LINE
  8
_0-1_
  6
CENTER1
 62
  152
 10
122.58716268063108
 20
122.02322360119035
 11
122.58716268063108
 21
104.02322360119035
  0
LINE
  8
_0-1_
  6
CENTER1
 62
  152
 10
72.587162680631081
 20
104.02322360119035
 11
72.587162680631081
 21
122.02322360119035
  0
LINE
  8
_0-1_
  6
CENTER1
 62
  152
 10
191.7153649535411
 20
12.370367524143205
 11
191.7153649535411
 21
54.688388054128495
  0
LINE
  8
_0-1_
  6
CENTER1
 62
  152
 10
250.31296093999049
 20
15.370367524143205
 11
250.31296093999049
 21
54.688388054128495
  0
LINE
  8
_0-1_
  6
CENTER1
 62
  152
 10
22.587162680631081
 20
54.688388054128495
 11
22.587162680631081
 21
19.681291333171316
  0
LINE
  8
_0-1_
  6
DASHED2
 62
  152
 10
196.80277349315259
 20
18.088388149515026
 11
196.54034280406688
 21
21.088376575722918
  0
LINE
  8
_0-1_
  6
DASHED2
 62
  152
 10
195.21523545032153
 20
14.488365168521682
 11
198.39408043184142
 21
16.323630133690926
  0
LINE
  8
_0-1_
  6
DASHED2
 62
  152
 10
198.71531892546648
 20
18.088388149515026
 11
196.80277349315259
 21
18.088388149515026
  0
LINE
  8
_0-1_
  6
DASHED2
 62
  152
 10
198.39408043184142
 20
16.323630133690926
 11
198.71531892546648
 21
18.088388149515026
  0
LINE
  8
_0-1_
  6
DASHED2
 62
  152
 10
186.62788314570764
 20
18.088388149515026
 11
186.89038710305351
 21
21.088409723300515
  0
LINE
  8
_0-1_
  6
DASHED2
 62
  152
 10
188.21548260061184
 20
14.488365168521682
 11
185.03663761909195
 21
16.323630133690926
  0
LINE
  8
_0-1_
  6
DASHED2
 62
  152
 10
184.71539912546689
 20
18.088388149515026
 11
186.62794455778078
 21
18.088388149515026
  0
LINE
  8
_0-1_
  6
DASHED2
 62
  152
 10
185.03663761909195
 20
16.323630133690926
 11
184.71539912546689
 21
18.088388149515026
  0
LINE
  8
_0-1_
  6
DASHED2
 62
  152
 10
196.54034280406688
 20
21.088376575722918
 11
194.21536495356202
 21
21.088384562016984
  0
LINE
  8
_0-1_
  6
DASHED2
 62
  152
 10
189.21536495356202
 20
21.08840173700645
 11
186.89038710305351
 21
21.088409723300515
  0
LINE
  8
_0-1_
  6
DASHED2
 62
  152
 10
188.21540065458169
 20
14.488391130663672
 11
189.21536495356202
 21
14.488387421831135
  0
LINE
  8
_0-1_
  6
DASHED2
 62
  152
 10
194.21536495356202
 20
14.488368877006337
 11
195.21523545032153
 21
14.488365168521682
  0
ARC
  8
_0-1_
  6
DASHED2
 62
  152
 10
248.01296093999031
 20
19.376218054128742
 40
2.5
 50
168.17822799457861
 51
250.00000000000003
  0
LINE
  8
_0-1_
  6
DASHED2
 62
  152
 10
246.74142303319809
 20
19.888388054128711
 11
245.56598691252293
 21
19.888388054128711
  0
ARC
  8
_0-1_
  6
DASHED2
 62
  152
 10
252.61296093999022
 20
19.376218054128742
 40
2.5
 50
290
 51
11.821772005421535
  0
LINE
  8
_0-1_
  6
DASHED2
 62
  152
 10
255.05993496745759
 20
19.888388054128711
 11
253.88449784678244
 21
19.888388054128711
  0
LINE
  8
_0-1_
  6
DASHED2
 62
  152
 10
253.56296203319812
 20
21.088388054128529
 11
253.88449784678244
 21
19.888388054128711
  0
LINE
  8
_0-1_
  6
DASHED2
 62
  152
 10
246.74142303319809
 20
19.888388054128711
 11
247.06295884678252
 21
21.088388054128529
  0
LINE
  8
_0-1_
  6
DASHED2
 62
  152
 10
247.1579099399903
 20
17.026988054128481
 11
247.81296094001141
 21
16.788567256777867
  0
LINE
  8
_0-1_
  6
DASHED2
 62
  152
 10
252.81296094001141
 20
16.788567620766003
 11
253.46801093999034
 21
17.026988054128481
  0
LINE
  8
_0-1_
  6
DASHED2
 62
  152
 10
253.56296203319812
 20
21.088388054128529
 11
252.81296094001141
 21
21.088388054128529
  0
LINE
  8
_0-1_
  6
DASHED2
 62
  152
 10
247.81296094001141
 20
21.088388054128529
 11
247.06295884678252
 21
21.088388054128529
  0
TEXT
  8
_0-1_
 62
    7
 10
174.99664938231706
 20
59.92003095418363
 40
5
 41
1
 50
0
  1
HAAP
  0
TEXT
  8
_0-1_
 62
    7
 10
223.80699522621148
 20
60.295495152982824
 40
5
 41
1
 50
0
  1
HAAP-NF25
  0
LINE
  8
_0-3_
  6
CONTINUOUS
 62
    7
 10
39.587162680631081
 20
107.02322360119035
 11
33.587162680631081
 21
107.02322360119035
  0
LINE
  8
_0-3_
  6
CONTINUOUS
 62
    7
 10
39.587162680631081
 20
119.02322360119035
 11
39.587162680631081
 21
107.02322360119035
  0
LINE
  8
_0-3_
  6
CONTINUOUS
 62
    7
 10
39.587162680631081
 20
119.02322360119035
 11
33.587162680631081
 21
119.02322360119035
  0
LINE
  8
_0-3_
  6
CONTINUOUS
 62
    7
 10
33.587162680631081
 20
119.02322360119035
 11
33.587162680631081
 21
107.02322360119035
  0
LINE
  8
_0-0_
  6
CONTINUOUS
 62
    7
 10
34.406923328131143
 20
107.80313553269036
 11
34.406923328131143
 21
108.30313553269036
  0
LINE
  8
_0-0_
  6
CONTINUOUS
 62
    7
 10
34.406923328131143
 20
108.30313553269036
 11
38.106923328131074
 21
108.30313553269036
  0
LINE
  8
_0-0_
  6
CONTINUOUS
 62
    7
 10
38.106923328131074
 20
108.30313553269036
 11
38.106923328131074
 21
110.10313553269032
  0
LINE
  8
_0-0_
  6
CONTINUOUS
 62
    7
 10
38.106923328131074
 20
110.10313553269032
 11
38.606923328131074
 21
110.10313553269032
  0
LINE
  8
_0-0_
  6
CONTINUOUS
 62
    7
 10
38.606923328131074
 20
110.10313553269032
 11
38.606923328131074
 21
107.80313553269036
  0
LINE
  8
_0-0_
  6
CONTINUOUS
 62
    7
 10
38.606923328131074
 20
107.80313553269036
 11
34.406923328131143
 21
107.80313553269036
  0
LINE
  8
_0-0_
  6
CONTINUOUS
 62
    7
 10
34.406923328131143
 20
110.62528891689033
 11
38.606923328131074
 21
110.62528891689033
  0
LINE
  8
_0-0_
  6
CONTINUOUS
 62
    7
 10
38.606923328131074
 20
110.62528891689033
 11
38.606923328131074
 21
112.72528891689035
  0
LINE
  8
_0-0_
  6
CONTINUOUS
 62
    7
 10
38.606923328131074
 20
112.72528891689035
 11
38.106923328131074
 21
112.72528891689035
  0
LINE
  8
_0-0_
  6
CONTINUOUS
 62
    7
 10
38.106923328131074
 20
112.72528891689035
 11
38.106923328131074
 21
111.12528891689033
  0
LINE
  8
_0-0_
  6
CONTINUOUS
 62
    7
 10
38.106923328131074
 20
111.12528891689033
 11
36.756923328131165
 21
111.12528891689033
  0
LINE
  8
_0-0_
  6
CONTINUOUS
 62
    7
 10
36.756923328131165
 20
111.12528891689033
 11
36.756923328131165
 21
112.52528891689036
  0
LINE
  8
_0-0_
  6
CONTINUOUS
 62
    7
 10
36.756923328131165
 20
112.52528891689036
 11
36.256923328131165
 21
112.52528891689036
  0
LINE
  8
_0-0_
  6
CONTINUOUS
 62
    7
 10
36.256923328131165
 20
112.52528891689036
 11
36.256923328131165
 21
111.12528891689033
  0
LINE
  8
_0-0_
  6
CONTINUOUS
 62
    7
 10
36.256923328131165
 20
111.12528891689033
 11
34.906923328131143
 21
111.12528891689033
  0
LINE
  8
_0-0_
  6
CONTINUOUS
 62
    7
 10
34.906923328131143
 20
111.12528891689033
 11
34.906923328131143
 21
112.72528891689035
  0
LINE
  8
_0-0_
  6
CONTINUOUS
 62
    7
 10
34.906923328131143
 20
112.72528891689035
 11
34.406923328131143
 21
112.72528891689035
  0
LINE
  8
_0-0_
  6
CONTINUOUS
 62
    7
 10
34.406923328131143
 20
112.72528891689035
 11
34.406923328131143
 21
110.62528891689033
  0
LINE
  8
_0-0_
  6
CONTINUOUS
 62
    7
 10
37.991847568622887
 20
116.2898091481665
 11
37.991847568622887
 21
116.2898091481665
  0
LINE
  8
_0-0_
  6
CONTINUOUS
 62
    7
 10
37.991847568622887
 20
116.2898091481665
 11
38.227142621138022
 21
116.45004556196909
  0
LINE
  8
_0-0_
  6
CONTINUOUS
 62
    7
 10
38.227142621138022
 20
116.45004556196909
 11
38.410169680908105
 21
116.63119537150151
  0
LINE
  8
_0-0_
  6
CONTINUOUS
 62
    7
 10
38.410169680908105
 20
116.63119537150151
 11
38.535367563338184
 21
116.82775443146733
  0
LINE
  8
_0-0_
  6
CONTINUOUS
 62
    7
 10
38.535367563338184
 20
116.82775443146733
 11
38.598932194123812
 21
117.03375039429315
  0
LINE
  8
_0-0_
  6
CONTINUOUS
 62
    7
 10
38.598932194123812
 20
117.03375039429315
 11
38.598932194123812
 21
117.24292417688753
  0
LINE
  8
_0-0_
  6
CONTINUOUS
 62
    7
 10
38.598932194123812
 20
117.24292417688753
 11
38.535367563338191
 21
117.44892013971337
  0
LINE
  8
_0-0_
  6
CONTINUOUS
 62
    7
 10
38.535367563338191
 20
117.44892013971337
 11
38.410169680908119
 21
117.64547919967919
  0
LINE
  8
_0-0_
  6
CONTINUOUS
 62
    7
 10
38.410169680908119
 20
117.64547919967919
 11
38.227142621138043
 21
117.8266290092116
  0
LINE
  8
_0-0_
  6
CONTINUOUS
 62
    7
 10
38.227142621138043
 20
117.8266290092116
 11
37.991847568622909
 21
117.98686542301419
  0
LINE
  8
_0-0_
  6
CONTINUOUS
 62
    7
 10
37.991847568622909
 20
117.98686542301419
 11
37.71143384446836
 21
118.12131973873713
  0
LINE
  8
_0-0_
  6
CONTINUOUS
 62
    7
 10
37.71143384446836
 20
118.12131973873713
 11
37.394421677786639
 21
118.22590663003433
  0
LINE
  8
_0-0_
  6
CONTINUOUS
 62
    7
 10
37.394421677786639
 20
118.22590663003433
 11
37.050443322846469
 21
118.29744827713722
  0
LINE
  8
_0-0_
  6
CONTINUOUS
 62
    7
 10
37.050443322846469
 20
118.29744827713722
 11
36.689950387901263
 21
118.33377092330043
  0
LINE
  8
_0-0_
  6
CONTINUOUS
 62
    7
 10
36.689950387901263
 20
118.33377092330043
 11
36.323896268361104
 21
118.33377092330045
  0
LINE
  8
_0-0_
  6
CONTINUOUS
 62
    7
 10
36.323896268361104
 20
118.33377092330045
 11
35.96340333341589
 21
118.29744827713724
  0
LINE
  8
_0-0_
  6
CONTINUOUS
 62
    7
 10
35.96340333341589
 20
118.29744827713724
 11
35.61942497847572
 21
118.22590663003433
  0
LINE
  8
_0-0_
  6
CONTINUOUS
 62
    7
 10
35.61942497847572
 20
118.22590663003433
 11
35.302412811793992
 21
118.12131973873714
  0
LINE
  8
_0-0_
  6
CONTINUOUS
 62
    7
 10
35.302412811793992
 20
118.12131973873714
 11
35.021999087639443
 21
117.98686542301421
  0
LINE
  8
_0-0_
  6
CONTINUOUS
 62
    7
 10
35.021999087639443
 20
117.98686542301421
 11
34.786704035124309
 21
117.82662900921162
  0
LINE
  8
_0-0_
  6
CONTINUOUS
 62
    7
 10
34.786704035124309
 20
117.82662900921162
 11
34.603676975354226
 21
117.6454791996792
  0
LINE
  8
_0-0_
  6
CONTINUOUS
 62
    7
 10
34.603676975354226
 20
117.6454791996792
 11
34.478479092924147
 21
117.44892013971339
  0
LINE
  8
_0-0_
  6
CONTINUOUS
 62
    7
 10
34.478479092924147
 20
117.44892013971339
 11
34.414914462138519
 21
117.24292417688756
  0
LINE
  8
_0-0_
  6
CONTINUOUS
 62
    7
 10
34.414914462138519
 20
117.24292417688756
 11
34.414914462138519
 21
117.03375039429318
  0
LINE
  8
_0-0_
  6
CONTINUOUS
 62
    7
 10
34.414914462138519
 20
117.03375039429318
 11
34.47847909292414
 21
116.82775443146734
  0
LINE
  8
_0-0_
  6
CONTINUOUS
 62
    7
 10
34.47847909292414
 20
116.82775443146734
 11
34.603676975354212
 21
116.63119537150153
  0
LINE
  8
_0-0_
  6
CONTINUOUS
 62
    7
 10
34.603676975354212
 20
116.63119537150153
 11
34.786704035124288
 21
116.45004556196911
  0
LINE
  8
_0-0_
  6
CONTINUOUS
 62
    7
 10
34.786704035124288
 20
116.45004556196911
 11
35.021999087639415
 21
116.28980914816651
  0
LINE
  8
_0-0_
  6
CONTINUOUS
 62
    7
 10
35.021999087639415
 20
116.28980914816651
 11
35.302412811793964
 21
116.15535483244358
  0
LINE
  8
_0-0_
  6
CONTINUOUS
 62
    7
 10
35.302412811793964
 20
116.15535483244358
 11
35.619424978475685
 21
116.05076794114639
  0
LINE
  8
_0-0_
  6
CONTINUOUS
 62
    7
 10
35.619424978475685
 20
116.05076794114639
 11
35.963403333415854
 21
115.97922629404349
  0
LINE
  8
_0-0_
  6
CONTINUOUS
 62
    7
 10
35.963403333415854
 20
115.97922629404349
 11
36.323896268361061
 21
115.94290364788027
  0
LINE
  8
_0-0_
  6
CONTINUOUS
 62
    7
 10
36.323896268361061
 20
115.94290364788027
 11
36.68995038790122
 21
115.94290364788026
  0
LINE
  8
_0-0_
  6
CONTINUOUS
 62
    7
 10
36.68995038790122
 20
115.94290364788026
 11
37.050443322846434
 21
115.97922629404347
  0
LINE
  8
_0-0_
  6
CONTINUOUS
 62
    7
 10
37.050443322846434
 20
115.97922629404347
 11
37.394421677786603
 21
116.05076794114638
  0
LINE
  8
_0-0_
  6
CONTINUOUS
 62
    7
 10
37.394421677786603
 20
116.05076794114638
 11
37.711433844468331
 21
116.15535483244356
  0
LINE
  8
_0-0_
  6
CONTINUOUS
 62
    7
 10
37.711433844468331
 20
116.15535483244356
 11
37.99184756862288
 21
116.28980914816648
  0
LINE
  8
_0-0_
  6
CONTINUOUS
 62
    7
 10
37.99184756862288
 20
116.28980914816648
 11
37.991847568622887
 21
116.2898091481665
  0
LINE
  8
_0-0_
  6
CONTINUOUS
 62
    7
 10
37.679937463433539
 20
116.60171925335585
 11
37.679937463433539
 21
116.60171925335585
  0
LINE
  8
_0-0_
  6
CONTINUOUS
 62
    7
 10
37.679937463433539
 20
116.60171925335585
 11
37.865808509942667
 21
116.70305443044039
  0
LINE
  8
_0-0_
  6
CONTINUOUS
 62
    7
 10
37.865808509942667
 20
116.70305443044039
 11
38.010390517831532
 21
116.81761545681492
  0
LINE
  8
_0-0_
  6
CONTINUOUS
 62
    7
 10
38.010390517831532
 20
116.81761545681492
 11
38.109290435952452
 21
116.94192145366371
  0
LINE
  8
_0-0_
  6
CONTINUOUS
 62
    7
 10
38.109290435952452
 20
116.94192145366371
 11
38.159503240339113
 21
117.07219544617438
  0
LINE
  8
_0-0_
  6
CONTINUOUS
 62
    7
 10
38.159503240339113
 20
117.07219544617438
 11
38.159503240339113
 21
117.20447912500632
  0
LINE
  8
_0-0_
  6
CONTINUOUS
 62
    7
 10
38.159503240339113
 20
117.20447912500632
 11
38.10929043595246
 21
117.334753117517
  0
LINE
  8
_0-0_
  6
CONTINUOUS
 62
    7
 10
38.10929043595246
 20
117.334753117517
 11
38.010390517831539
 21
117.45905911436579
  0
LINE
  8
_0-0_
  6
CONTINUOUS
 62
    7
 10
38.010390517831539
 20
117.45905911436579
 11
37.865808509942681
 21
117.5736201407403
  0
LINE
  8
_0-0_
  6
CONTINUOUS
 62
    7
 10
37.865808509942681
 20
117.5736201407403
 11
37.679937463433561
 21
117.67495531782485
  0
LINE
  8
_0-0_
  6
CONTINUOUS
 62
    7
 10
37.679937463433561
 20
117.67495531782485
 11
37.458424975997062
 21
117.75998562754178
  0
LINE
  8
_0-0_
  6
CONTINUOUS
 62
    7
 10
37.458424975997062
 20
117.75998562754178
 11
37.208001592473231
 21
117.82612746695774
  0
LINE
  8
_0-0_
  6
CONTINUOUS
 62
    7
 10
37.208001592473231
 20
117.82612746695774
 11
36.936276300650086
 21
117.8713711497515
  0
LINE
  8
_0-0_
  6
CONTINUOUS
 62
    7
 10
36.936276300650086
 20
117.8713711497515
 11
36.651505336020037
 21
117.89434196951574
  0
LINE
  8
_0-0_
  6
CONTINUOUS
 62
    7
 10
36.651505336020037
 20
117.89434196951574
 11
36.362341320242315
 21
117.89434196951574
  0
LINE
  8
_0-0_
  6
CONTINUOUS
 62
    7
 10
36.362341320242315
 20
117.89434196951574
 11
36.077570355612266
 21
117.8713711497515
  0
LINE
  8
_0-0_
  6
CONTINUOUS
 62
    7
 10
36.077570355612266
 20
117.8713711497515
 11
35.805845063789121
 21
117.82612746695776
  0
LINE
  8
_0-0_
  6
CONTINUOUS
 62
    7
 10
35.805845063789121
 20
117.82612746695776
 11
35.55542168026529
 21
117.75998562754178
  0
LINE
  8
_0-0_
  6
CONTINUOUS
 62
    7
 10
35.55542168026529
 20
117.75998562754178
 11
35.333909192828791
 21
117.67495531782485
  0
LINE
  8
_0-0_
  6
CONTINUOUS
 62
    7
 10
35.333909192828791
 20
117.67495531782485
 11
35.148038146319664
 21
117.57362014074032
  0
LINE
  8
_0-0_
  6
CONTINUOUS
 62
    7
 10
35.148038146319664
 20
117.57362014074032
 11
35.003456138430799
 21
117.45905911436579
  0
LINE
  8
_0-0_
  6
CONTINUOUS
 62
    7
 10
35.003456138430799
 20
117.45905911436579
 11
34.904556220309878
 21
117.33475311751701
  0
LINE
  8
_0-0_
  6
CONTINUOUS
 62
    7
 10
34.904556220309878
 20
117.33475311751701
 11
34.854343415923218
 21
117.20447912500633
  0
LINE
  8
_0-0_
  6
CONTINUOUS
 62
    7
 10
34.854343415923218
 20
117.20447912500633
 11
34.854343415923218
 21
117.07219544617439
  0
LINE
  8
_0-0_
  6
CONTINUOUS
 62
    7
 10
34.854343415923218
 20
117.07219544617439
 11
34.904556220309871
 21
116.94192145366371
  0
LINE
  8
_0-0_
  6
CONTINUOUS
 62
    7
 10
34.904556220309871
 20
116.94192145366371
 11
35.003456138430792
 21
116.81761545681492
  0
LINE
  8
_0-0_
  6
CONTINUOUS
 62
    7
 10
35.003456138430792
 20
116.81761545681492
 11
35.148038146319649
 21
116.7030544304404
  0
LINE
  8
_0-0_
  6
CONTINUOUS
 62
    7
 10
35.148038146319649
 20
116.7030544304404
 11
35.33390919282877
 21
116.60171925335585
  0
LINE
  8
_0-0_
  6
CONTINUOUS
 62
    7
 10
35.33390919282877
 20
116.60171925335585
 11
35.555421680265262
 21
116.51668894363893
  0
LINE
  8
_0-0_
  6
CONTINUOUS
 62
    7
 10
35.555421680265262
 20
116.51668894363893
 11
35.805845063789093
 21
116.45054710422296
  0
LINE
  8
_0-0_
  6
CONTINUOUS
 62
    7
 10
35.805845063789093
 20
116.45054710422296
 11
36.077570355612238
 21
116.40530342142921
  0
LINE
  8
_0-0_
  6
CONTINUOUS
 62
    7
 10
36.077570355612238
 20
116.40530342142921
 11
36.362341320242287
 21
116.38233260166497
  0
LINE
  8
_0-0_
  6
CONTINUOUS
 62
    7
 10
36.362341320242287
 20
116.38233260166497
 11
36.651505336020008
 21
116.38233260166496
  0
LINE
  8
_0-0_
  6
CONTINUOUS
 62
    7
 10
36.651505336020008
 20
116.38233260166496
 11
36.936276300650057
 21
116.40530342142921
  0
LINE
  8
_0-0_
  6
CONTINUOUS
 62
    7
 10
36.936276300650057
 20
116.40530342142921
 11
37.208001592473202
 21
116.45054710422295
  0
LINE
  8
_0-0_
  6
CONTINUOUS
 62
    7
 10
37.208001592473202
 20
116.45054710422295
 11
37.45842497599704
 21
116.51668894363893
  0
LINE
  8
_0-0_
  6
CONTINUOUS
 62
    7
 10
37.45842497599704
 20
116.51668894363893
 11
37.679937463433532
 21
116.60171925335584
  0
LINE
  8
_0-0_
  6
CONTINUOUS
 62
    7
 10
37.679937463433532
 20
116.60171925335584
 11
37.679937463433539
 21
116.60171925335585
  0
LINE
  8
_0-0_
  6
CONTINUOUS
 62
    7
 10
35.897929537231107
 20
115.58835082289977
 11
35.897929537231107
 21
115.14582293127955
  0
LINE
  8
_0-0_
  6
CONTINUOUS
 62
    7
 10
35.897929537231157
 20
115.58835082289976
 11
35.897929537231157
 21
115.58835082289976
  0
LINE
  8
_0-0_
  6
CONTINUOUS
 62
    7
 10
35.897929537231157
 20
115.58835082289976
 11
35.558190735401531
 21
115.51047459464671
  0
LINE
  8
_0-0_
  6
CONTINUOUS
 62
    7
 10
35.558190735401531
 20
115.51047459464671
 11
35.247278693320141
 21
115.40007003910465
  0
LINE
  8
_0-0_
  6
CONTINUOUS
 62
    7
 10
35.247278693320141
 20
115.40007003910465
 11
34.974640316056544
 21
115.2604917428263
  0
LINE
  8
_0-0_
  6
CONTINUOUS
 62
    7
 10
34.974640316056544
 20
115.2604917428263
 11
34.748559582742217
 21
115.09598072171407
  0
LINE
  8
_0-0_
  6
CONTINUOUS
 62
    7
 10
34.748559582742217
 20
115.09598072171407
 11
34.575905842056542
 21
114.91153555989786
  0
LINE
  8
_0-0_
  6
CONTINUOUS
 62
    7
 10
34.575905842056542
 20
114.91153555989786
 11
34.461925090543254
 21
114.71276053028568
  0
LINE
  8
_0-0_
  6
CONTINUOUS
 62
    7
 10
34.461925090543254
 20
114.71276053028568
 11
34.410080575660032
 21
114.50569531156731
  0
LINE
  8
_0-0_
  6
CONTINUOUS
 62
    7
 10
34.410080575660032
 20
114.50569531156731
 11
34.421947566757012
 21
114.29663147563342
  0
LINE
  8
_0-0_
  6
CONTINUOUS
 62
    7
 10
34.421947566757012
 20
114.29663147563342
 11
34.497165491314711
 21
114.09192132134748
  0
LINE
  8
_0-0_
  6
CONTINUOUS
 62
    7
 10
34.497165491314711
 20
114.09192132134748
 11
34.633448890757542
 21
113.89778486315913
  0
LINE
  8
_0-0_
  6
CONTINUOUS
 62
    7
 10
34.633448890757542
 20
113.89778486315913
 11
34.826656862956156
 21
113.72012083911261
  0
LINE
  8
_0-0_
  6
CONTINUOUS
 62
    7
 10
34.826656862956156
 20
113.72012083911261
 11
35.070918881443262
 21
113.56432748067627
  0
LINE
  8
_0-0_
  6
CONTINUOUS
 62
    7
 10
35.070918881443262
 20
113.56432748067627
 11
35.358813168389666
 21
113.43513849021095
  0
LINE
  8
_0-0_
  6
CONTINUOUS
 62
    7
 10
35.358813168389666
 20
113.43513849021095
 11
35.681592201568037
 21
113.33647920981913
  0
LINE
  8
_0-0_
  6
CONTINUOUS
 62
    7
 10
35.681592201568037
 20
113.33647920981913
 11
36.029448503389332
 21
113.27134735181153
  0
LINE
  8
_0-0_
  6
CONTINUOUS
 62
    7
 10
36.029448503389332
 20
113.27134735181153
 11
36.39181263614649
 21
113.24172191473541
  0
LINE
  8
_0-0_
  6
CONTINUOUS
 62
    7
 10
36.39181263614649
 20
113.24172191473541
 11
36.757674349030779
 21
113.24850305250511
  0
LINE
  8
_0-0_
  6
CONTINUOUS
 62
    7
 10
36.757674349030779
 20
113.24850305250511
 11
37.115917119031174
 21
113.29148472368094
  0
LINE
  8
_0-0_
  6
CONTINUOUS
 62
    7
 10
37.115917119031174
 20
113.29148472368094
 11
37.455655920860792
 21
113.36936095193398
  0
LINE
  8
_0-0_
  6
CONTINUOUS
 62
    7
 10
37.455655920860792
 20
113.36936095193398
 11
37.766567962942183
 21
113.47976550747605
  0
LINE
  8
_0-0_
  6
CONTINUOUS
 62
    7
 10
37.766567962942183
 20
113.47976550747605
 11
38.039206340205787
 21
113.61934380375439
  0
LINE
  8
_0-0_
  6
CONTINUOUS
 62
    7
 10
38.039206340205787
 20
113.61934380375439
 11
38.265287073520113
 21
113.78385482486662
  0
LINE
  8
_0-0_
  6
CONTINUOUS
 62
    7
 10
38.265287073520113
 20
113.78385482486662
 11
38.437940814205788
 21
113.96829998668284
  0
LINE
  8
_0-0_
  6
CONTINUOUS
 62
    7
 10
38.437940814205788
 20
113.96829998668284
 11
38.551921565719077
 21
114.16707501629502
  0
LINE
  8
_0-0_
  6
CONTINUOUS
 62
    7
 10
38.551921565719077
 20
114.16707501629502
 11
38.603766080602298
 21
114.37414023501339
  0
LINE
  8
_0-0_
  6
CONTINUOUS
 62
    7
 10
38.603766080602298
 20
114.37414023501339
 11
38.591899089505318
 21
114.58320407094726
  0
LINE
  8
_0-0_
  6
CONTINUOUS
 62
    7
 10
38.591899089505318
 20
114.58320407094726
 11
38.51668116494762
 21
114.78791422523321
  0
LINE
  8
_0-0_
  6
CONTINUOUS
 62
    7
 10
38.51668116494762
 20
114.78791422523321
 11
38.380397765504796
 21
114.98205068342156
  0
LINE
  8
_0-0_
  6
CONTINUOUS
 62
    7
 10
38.380397765504796
 20
114.98205068342156
 11
38.187189793306175
 21
115.15971470746807
  0
LINE
  8
_0-0_
  6
CONTINUOUS
 62
    7
 10
38.187189793306175
 20
115.15971470746807
 11
37.942927774819076
 21
115.31550806590442
  0
LINE
  8
_0-0_
  6
CONTINUOUS
 62
    7
 10
37.942927774819076
 20
115.31550806590442
 11
37.655033487872672
 21
115.44469705636975
  0
LINE
  8
_0-0_
  6
CONTINUOUS
 62
    7
 10
37.655033487872672
 20
115.44469705636975
 11
37.332254454694301
 21
115.54335633676156
  0
LINE
  8
_0-0_
  6
CONTINUOUS
 62
    7
 10
37.332254454694301
 20
115.54335633676156
 11
37.026144786531184
 21
115.60266035481983
  0
LINE
  8
_0-0_
  6
CONTINUOUS
 62
    7
 10
37.026144786531177
 20
115.60266035481982
 11
37.026144786531177
 21
115.16068008949878
  0
LINE
  8
_0-0_
  6
CONTINUOUS
 62
    7
 10
35.897929537231164
 20
115.14582293127958
 11
35.897929537231164
 21
115.14582293127958
  0
LINE
  8
_0-0_
  6
CONTINUOUS
 62
    7
 10
35.897929537231164
 20
115.14582293127958
 11
35.639231023366804
 21
115.08672095751982
  0
LINE
  8
_0-0_
  6
CONTINUOUS
 62
    7
 10
35.639231023366804
 20
115.08672095751982
 11
35.406896901109214
 21
115.00796619630545
  0
LINE
  8
_0-0_
  6
CONTINUOUS
 62
    7
 10
35.406896901109214
 20
115.00796619630545
 11
35.207986525196461
 21
114.91195157120413
  0
LINE
  8
_0-0_
  6
CONTINUOUS
 62
    7
 10
35.207986525196461
 20
114.91195157120413
 11
35.048543686747138
 21
114.80159443801382
  0
LINE
  8
_0-0_
  6
CONTINUOUS
 62
    7
 10
35.048543686747138
 20
114.80159443801382
 11
34.93341297572556
 21
114.68024794238313
  0
LINE
  8
_0-0_
  6
CONTINUOUS
 62
    7
 10
34.93341297572556
 20
114.68024794238313
 11
34.866092580527173
 21
114.55159913617747
  0
LINE
  8
_0-0_
  6
CONTINUOUS
 62
    7
 10
34.866092580527173
 20
114.55159913617747
 11
34.848627997294308
 21
114.41955694827399
  0
LINE
  8
_0-0_
  6
CONTINUOUS
 62
    7
 10
34.848627997294308
 20
114.41955694827399
 11
34.881549878550999
 21
114.28813341373557
  0
LINE
  8
_0-0_
  6
CONTINUOUS
 62
    7
 10
34.881549878550999
 20
114.28813341373557
 11
34.96385790959453
 21
114.16132177015561
  0
LINE
  8
_0-0_
  6
CONTINUOUS
 62
    7
 10
34.96385790959453
 20
114.16132177015561
 11
35.093051202551521
 21
114.04297512515453
  0
LINE
  8
_0-0_
  6
CONTINUOUS
 62
    7
 10
35.093051202551521
 20
114.04297512515453
 11
35.265204284590432
 21
113.93668938165439
  0
LINE
  8
_0-0_
  6
CONTINUOUS
 62
    7
 10
35.265204284590432
 20
113.93668938165439
 11
35.475086371427174
 21
113.84569397818824
  0
LINE
  8
_0-0_
  6
CONTINUOUS
 62
    7
 10
35.475086371427174
 20
113.84569397818824
 11
35.716320302058669
 21
113.77275376404452
  0
LINE
  8
_0-0_
  6
CONTINUOUS
 62
    7
 10
35.716320302058669
 20
113.77275376404452
 11
35.981576305572951
 21
113.72008499072047
  0
LINE
  8
_0-0_
  6
CONTINUOUS
 62
    7
 10
35.981576305572951
 20
113.72008499072047
 11
36.262794712529235
 21
113.68928797224183
  0
LINE
  8
_0-0_
  6
CONTINUOUS
 62
    7
 10
36.262794712529235
 20
113.68928797224183
 11
36.551430843935549
 21
113.68129846043105
  0
LINE
  8
_0-0_
  6
CONTINUOUS
 62
    7
 10
36.551430843935549
 20
113.68129846043105
 11
36.838714636996038
 21
113.6963592125616
  0
LINE
  8
_0-0_
  6
CONTINUOUS
 62
    7
 10
36.838714636996038
 20
113.6963592125616
 11
37.115917119031167
 21
113.73401261530111
  0
LINE
  8
_0-0_
  6
CONTINUOUS
 62
    7
 10
37.115917119031167
 20
113.73401261530111
 11
37.374615632895527
 21
113.79311458906088
  0
LINE
  8
_0-0_
  6
CONTINUOUS
 62
    7
 10
37.374615632895527
 20
113.79311458906088
 11
37.606949755153117
 21
113.87186935027525
  0
LINE
  8
_0-0_
  6
CONTINUOUS
 62
    7
 10
37.606949755153117
 20
113.87186935027525
 11
37.80586013106587
 21
113.96788397537657
  0
LINE
  8
_0-0_
  6
CONTINUOUS
 62
    7
 10
37.80586013106587
 20
113.96788397537657
 11
37.965302969515193
 21
114.07824110856687
  0
LINE
  8
_0-0_
  6
CONTINUOUS
 62
    7
 10
37.965302969515193
 20
114.07824110856687
 11
38.080433680536771
 21
114.19958760419756
  0
LINE
  8
_0-0_
  6
CONTINUOUS
 62
    7
 10
38.080433680536771
 20
114.19958760419756
 11
38.147754075735158
 21
114.32823641040322
  0
LINE
  8
_0-0_
  6
CONTINUOUS
 62
    7
 10
38.147754075735158
 20
114.32823641040322
 11
38.165218658968023
 21
114.46027859830669
  0
LINE
  8
_0-0_
  6
CONTINUOUS
 62
    7
 10
38.165218658968023
 20
114.46027859830669
 11
38.132296777711332
 21
114.59170213284513
  0
LINE
  8
_0-0_
  6
CONTINUOUS
 62
    7
 10
38.132296777711332
 20
114.59170213284513
 11
38.0499887466678
 21
114.71851377642508
  0
LINE
  8
_0-0_
  6
CONTINUOUS
 62
    7
 10
38.0499887466678
 20
114.71851377642508
 11
37.920795453710809
 21
114.83686042142617
  0
LINE
  8
_0-0_
  6
CONTINUOUS
 62
    7
 10
37.920795453710809
 20
114.83686042142617
 11
37.748642371671906
 21
114.9431461649263
  0
LINE
  8
_0-0_
  6
CONTINUOUS
 62
    7
 10
37.748642371671906
 20
114.9431461649263
 11
37.538760284835163
 21
115.03414156839246
  0
LINE
  8
_0-0_
  6
CONTINUOUS
 62
    7
 10
37.538760284835163
 20
115.03414156839246
 11
37.297526354203661
 21
115.10708178253617
  0
LINE
  8
_0-0_
  6
CONTINUOUS
 62
    7
 10
37.297526354203661
 20
115.10708178253617
 11
37.032270350689387
 21
115.15975055586023
  0
LINE
  8
_0-0_
  6
CONTINUOUS
 62
    7
 10
37.032270350689387
 20
115.15975055586023
 11
37.026144786531177
 21
115.16068008949875
  0
LINE
  8
_0-1_
  6
DASHED2
 62
  152
 10
19.987162680631172
 20
28.038388054128291
 11
25.187162680630991
 21
28.038388054128291
  0
LINE
  8
_0-1_
  6
DASHED2
 62
  152
 10
19.987162680631172
 20
21.688388054128495
 11
19.987162680631172
 21
28.038388054128291
  0
LINE
  8
_0-1_
  6
DASHED2
 62
  152
 10
25.187162680630991
 20
28.038388054128291
 11
25.187162680630991
 21
21.688388054128495
  0
LINE
  8
_0-1_
  6
DASHED2
 62
  152
 10
17.337162680631081
 20
30.688388054128609
 11
27.837162680631081
 21
30.688388054128382
  0
LINE
  8
_0-1_
  6
DASHED2
 62
  152
 10
16.437162680631104
 20
54.688388054128495
 11
16.437162680631104
 21
53.888388054128484
  0
LINE
  8
_0-1_
  6
DASHED2
 62
  152
 10
17.337162680631081
 20
53.888388054128484
 11
17.337162680631081
 21
30.688388054128609
  0
LINE
  8
_0-1_
  6
DASHED2
 62
  152
 10
28.737162680631059
 20
53.888388054128484
 11
16.437162680631104
 21
53.888388054128484
  0
LINE
  8
_0-1_
  6
DASHED2
 62
  152
 10
28.737162680631059
 20
54.688388054128495
 11
28.737162680631059
 21
53.888388054128484
  0
LINE
  8
_0-1_
  6
DASHED2
 62
  152
 10
27.837162680631081
 20
53.888388054128484
 11
27.837162680631081
 21
30.688388054128382
  0
LINE
  8
_0-1_
  6
DASHED2
 62
  152
 10
27.674571220242569
 20
18.088388149515026
 11
27.412140531156865
 21
21.088376575722918
  0
LINE
  8
_0-1_
  6
DASHED2
 62
  152
 10
26.087033177411513
 20
14.488365168521682
 11
29.2658781589314
 21
16.323630133690926
  0
LINE
  8
_0-1_
  6
DASHED2
 62
  152
 10
29.58711665255646
 20
18.088388149515026
 11
27.674571220242569
 21
18.088388149515026
  0
LINE
  8
_0-1_
  6
DASHED2
 62
  152
 10
29.2658781589314
 20
16.323630133690926
 11
29.58711665255646
 21
18.088388149515026
  0
LINE
  8
_0-1_
  6
DASHED2
 62
  152
 10
17.499680872797626
 20
18.088388149515026
 11
17.762184830143497
 21
21.088409723300515
  0
LINE
  8
_0-1_
  6
DASHED2
 62
  152
 10
19.087280327701819
 20
14.488365168521682
 11
15.908435346181932
 21
16.323630133690926
  0
LINE
  8
_0-1_
  6
DASHED2
 62
  152
 10
15.587196852556872
 20
18.088388149515026
 11
17.499742284870763
 21
18.088388149515026
  0
LINE
  8
_0-1_
  6
DASHED2
 62
  152
 10
15.908435346181932
 20
16.323630133690926
 11
15.587196852556872
 21
18.088388149515026
  0
LINE
  8
_0-1_
  6
DASHED2
 62
  152
 10
27.412140531156865
 20
21.088376575722918
 11
25.087162680652
 21
21.088384562016984
  0
LINE
  8
_0-1_
  6
DASHED2
 62
  152
 10
20.087162680652
 20
21.08840173700645
 11
17.762184830143497
 21
21.088409723300515
  0
LINE
  8
_0-1_
  6
DASHED2
 62
  152
 10
19.087198381671669
 20
14.488391130663672
 11
20.087162680652
 21
14.488387421831135
  0
LINE
  8
_0-1_
  6
DASHED2
 62
  152
 10
25.087162680652
 20
14.488368877006337
 11
26.087033177411513
 21
14.488365168521682
  0
LINE
  8
_0-1_
  6
DASHED2
 62
  152
 10
25.187162680630991
 20
28.038388076636295
 11
19.987162680631172
 21
28.038388076636295
  0
LINE
  8
_0-1_
  6
DASHED2
 62
  152
 10
27.587162680652
 20
30.738388066049311
 11
17.587162680652
 21
30.738388066049311
  0
LINE
  8
_0-1_
  6
DASHED2
 62
  152
 10
17.587162680652
 20
30.738388066070229
 11
17.587162680652
 21
30.4383880541493
  0
LINE
  8
_0-1_
  6
DASHED2
 62
  152
 10
27.587162680652
 20
30.4383880541493
 11
17.587162680652
 21
30.4383880541493
  0
LINE
  8
_0-1_
  6
DASHED2
 62
  152
 10
27.587162680652
 20
30.738388066070229
 11
27.587162680652
 21
30.4383880541493
  0
LINE
  8
_0-1_
  6
DASHED2
 62
  152
 10
22.587162680652
 20
30.738388066070229
 11
23.294269461838667
 21
30.031281284883562
  0
LINE
  8
_0-1_
  6
DASHED2
 62
  152
 10
22.587162680652
 20
30.738388066070229
 11
21.880055899465333
 21
30.031281284883562
  0
LINE
  8
_0-1_
  6
DASHED2
 62
  152
 10
20.087162680652
 20
27.938388113753945
 11
20.087162680652
 21
13.088388447519037
  0
LINE
  8
_0-1_
  6
DASHED2
 62
  152
 10
25.087162680652
 20
27.938388113753945
 11
25.087162680652
 21
13.088388447519037
  0
LINE
  8
_0-1_
  6
DASHED2
 62
  152
 10
20.437162585284568
 20
27.938388113753945
 11
20.437162585284568
 21
12.738388066049311
  0
LINE
  8
_0-1_
  6
DASHED2
 62
  152
 10
24.737162776019431
 20
27.938388113753945
 11
24.737162776019431
 21
12.738388066049311
  0
LINE
  8
_0-1_
  6
DASHED2
 62
  152
 10
24.737162776019431
 20
12.738388066049311
 11
20.437162585284568
 21
12.738388066049311
  0
LINE
  8
_0-1_
  6
DASHED2
 62
  152
 10
20.437162585284568
 20
12.738388066049311
 11
20.087162680652
 21
13.088388447519037
  0
LINE
  8
_0-1_
  6
DASHED2
 62
  152
 10
24.737162776019431
 20
12.738388066049311
 11
25.087162680652
 21
13.088388447519037
  0
LINE
  8
_0-1_
  6
DASHED2
 62
  152
 10
20.087162680652
 20
13.088388447519037
 11
25.087162680652
 21
13.088388447519037
  0
LINE
  8
_0-1_
  6
DASHED2
 62
  152
 10
20.087162621005518
 20
27.938388113753945
 11
17.337162680631081
 21
30.688388054128609
  0
LINE
  8
_0-1_
  6
DASHED2
 62
  152
 10
20.087162621005518
 20
27.938388113753945
 11
25.087162740256645
 21
27.938388113753945
  0
LINE
  8
_0-1_
  6
DASHED2
 62
  152
 10
25.087162740256645
 20
27.938388113753945
 11
27.837162680631081
 21
30.688388054128382
  0
LINE
  8
_0-1_
  6
DASHED2
 62
  152
 10
189.11536495354119
 20
28.038388054128291
 11
194.31536495354101
 21
28.038388054128291
  0
LINE
  8
_0-1_
  6
DASHED2
 62
  152
 10
189.11536495354119
 20
21.688388054128495
 11
189.11536495354119
 21
28.038388054128291
  0
LINE
  8
_0-1_
  6
DASHED2
 62
  152
 10
194.31536495354101
 20
28.038388054128291
 11
194.31536495354101
 21
21.688388054128495
  0
LINE
  8
_0-1_
  6
DASHED2
 62
  152
 10
186.4653649535411
 20
30.688388054128609
 11
196.9653649535411
 21
30.688388054128382
  0
LINE
  8
_0-1_
  6
DASHED2
 62
  152
 10
185.56536495354112
 20
54.688388054128495
 11
185.56536495354112
 21
53.888388054128484
  0
LINE
  8
_0-1_
  6
DASHED2
 62
  152
 10
186.4653649535411
 20
53.888388054128484
 11
186.4653649535411
 21
30.688388054128609
  0
LINE
  8
_0-1_
  6
DASHED2
 62
  152
 10
197.86536495354108
 20
53.888388054128484
 11
185.56536495354112
 21
53.888388054128484
  0
LINE
  8
_0-1_
  6
DASHED2
 62
  152
 10
197.86536495354108
 20
54.688388054128495
 11
197.86536495354108
 21
53.888388054128484
  0
LINE
  8
_0-1_
  6
DASHED2
 62
  152
 10
196.9653649535411
 20
53.888388054128484
 11
196.9653649535411
 21
30.688388054128382
  0
LINE
  8
_0-1_
  6
DASHED2
 62
  152
 10
194.31536495354101
 20
28.038388076636295
 11
189.11536495354119
 21
28.038388076636295
  0
LINE
  8
_0-1_
  6
DASHED2
 62
  152
 10
196.71536495356202
 20
30.738388066049311
 11
186.71536495356202
 21
30.738388066049311
  0
LINE
  8
_0-1_
  6
DASHED2
 62
  152
 10
186.71536495356202
 20
30.738388066070229
 11
186.71536495356202
 21
30.4383880541493
  0
LINE
  8
_0-1_
  6
DASHED2
 62
  152
 10
196.71536495356202
 20
30.4383880541493
 11
186.71536495356202
 21
30.4383880541493
  0
LINE
  8
_0-1_
  6
DASHED2
 62
  152
 10
196.71536495356202
 20
30.738388066070229
 11
196.71536495356202
 21
30.4383880541493
  0
LINE
  8
_0-1_
  6
DASHED2
 62
  152
 10
191.71536495356202
 20
30.738388066070229
 11
192.42247173474868
 21
30.031281284883562
  0
LINE
  8
_0-1_
  6
DASHED2
 62
  152
 10
191.71536495356202
 20
30.738388066070229
 11
191.00825817237535
 21
30.031281284883562
  0
LINE
  8
_0-1_
  6
DASHED2
 62
  152
 10
189.21536495356202
 20
27.938388113753945
 11
189.21536495356202
 21
13.088388447519037
  0
LINE
  8
_0-1_
  6
DASHED2
 62
  152
 10
194.21536495356202
 20
27.938388113753945
 11
194.21536495356202
 21
13.088388447519037
  0
LINE
  8
_0-1_
  6
DASHED2
 62
  152
 10
189.56536485819458
 20
27.938388113753945
 11
189.56536485819458
 21
12.738388066049311
  0
LINE
  8
_0-1_
  6
DASHED2
 62
  152
 10
193.86536504892945
 20
27.938388113753945
 11
193.86536504892945
 21
12.738388066049311
  0
LINE
  8
_0-1_
  6
DASHED2
 62
  152
 10
193.86536504892945
 20
12.738388066049311
 11
189.56536485819458
 21
12.738388066049311
  0
LINE
  8
_0-1_
  6
DASHED2
 62
  152
 10
189.56536485819458
 20
12.738388066049311
 11
189.21536495356202
 21
13.088388447519037
  0
LINE
  8
_0-1_
  6
DASHED2
 62
  152
 10
193.86536504892945
 20
12.738388066049311
 11
194.21536495356202
 21
13.088388447519037
  0
LINE
  8
_0-1_
  6
DASHED2
 62
  152
 10
189.21536495356202
 20
13.088388447519037
 11
194.21536495356202
 21
13.088388447519037
  0
LINE
  8
_0-1_
  6
DASHED2
 62
  152
 10
189.21536489391553
 20
27.938388113753945
 11
186.4653649535411
 21
30.688388054128609
  0
LINE
  8
_0-1_
  6
DASHED2
 62
  152
 10
189.21536489391553
 20
27.938388113753945
 11
194.21536501316666
 21
27.938388113753945
  0
LINE
  8
_0-1_
  6
DASHED2
 62
  152
 10
194.21536501316666
 20
27.938388113753945
 11
196.9653649535411
 21
30.688388054128382
  0
LINE
  8
_0-1_
  6
DASHED2
 62
  152
 10
247.71296093999058
 20
28.038388054128291
 11
252.9129609399904
 21
28.038388054128291
  0
LINE
  8
_0-1_
  6
DASHED2
 62
  152
 10
247.71296093999058
 20
21.688388054128495
 11
247.71296093999058
 21
28.038388054128291
  0
LINE
  8
_0-1_
  6
DASHED2
 62
  152
 10
252.9129609399904
 20
28.038388054128291
 11
252.9129609399904
 21
21.688388054128495
  0
LINE
  8
_0-1_
  6
DASHED2
 62
  152
 10
245.06296093999049
 20
30.688388054128609
 11
255.56296093999049
 21
30.688388054128382
  0
LINE
  8
_0-1_
  6
DASHED2
 62
  152
 10
244.16296093999051
 20
54.688388054128495
 11
244.16296093999051
 21
53.888388054128484
  0
LINE
  8
_0-1_
  6
DASHED2
 62
  152
 10
245.06296093999049
 20
53.888388054128484
 11
245.06296093999049
 21
30.688388054128609
  0
LINE
  8
_0-1_
  6
DASHED2
 62
  152
 10
256.46296093999047
 20
53.888388054128484
 11
244.16296093999051
 21
53.888388054128484
  0
LINE
  8
_0-1_
  6
DASHED2
 62
  152
 10
256.46296093999047
 20
54.688388054128495
 11
256.46296093999047
 21
53.888388054128484
  0
LINE
  8
_0-1_
  6
DASHED2
 62
  152
 10
255.56296093999049
 20
53.888388054128484
 11
255.56296093999049
 21
30.688388054128382
  0
LINE
  8
_0-1_
  6
DASHED2
 62
  152
 10
252.9129609399904
 20
28.038388076636295
 11
247.71296093999058
 21
28.038388076636295
  0
LINE
  8
_0-1_
  6
DASHED2
 62
  152
 10
255.31296094001141
 20
30.738388066049311
 11
245.31296094001141
 21
30.738388066049311
  0
LINE
  8
_0-1_
  6
DASHED2
 62
  152
 10
245.31296094001141
 20
30.738388066070229
 11
245.31296094001141
 21
30.4383880541493
  0
LINE
  8
_0-1_
  6
DASHED2
 62
  152
 10
255.31296094001141
 20
30.4383880541493
 11
245.31296094001141
 21
30.4383880541493
  0
LINE
  8
_0-1_
  6
DASHED2
 62
  152
 10
255.31296094001141
 20
30.738388066070229
 11
255.31296094001141
 21
30.4383880541493
  0
LINE
  8
_0-1_
  6
DASHED2
 62
  152
 10
250.31296094001141
 20
30.738388066070229
 11
251.02006772119807
 21
30.031281284883562
  0
LINE
  8
_0-1_
  6
DASHED2
 62
  152
 10
250.31296094001141
 20
30.738388066070229
 11
249.60585415882474
 21
30.031281284883562
  0
LINE
  8
_0-1_
  6
DASHED2
 62
  152
 10
247.81296088036493
 20
27.938388113753945
 11
245.06296093999049
 21
30.688388054128609
  0
LINE
  8
_0-1_
  6
DASHED2
 62
  152
 10
247.81296088036493
 20
27.938388113753945
 11
252.81296099961605
 21
27.938388113753945
  0
LINE
  8
_0-1_
  6
DASHED2
 62
  152
 10
252.81296099961605
 20
27.938388113753945
 11
255.56296093999049
 21
30.688388054128382
  0
LINE
  8
_0-1_
  6
DASHED2
 62
  152
 10
247.81296094001141
 20
27.938388113753945
 11
247.81296094001141
 21
16.088388447519037
  0
LINE
  8
_0-1_
  6
DASHED2
 62
  152
 10
252.81296094001141
 20
27.938388113753945
 11
252.81296094001141
 21
16.088388447519037
  0
LINE
  8
_0-1_
  6
DASHED2
 62
  152
 10
248.16296084464398
 20
27.938388113753945
 11
248.16296084464398
 21
15.738388066049311
  0
LINE
  8
_0-1_
  6
DASHED2
 62
  152
 10
252.46296103537884
 20
27.938388113753945
 11
252.46296103537884
 21
15.738388066049311
  0
LINE
  8
_0-1_
  6
DASHED2
 62
  152
 10
252.46296103537884
 20
15.738388066049311
 11
248.16296084464398
 21
15.738388066049311
  0
LINE
  8
_0-1_
  6
DASHED2
 62
  152
 10
248.16296084464398
 20
15.738388066049311
 11
247.81296094001141
 21
16.088388447519037
  0
LINE
  8
_0-1_
  6
DASHED2
 62
  152
 10
252.46296103537884
 20
15.738388066049311
 11
252.81296094001141
 21
16.088388447519037
  0
LINE
  8
_0-1_
  6
DASHED2
 62
  152
 10
247.81296094001141
 20
16.088388447519037
 11
252.81296094001141
 21
16.088388447519037
  0
ENDSEC
  0
EOF
