  0
SECTION
  2
HEADER
  9
$ACADVER
  1
AC1009
  9
$INSBASE
 10
0
 20
0
 30
0
  9
$EXTMIN
 10
0
 20
0
  9
$EXTMAX
 10
1189
 20
841
  9
$LIMMIN
 10
0
 20
0
  9
$LIMMAX
 10
1189
 20
841
  9
$LTSCALE
 40
1
  0
ENDSEC
  0
SECTION
  2
TABLES
  0
TABLE
  2
LTYPE
 70
     9
  0
LTYPE
  2
CONTINUOUS
 70
    64
  3
実線
 72
    65
 73
     0
 40
0.0
  0
LTYPE
  2
DASHED1
 70
    64
  3
--  --  --  --  --  --  --  --  
 72
    65
 73
     2
 40
2.5
 49
1.25
 49
-1.25
  0
LTYPE
  2
DASHED2
 70
    64
  3
----    ----    ----    ----    
 72
    65
 73
     2
 40
5.0
 49
2.5
 49
-2.5
  0
LTYPE
  2
DASHED3
 70
    64
  3
------  ------  ------  ------  
 72
    65
 73
     2
 40
5.0
 49
3.75
 49
-1.25
  0
LTYPE
  2
CENTER1
 70
    64
  3
----- - ----- - ----- - ----- - 
 72
    65
 73
     4
 40
10.0
 49
6.25
 49
-1.25
 49
1.25
 49
-1.25
  0
LTYPE
  2
CENTER2
 70
    64
  3
----------  --  ----------  --  
 72
    65
 73
     4
 40
20.0
 49
12.5
 49
-2.5
 49
2.5
 49
-2.5
  0
LTYPE
  2
PHANTOM1
 70
    64
  3
--- - - --- - - --- - - --- - - 
 72
    65
 73
     6
 40
10.0
 49
3.25
 49
-1.25
 49
1.25
 49
-1.25
 49
1.25
 49
-1.25
  0
LTYPE
  2
PHANTOM2
 70
    64
  3
--------  -  -  --------  -  -  
 72
    65
 73
     6
 40
20.0
 49
10.0
 49
-2.5
 49
1.25
 49
-2.5
 49
1.25
 49
-2.5
  0
LTYPE
  2
DOT
 70
    64
  3
-   -   -   -   -   -   -   -   
 72
    65
 73
     2
 40
2.5
 49
0.625
 49
-1.875
  0
LTYPE
  2
DUMMY
 70
    64
  3
ダミー
 72
    65
 73
     0
 40
0.0
  0
LTYPE
  2
RAND1
 70
    64
  3
ランダム線1
 72
    65
 73
     4
 40
10.0
 49
1.0
 49
-2.0
 49
3.0
 49
-4.0
  0
LTYPE
  2
RAND2
 70
    64
  3
ランダム線2
 72
    65
 73
     4
 40
14.0
 49
2.0
 49
-3.0
 49
4.0
 49
-5.0
  0
LTYPE
  2
RAND3
 70
    64
  3
ランダム線3
 72
    65
 73
     4
 40
18.0
 49
3.0
 49
-4.0
 49
5.0
 49
-6.0
  0
LTYPE
  2
RAND4
 70
    64
  3
ランダム線4
 72
    65
 73
     4
 40
22.0
 49
4.0
 49
-5.0
 49
6.0
 49
-7.0
  0
LTYPE
  2
RAND5
 70
    64
  3
ランダム線5
 72
    65
 73
     4
 40
26.0
 49
5.0
 49
-6.0
 49
7.0
 49
-8.0
  0
LTYPE
  2
LONG1
 70
    64
  3
----------  --  ----------  --  
 72
    65
 73
     4
 40
40.0
 49
32.5
 49
-2.5
 49
2.5
 49
-2.5
  0
LTYPE
  2
LONG2
 70
    64
  3
--------  -  -  --------  -  -  
 72
    65
 73
     6
 40
40.0
 49
30.0
 49
-2.5
 49
1.25
 49
-2.5
 49
1.25
 49
-2.5
  0
LTYPE
  2
LONG3
 70
    64
  3
+++++++++++++++..+++++++++++++++
 72
    65
 73
     2
 40
40.0
 49
37.5
 49
-2.5
  0
LTYPE
  2
LONG4
 70
    64
  3
+++++++++++++++..+++++++++++++++
 72
    65
 73
     2
 40
80.0
 49
75.0
 49
-5.0
  0
LTYPE
  2
LONG5
 70
    64
  3
----------  --  ----------  --  
 72
    65
 73
     4
 40
60.0
 49
37.5
 49
-7.5
 49
7.5
 49
-7.5
  0
LTYPE
  2
dashed
 70
   64
  3
-------   -------------   ------
 72
   65
 73
    2
 40
7.5
 49
6
 49
-1.5
  0
LTYPE
  2
dashed_spaced
 70
   64
  3
----        --------        ----
 72
   65
 73
    2
 40
12
 49
6
 49
-6
  0
LTYPE
  2
long_dashed_dotted
 70
   64
  3
------------- --- --------------
 72
   65
 73
    4
 40
15.25
 49
12
 49
-1.5
 49
0.25
 49
-1.5
  0
LTYPE
  2
long_dashed_double-dotted
 70
   64
  3
----------- --- --- ------------
 72
   65
 73
    6
 40
17
 49
12
 49
-1.5
 49
0.25
 49
-1.5
 49
0.25
 49
-1.5
  0
LTYPE
  2
long_dashed_triplicate-dotted
 70
   64
  3
--------- --- --- --- ----------
 72
   65
 73
    8
 40
18.75
 49
12
 49
-1.5
 49
0.25
 49
-1.5
 49
0.25
 49
-1.5
 49
0.25
 49
-1.5
  0
LTYPE
  2
dotted
 70
   64
  3
   -       -       -       -    
 72
   65
 73
    2
 40
1.75
 49
0.25
 49
-1.5
  0
LTYPE
  2
chain
 70
   64
  3
-------------- -- --------------
 72
   65
 73
    4
 40
18.5
 49
12
 49
-1.5
 49
3.5
 49
-1.5
  0
LTYPE
  2
chain_double_dash
 70
   64
  3
------------ -- -- -------------
 72
   65
 73
    6
 40
23.5
 49
12
 49
-1.5
 49
3.5
 49
-1.5
 49
3.5
 49
-1.5
  0
LTYPE
  2
dashed_dotted
 70
   64
  3
-----------     -     ----------
 72
   65
 73
    4
 40
9.25
 49
6
 49
-1.5
 49
0.25
 49
-1.5
  0
LTYPE
  2
double-dashed_dotted
 70
   64
  3
------   -----------   -   -----
 72
   65
 73
    6
 40
16.75
 49
6
 49
-1.5
 49
6
 49
-1.5
 49
0.25
 49
-1.5
  0
LTYPE
  2
dashed_double-dotted
 70
   64
  3
---------    -    -    ---------
 72
   65
 73
    6
 40
11
 49
6
 49
-1.5
 49
0.25
 49
-1.5
 49
0.25
 49
-1.5
  0
LTYPE
  2
double-dashed_double-dotted
 70
   64
  3
-----   ---------   -   -   ----
 72
   65
 73
    8
 40
18.5
 49
6
 49
-1.5
 49
6
 49
-1.5
 49
0.25
 49
-1.5
 49
0.25
 49
-1.5
  0
LTYPE
  2
dashed_triplicate-dotted
 70
   64
  3
-------    -    -    -    ------
 72
   65
 73
    8
 40
12.75
 49
6
 49
-1.5
 49
0.25
 49
-1.5
 49
0.25
 49
-1.5
 49
0.25
 49
-1.5
  0
LTYPE
  2
double-dashed_triplicate-dotted
 70
   64
  3
-----  ---------  -  -  -  -----
 72
   65
 73
   10
 40
20.25
 49
6
 49
-1.5
 49
6
 49
-1.5
 49
0.25
 49
-1.5
 49
0.25
 49
-1.5
 49
0.25
 49
-1.5
  0
LTYPE
  2
undefined
 70
   64
  3
--------------------------------
 72
   65
 73
    0
 40
0
  0
ENDTAB
  0
TABLE
  2
STYLE
  5
3
100
AcDbSymbolTable
 70
     1
  0
STYLE
  5
10
100
AcDbSymbolTableRecord
100
AcDbTextStyleTableRecord
  2
STANDARD
 70
     0
 40
0.0
 41
1.0
 50
0.0
 71
     0
 42
0.2
  3
txt
  4
bigfont.shx
  0
STYLE
  5
26
100
AcDbSymbolTableRecord
100
AcDbTextStyleTableRecord
  2
TATEGAKI
 70
    68
 40
0.0
 41
1.0
 50
0.0
 71
     0
 42
1.0
  3
txt
  4
bigfont.shx
  0
ENDTAB
  0
TABLE
  2
LAYER
 70
    7
  0
LAYER
  2
_0-0_
 70
   64
 62
    7
  6
CONTINUOUS
  0
LAYER
  2
_0-1_
 70
   64
 62
    7
  6
CONTINUOUS
  0
LAYER
  2
_0-2_
 70
   64
 62
    7
  6
CONTINUOUS
  0
LAYER
  2
_0-3_
 70
   64
 62
    7
  6
CONTINUOUS
  0
LAYER
  2
_0-e_
 70
   64
 62
    7
  6
CONTINUOUS
  0
LAYER
  2
_0-f_
 70
   64
 62
    7
  6
CONTINUOUS
  0
LAYER
  2
ADD_LINE
 70
   64
 62
    7
  6
CONTINUOUS
  0
ENDTAB
  0
ENDSEC
  0
SECTION
  2
BLOCKS
  0
ENDSEC
  0
SECTION
  2
ENTITIES
  0
LINE
  8
_0-0_
  6
CONTINUOUS
 62
    7
 10
16.497223462602165
 20
178.43574091810262
 11
16.497223462602165
 21
134.43574091810262
  0
LINE
  8
_0-0_
  6
CONTINUOUS
 62
    7
 10
38.936153462602419
 20
181.43574091810217
 11
38.936153462602419
 21
155.43574091810217
  0
LINE
  8
_0-0_
  6
CONTINUOUS
 62
    7
 10
38.936153462602419
 20
155.43574091810217
 11
51.997223462602165
 21
155.43574091810217
  0
LINE
  8
_0-0_
  6
CONTINUOUS
 62
    7
 10
51.997223462602165
 20
155.43574091810217
 11
51.997223462602165
 21
131.43574091810217
  0
LINE
  8
_0-0_
  6
CONTINUOUS
 62
    7
 10
54.058283462602162
 20
131.43574091810217
 11
54.058283462602162
 21
157.43574091810262
  0
LINE
  8
_0-0_
  6
CONTINUOUS
 62
    7
 10
54.058283462602162
 20
157.43574091810262
 11
40.997223462602165
 21
157.43574091810262
  0
LINE
  8
_0-0_
  6
CONTINUOUS
 62
    7
 10
40.997223462602165
 20
157.43574091810262
 11
40.997223462602165
 21
181.43574091810217
  0
LINE
  8
_0-0_
  6
CONTINUOUS
 62
    7
 10
73.497223462602165
 20
131.43574091810217
 11
19.497223462602165
 21
131.43574091810217
  0
LINE
  8
_0-0_
  6
CONTINUOUS
 62
    7
 10
40.997223462602165
 20
131.43574091810217
 11
40.997223462602165
 21
155.43574091810217
  0
LINE
  8
_0-0_
  6
CONTINUOUS
 62
    7
 10
41.497223462602165
 20
155.43574091810217
 11
41.497223462602165
 21
157.43574091810262
  0
LINE
  8
_0-0_
  6
CONTINUOUS
 62
    7
 10
51.497223462602165
 20
157.43574091810262
 11
51.497223462602165
 21
155.43574091810217
  0
LINE
  8
_0-0_
  6
CONTINUOUS
 62
    7
 10
51.997223462602165
 20
157.43574091810262
 11
51.997223462602165
 21
181.43574091810217
  0
LINE
  8
_0-0_
  6
CONTINUOUS
 62
    7
 10
73.497223462602165
 20
181.43574091810217
 11
19.497223462602165
 21
181.43574091810217
  0
LINE
  8
_0-0_
  6
CONTINUOUS
 62
    7
 10
24.997223462602165
 20
168.54898957215403
 11
27.497223462602165
 21
169.9923652451281
  0
LINE
  8
_0-0_
  6
CONTINUOUS
 62
    7
 10
27.497223462602165
 20
169.9923652451281
 11
27.497223462602165
 21
172.87911659107624
  0
LINE
  8
_0-0_
  6
CONTINUOUS
 62
    7
 10
27.497223462602165
 20
172.87911659107624
 11
24.997223462602165
 21
174.32249226405031
  0
LINE
  8
_0-0_
  6
CONTINUOUS
 62
    7
 10
24.997223462602165
 20
174.32249226405031
 11
22.497223462602165
 21
172.87911659107624
  0
LINE
  8
_0-0_
  6
CONTINUOUS
 62
    7
 10
22.497223462602165
 20
172.87911659107624
 11
22.497223462602165
 21
169.9923652451281
  0
LINE
  8
_0-0_
  6
CONTINUOUS
 62
    7
 10
22.497223462602165
 20
169.9923652451281
 11
24.997223462602165
 21
168.54898957215403
  0
LINE
  8
_0-0_
  6
CONTINUOUS
 62
    7
 10
24.997223462602165
 20
138.54898957215403
 11
27.497223462602165
 21
139.9923652451281
  0
LINE
  8
_0-0_
  6
CONTINUOUS
 62
    7
 10
27.497223462602165
 20
139.9923652451281
 11
27.497223462602165
 21
142.87911659107624
  0
LINE
  8
_0-0_
  6
CONTINUOUS
 62
    7
 10
27.497223462602165
 20
142.87911659107624
 11
24.997223462602165
 21
144.32249226405031
  0
LINE
  8
_0-0_
  6
CONTINUOUS
 62
    7
 10
24.997223462602165
 20
144.32249226405031
 11
22.497223462602165
 21
142.87911659107624
  0
LINE
  8
_0-0_
  6
CONTINUOUS
 62
    7
 10
22.497223462602165
 20
142.87911659107624
 11
22.497223462602165
 21
139.9923652451281
  0
LINE
  8
_0-0_
  6
CONTINUOUS
 62
    7
 10
22.497223462602165
 20
139.9923652451281
 11
24.997223462602165
 21
138.54898957215403
  0
LINE
  8
_0-0_
  6
CONTINUOUS
 62
    7
 10
17.997223462602165
 20
115.84456091810227
 11
40.997223462602165
 21
115.84456091810227
  0
LINE
  8
_0-0_
  6
CONTINUOUS
 62
    7
 10
40.997223462602165
 20
115.84456091810227
 11
40.997223462602165
 21
116.44456091810218
  0
LINE
  8
_0-0_
  6
CONTINUOUS
 62
    7
 10
51.997223462602165
 20
116.44456091810218
 11
51.997223462602165
 21
115.84456091810227
  0
LINE
  8
_0-0_
  6
CONTINUOUS
 62
    7
 10
51.997223462602165
 20
115.84456091810227
 11
74.997223462602165
 21
115.84456091810227
  0
LINE
  8
_0-0_
  6
CONTINUOUS
 62
    7
 10
73.174013462602147
 20
107.64456091810246
 11
62.820423462602434
 21
107.64456091810246
  0
LINE
  8
_0-0_
  6
CONTINUOUS
 62
    7
 10
62.820423462602434
 20
107.64456091810246
 11
62.647213462602053
 21
107.94456091810218
  0
LINE
  8
_0-0_
  6
CONTINUOUS
 62
    7
 10
73.347213462602326
 20
107.94456091810218
 11
73.174013462602147
 21
107.64456091810246
  0
LINE
  8
_0-0_
  6
CONTINUOUS
 62
    7
 10
75.997223462602165
 20
107.94456091810218
 11
49.497223462602165
 21
107.94456091810218
  0
LINE
  8
_0-0_
  6
CONTINUOUS
 62
    7
 10
49.497223462602165
 20
107.94456091810218
 11
46.497223462602165
 21
109.8896709181023
  0
LINE
  8
_0-0_
  6
CONTINUOUS
 62
    7
 10
48.78850346260208
 20
121.44456091810218
 11
44.205936254670291
 21
121.44456121117889
  0
LINE
  8
_0-f_
  6
CONTINUOUS
 62
    7
 10
48.78850346260208
 20
121.44456091810218
 11
48.788511368665809
 21
121.44456089125504
  0
LINE
  8
_0-0_
  6
CONTINUOUS
 62
    7
 10
49.489368155404122
 20
111.82968604034693
 11
43.497223462602165
 21
107.94456091810218
  0
LINE
  8
_0-0_
  6
CONTINUOUS
 62
    7
 10
43.497223462602165
 20
107.94456091810218
 11
16.997223462602165
 21
107.94456091810218
  0
LINE
  8
_0-0_
  6
CONTINUOUS
 62
    7
 10
16.497223462602165
 20
108.44456091810218
 11
16.497223462602165
 21
114.34456091810227
  0
LINE
  8
_0-0_
  6
CONTINUOUS
 62
    7
 10
19.647223462602255
 20
107.94456091810218
 11
19.820423462602434
 21
107.64456091810246
  0
LINE
  8
_0-0_
  6
CONTINUOUS
 62
    7
 10
19.820423462602434
 20
107.64456091810246
 11
30.174013462602147
 21
107.64456091810246
  0
LINE
  8
_0-0_
  6
CONTINUOUS
 62
    7
 10
30.174013462602147
 20
107.64456091810246
 11
30.347223462602074
 21
107.94456091810218
  0
LINE
  8
_0-0_
  6
CONTINUOUS
 62
    7
 10
54.058283462602162
 20
115.84456091810227
 11
49.497223462602165
 21
107.94456091810218
  0
LINE
  8
_0-0_
  6
CONTINUOUS
 62
    7
 10
76.497223462602165
 20
108.44456091810218
 11
76.497223462602165
 21
114.34456091810227
  0
LINE
  8
_0-0_
  6
CONTINUOUS
 62
    7
 10
76.497223462602165
 20
134.43574091810262
 11
76.497223462602165
 21
178.43574091810262
  0
LINE
  8
_0-0_
  6
CONTINUOUS
 62
    7
 10
65.497223462602165
 20
139.9923652451281
 11
67.997223462602165
 21
138.54898957215403
  0
LINE
  8
_0-0_
  6
CONTINUOUS
 62
    7
 10
67.997223462602165
 20
138.54898957215403
 11
70.497223462602165
 21
139.9923652451281
  0
LINE
  8
_0-0_
  6
CONTINUOUS
 62
    7
 10
70.497223462602165
 20
139.9923652451281
 11
70.497223462602165
 21
142.87911659107624
  0
LINE
  8
_0-0_
  6
CONTINUOUS
 62
    7
 10
70.497223462602165
 20
142.87911659107624
 11
67.997223462602165
 21
144.32249226405031
  0
LINE
  8
_0-0_
  6
CONTINUOUS
 62
    7
 10
67.997223462602165
 20
144.32249226405031
 11
65.497223462602165
 21
142.87911659107624
  0
LINE
  8
_0-0_
  6
CONTINUOUS
 62
    7
 10
65.497223462602165
 20
142.87911659107624
 11
65.497223462602165
 21
139.9923652451281
  0
LINE
  8
_0-0_
  6
CONTINUOUS
 62
    7
 10
67.997223462602165
 20
174.32249226405031
 11
70.497223462602165
 21
172.87911659107624
  0
LINE
  8
_0-0_
  6
CONTINUOUS
 62
    7
 10
70.497223462602165
 20
172.87911659107624
 11
70.497223462602165
 21
169.9923652451281
  0
LINE
  8
_0-0_
  6
CONTINUOUS
 62
    7
 10
70.497223462602165
 20
169.9923652451281
 11
67.997223462602165
 21
168.54898957215403
  0
LINE
  8
_0-0_
  6
CONTINUOUS
 62
    7
 10
67.997223462602165
 20
168.54898957215403
 11
65.497223462602165
 21
169.9923652451281
  0
LINE
  8
_0-0_
  6
CONTINUOUS
 62
    7
 10
65.497223462602165
 20
169.9923652451281
 11
65.497223462602165
 21
172.87911659107624
  0
LINE
  8
_0-0_
  6
CONTINUOUS
 62
    7
 10
65.497223462602165
 20
172.87911659107624
 11
67.997223462602165
 21
174.32249226405031
  0
LINE
  8
_0-0_
  6
CONTINUOUS
 62
    7
 10
136.49722346260216
 20
134.25503091810208
 11
136.49722346260216
 21
178.25503091810208
  0
LINE
  8
_0-0_
  6
CONTINUOUS
 62
    7
 10
158.93615346260242
 20
131.25503091810253
 11
158.93615346260242
 21
157.25503091810253
  0
LINE
  8
_0-0_
  6
CONTINUOUS
 62
    7
 10
158.93615346260242
 20
157.25503091810253
 11
171.99722346260216
 21
157.25503091810253
  0
LINE
  8
_0-0_
  6
CONTINUOUS
 62
    7
 10
171.99722346260216
 20
157.25503091810253
 11
171.99722346260216
 21
181.25503091810253
  0
LINE
  8
_0-0_
  6
CONTINUOUS
 62
    7
 10
174.05828346260216
 20
181.25503091810253
 11
174.05828346260216
 21
155.25503091810253
  0
LINE
  8
_0-0_
  6
CONTINUOUS
 62
    7
 10
174.05828346260216
 20
155.25503091810253
 11
160.99722346260216
 21
155.25503091810253
  0
LINE
  8
_0-0_
  6
CONTINUOUS
 62
    7
 10
160.99722346260216
 20
155.25503091810253
 11
160.99722346260216
 21
131.25503091810253
  0
LINE
  8
_0-0_
  6
CONTINUOUS
 62
    7
 10
193.49722346260216
 20
181.25503091810253
 11
139.49722346260216
 21
181.25503091810253
  0
LINE
  8
_0-0_
  6
CONTINUOUS
 62
    7
 10
160.99722346260216
 20
181.25503091810253
 11
160.99722346260216
 21
157.25503091810253
  0
LINE
  8
_0-0_
  6
CONTINUOUS
 62
    7
 10
161.49722346260216
 20
157.25503091810253
 11
161.49722346260216
 21
155.25503091810253
  0
LINE
  8
_0-0_
  6
CONTINUOUS
 62
    7
 10
171.49722346260216
 20
155.25503091810253
 11
171.49722346260216
 21
157.25503091810253
  0
LINE
  8
_0-0_
  6
CONTINUOUS
 62
    7
 10
171.99722346260216
 20
155.25503091810253
 11
171.99722346260216
 21
131.25503091810253
  0
LINE
  8
_0-0_
  6
CONTINUOUS
 62
    7
 10
193.49722346260216
 20
131.25503091810253
 11
139.49722346260216
 21
131.25503091810253
  0
LINE
  8
_0-0_
  6
CONTINUOUS
 62
    7
 10
144.99722346260216
 20
144.14178226405068
 11
147.49722346260216
 21
142.6984065910766
  0
LINE
  8
_0-0_
  6
CONTINUOUS
 62
    7
 10
147.49722346260216
 20
142.6984065910766
 11
147.49722346260216
 21
139.81165524512846
  0
LINE
  8
_0-0_
  6
CONTINUOUS
 62
    7
 10
147.49722346260216
 20
139.81165524512846
 11
144.99722346260216
 21
138.36827957215439
  0
LINE
  8
_0-0_
  6
CONTINUOUS
 62
    7
 10
144.99722346260216
 20
138.36827957215439
 11
142.49722346260216
 21
139.81165524512846
  0
LINE
  8
_0-0_
  6
CONTINUOUS
 62
    7
 10
142.49722346260216
 20
139.81165524512846
 11
142.49722346260216
 21
142.6984065910766
  0
LINE
  8
_0-0_
  6
CONTINUOUS
 62
    7
 10
142.49722346260216
 20
142.6984065910766
 11
144.99722346260216
 21
144.14178226405068
  0
LINE
  8
_0-0_
  6
CONTINUOUS
 62
    7
 10
144.99722346260216
 20
174.14178226405068
 11
147.49722346260216
 21
172.6984065910766
  0
LINE
  8
_0-0_
  6
CONTINUOUS
 62
    7
 10
147.49722346260216
 20
172.6984065910766
 11
147.49722346260216
 21
169.81165524512846
  0
LINE
  8
_0-0_
  6
CONTINUOUS
 62
    7
 10
147.49722346260216
 20
169.81165524512846
 11
144.99722346260216
 21
168.36827957215439
  0
LINE
  8
_0-0_
  6
CONTINUOUS
 62
    7
 10
144.99722346260216
 20
168.36827957215439
 11
142.49722346260216
 21
169.81165524512846
  0
LINE
  8
_0-0_
  6
CONTINUOUS
 62
    7
 10
142.49722346260216
 20
169.81165524512846
 11
142.49722346260216
 21
172.6984065910766
  0
LINE
  8
_0-0_
  6
CONTINUOUS
 62
    7
 10
142.49722346260216
 20
172.6984065910766
 11
144.99722346260216
 21
174.14178226405068
  0
LINE
  8
_0-0_
  6
CONTINUOUS
 62
    7
 10
150.17401346260169
 20
107.64456091810246
 11
150.34722346260162
 21
107.94456091810218
  0
LINE
  8
_0-0_
  6
CONTINUOUS
 62
    7
 10
150.17401346260169
 20
107.64456091810246
 11
139.82042346260152
 21
107.64456091810246
  0
LINE
  8
_0-0_
  6
CONTINUOUS
 62
    7
 10
139.82042346260152
 20
107.64456091810246
 11
139.6472234626018
 21
107.94456091810218
  0
LINE
  8
_0-0_
  6
CONTINUOUS
 62
    7
 10
136.99722346260171
 20
107.94456091810218
 11
163.49722346260171
 21
107.94456091810218
  0
LINE
  8
_0-0_
  6
CONTINUOUS
 62
    7
 10
163.49722346260171
 20
107.94456091810218
 11
166.49722346260171
 21
109.8896709181023
  0
LINE
  8
_0-0_
  6
CONTINUOUS
 62
    7
 10
164.20593625466984
 20
121.44456121117889
 11
168.78851136866535
 21
121.44456089125504
  0
LINE
  8
_0-0_
  6
CONTINUOUS
 62
    7
 10
160.99722346260171
 20
116.44456091810218
 11
160.99722346260171
 21
115.84456091810227
  0
LINE
  8
_0-0_
  6
CONTINUOUS
 62
    7
 10
160.99722346260171
 20
115.84456091810227
 11
137.99722346260171
 21
115.84456091810227
  0
LINE
  8
_0-0_
  6
CONTINUOUS
 62
    7
 10
136.49722346260171
 20
114.34456091810227
 11
136.49722346260171
 21
108.44456091810218
  0
LINE
  8
_0-0_
  6
CONTINUOUS
 62
    7
 10
163.49722346260171
 20
107.94456091810218
 11
158.93615346260196
 21
115.84456091810227
  0
LINE
  8
_0-0_
  6
CONTINUOUS
 62
    7
 10
163.50507796435215
 20
111.82968656257492
 11
169.49722346260171
 21
107.94456091810218
  0
LINE
  8
_0-0_
  6
CONTINUOUS
 62
    7
 10
169.49722346260171
 20
107.94456091810218
 11
195.99722346260171
 21
107.94456091810218
  0
LINE
  8
_0-0_
  6
CONTINUOUS
 62
    7
 10
196.49722346260171
 20
108.44456091810218
 11
196.49722346260171
 21
114.34456091810227
  0
LINE
  8
_0-0_
  6
CONTINUOUS
 62
    7
 10
194.99722346260171
 20
115.84456091810227
 11
171.99722346260171
 21
115.84456091810227
  0
LINE
  8
_0-0_
  6
CONTINUOUS
 62
    7
 10
171.99722346260171
 20
115.84456091810227
 11
171.99722346260171
 21
116.44456091810218
  0
LINE
  8
_0-0_
  6
CONTINUOUS
 62
    7
 10
193.17401346260169
 20
107.64456091810246
 11
182.82042346260198
 21
107.64456091810246
  0
LINE
  8
_0-0_
  6
CONTINUOUS
 62
    7
 10
182.82042346260198
 20
107.64456091810246
 11
182.6472234626018
 21
107.94456091810218
  0
LINE
  8
_0-0_
  6
CONTINUOUS
 62
    7
 10
193.34722346260207
 20
107.94456091810218
 11
193.17401346260169
 21
107.64456091810246
  0
LINE
  8
_0-0_
  6
CONTINUOUS
 62
    7
 10
187.99722346260216
 20
144.14178226405068
 11
190.49722346260216
 21
142.6984065910766
  0
LINE
  8
_0-0_
  6
CONTINUOUS
 62
    7
 10
190.49722346260216
 20
142.6984065910766
 11
190.49722346260216
 21
139.81165524512846
  0
LINE
  8
_0-0_
  6
CONTINUOUS
 62
    7
 10
190.49722346260216
 20
139.81165524512846
 11
187.99722346260216
 21
138.36827957215439
  0
LINE
  8
_0-0_
  6
CONTINUOUS
 62
    7
 10
187.99722346260216
 20
138.36827957215439
 11
185.49722346260216
 21
139.81165524512846
  0
LINE
  8
_0-0_
  6
CONTINUOUS
 62
    7
 10
185.49722346260216
 20
139.81165524512846
 11
185.49722346260216
 21
142.6984065910766
  0
LINE
  8
_0-0_
  6
CONTINUOUS
 62
    7
 10
185.49722346260216
 20
142.6984065910766
 11
187.99722346260216
 21
144.14178226405068
  0
LINE
  8
_0-0_
  6
CONTINUOUS
 62
    7
 10
187.99722346260216
 20
174.14178226405068
 11
190.49722346260216
 21
172.6984065910766
  0
LINE
  8
_0-0_
  6
CONTINUOUS
 62
    7
 10
190.49722346260216
 20
172.6984065910766
 11
190.49722346260216
 21
169.81165524512846
  0
LINE
  8
_0-0_
  6
CONTINUOUS
 62
    7
 10
190.49722346260216
 20
169.81165524512846
 11
187.99722346260216
 21
168.36827957215439
  0
LINE
  8
_0-0_
  6
CONTINUOUS
 62
    7
 10
187.99722346260216
 20
168.36827957215439
 11
185.49722346260216
 21
169.81165524512846
  0
LINE
  8
_0-0_
  6
CONTINUOUS
 62
    7
 10
185.49722346260216
 20
169.81165524512846
 11
185.49722346260216
 21
172.6984065910766
  0
LINE
  8
_0-0_
  6
CONTINUOUS
 62
    7
 10
185.49722346260216
 20
172.6984065910766
 11
187.99722346260216
 21
174.14178226405068
  0
LINE
  8
_0-0_
  6
CONTINUOUS
 62
    7
 10
196.49722346260216
 20
134.25503091810208
 11
196.49722346260216
 21
178.25503091810208
  0
ARC
  8
_0-0_
  6
CONTINUOUS
 62
    7
 10
46.497223462602165
 20
116.44456091810218
 40
5.5
 50
0
 51
65.380021999999983
  0
CIRCLE
  8
_0-0_
  6
CONTINUOUS
 62
    7
 10
24.997223462602165
 20
171.43574091810217
 40
5
  0
ARC
  8
_0-0_
  6
CONTINUOUS
 62
    7
 10
19.497223462602165
 20
134.43574091810262
 40
3.0000000000000004
 50
180
 51
270
  0
ARC
  8
_0-0_
  6
CONTINUOUS
 62
    7
 10
19.497223462602165
 20
178.43574091810262
 40
3.0000000000000004
 50
90
 51
180
  0
CIRCLE
  8
_0-0_
  6
CONTINUOUS
 62
    7
 10
24.997223462602165
 20
141.43574091810217
 40
5.5
  0
CIRCLE
  8
_0-0_
  6
CONTINUOUS
 62
    7
 10
24.997223462602165
 20
171.43574091810217
 40
5.5
  0
ARC
  8
_0-0_
  6
CONTINUOUS
 62
    7
 10
73.497223462602165
 20
178.43574091810262
 40
3.0000000000000004
 50
0
 51
90
  0
ARC
  8
_0-0_
  6
CONTINUOUS
 62
    7
 10
73.497223462602165
 20
134.43574091810262
 40
3.0000000000000004
 50
270
 51
0
  0
CIRCLE
  8
_0-0_
  6
CONTINUOUS
 62
    7
 10
67.997223462602165
 20
171.43574091810217
 40
5.5
  0
CIRCLE
  8
_0-0_
  6
CONTINUOUS
 62
    7
 10
67.997223462602165
 20
141.43574091810217
 40
5.5
  0
CIRCLE
  8
_0-0_
  6
CONTINUOUS
 62
    7
 10
67.997223462602165
 20
141.43574091810217
 40
5
  0
ARC
  8
_0-0_
  6
CONTINUOUS
 62
    7
 10
74.997223462602165
 20
114.34456091810227
 40
1.5000000000000002
 50
0
 51
90
  0
CIRCLE
  8
_0-0_
  6
CONTINUOUS
 62
    7
 10
46.497223462602165
 20
116.44456091810218
 40
3.0000000000000004
  0
ARC
  8
_0-0_
  6
CONTINUOUS
 62
    7
 10
75.997223462602165
 20
108.44456091810218
 40
0.5
 50
270
 51
0
  0
ARC
  8
_0-0_
  6
CONTINUOUS
 62
    7
 10
17.997223462602165
 20
114.34456091810227
 40
1.5000000000000002
 50
90
 51
180
  0
ARC
  8
_0-0_
  6
CONTINUOUS
 62
    7
 10
16.997223462602165
 20
108.44456091810218
 40
0.5
 50
180
 51
270
  0
ARC
  8
_0-0_
  6
CONTINUOUS
 62
    7
 10
46.497223462602165
 20
116.44456091810218
 40
5.5
 50
302.95814999999999
 51
65.380022000000068
  0
ARC
  8
_0-0_
  6
CONTINUOUS
 62
    7
 10
46.497223462602165
 20
116.44456091810218
 40
5.5
 50
114.61997000000001
 51
179.99999999999997
  0
CIRCLE
  8
_0-0_
  6
CONTINUOUS
 62
    7
 10
144.99722346260216
 20
141.25503091810253
 40
5
  0
ARC
  8
_0-0_
  6
CONTINUOUS
 62
    7
 10
139.49722346260216
 20
178.25503091810208
 40
3.0000000000000004
 50
90
 51
180
  0
ARC
  8
_0-0_
  6
CONTINUOUS
 62
    7
 10
139.49722346260216
 20
134.25503091810208
 40
3.0000000000000004
 50
180
 51
270
  0
CIRCLE
  8
_0-0_
  6
CONTINUOUS
 62
    7
 10
144.99722346260216
 20
171.25503091810253
 40
5.5
  0
CIRCLE
  8
_0-0_
  6
CONTINUOUS
 62
    7
 10
144.99722346260216
 20
141.25503091810253
 40
5.5
  0
ARC
  8
_0-0_
  6
CONTINUOUS
 62
    7
 10
193.49722346260216
 20
134.25503091810208
 40
3.0000000000000004
 50
270
 51
0
  0
ARC
  8
_0-0_
  6
CONTINUOUS
 62
    7
 10
193.49722346260216
 20
178.25503091810208
 40
3.0000000000000004
 50
0
 51
90
  0
CIRCLE
  8
_0-0_
  6
CONTINUOUS
 62
    7
 10
187.99722346260216
 20
141.25503091810253
 40
5.5
  0
CIRCLE
  8
_0-0_
  6
CONTINUOUS
 62
    7
 10
187.99722346260216
 20
171.25503091810253
 40
5.5
  0
CIRCLE
  8
_0-0_
  6
CONTINUOUS
 62
    7
 10
144.99722346260216
 20
171.25503091810253
 40
5
  0
CIRCLE
  8
_0-0_
  6
CONTINUOUS
 62
    7
 10
187.99722346260216
 20
171.25503091810253
 40
5
  0
CIRCLE
  8
_0-0_
  6
CONTINUOUS
 62
    7
 10
187.99722346260216
 20
141.25503091810253
 40
5
  0
ARC
  8
_0-0_
  6
CONTINUOUS
 62
    7
 10
136.99722346260171
 20
108.44456091810218
 40
0.5
 50
180
 51
270
  0
CIRCLE
  8
_0-0_
  6
CONTINUOUS
 62
    7
 10
166.49722346260171
 20
116.44456091810218
 40
3.0000000000000004
  0
ARC
  8
_0-0_
  6
CONTINUOUS
 62
    7
 10
137.99722346260171
 20
114.34456091810227
 40
1.5000000000000002
 50
90
 51
180
  0
ARC
  8
_0-0_
  6
CONTINUOUS
 62
    7
 10
195.99722346260171
 20
108.44456091810218
 40
0.5
 50
270
 51
0
  0
ARC
  8
_0-0_
  6
CONTINUOUS
 62
    7
 10
194.99722346260171
 20
114.34456091810227
 40
1.5000000000000002
 50
0
 51
90
  0
ARC
  8
_0-0_
  6
CONTINUOUS
 62
    7
 10
166.49722346260171
 20
116.44456091810218
 40
5.5
 50
0
 51
65.380021999999983
  0
ARC
  8
_0-0_
  6
CONTINUOUS
 62
    7
 10
166.49722346260171
 20
116.44456091810218
 40
5.5
 50
114.61997000000001
 51
237.04184000000006
  0
CIRCLE
  8
_0-0_
  6
CONTINUOUS
 62
    7
 10
67.997223462602165
 20
171.43574091810217
 40
5
  0
CIRCLE
  8
_0-0_
  6
CONTINUOUS
 62
    7
 10
24.997223462602165
 20
141.43574091810217
 40
5
  0
LINE
  8
_0-0_
  6
CONTINUOUS
 62
    7
 10
17.997223462602165
 20
50.83912822483336
 11
40.997223462602165
 21
50.83912822483336
  0
LINE
  8
_0-0_
  6
CONTINUOUS
 62
    7
 10
40.997223462602165
 20
50.83912822483336
 11
40.997223462602165
 21
51.439128224833269
  0
LINE
  8
_0-0_
  6
CONTINUOUS
 62
    7
 10
51.997223462602165
 20
51.439128224833269
 11
51.997223462602165
 21
50.83912822483336
  0
LINE
  8
_0-0_
  6
CONTINUOUS
 62
    7
 10
51.997223462602165
 20
50.83912822483336
 11
74.997223462602165
 21
50.83912822483336
  0
LINE
  8
_0-0_
  6
CONTINUOUS
 62
    7
 10
73.174013462602147
 20
42.639128224833541
 11
62.820423462602434
 21
42.639128224833541
  0
LINE
  8
_0-0_
  6
CONTINUOUS
 62
    7
 10
62.820423462602434
 20
42.639128224833541
 11
62.647213462602053
 21
42.939128224833269
  0
LINE
  8
_0-0_
  6
CONTINUOUS
 62
    7
 10
73.347213462602326
 20
42.939128224833269
 11
73.174013462602147
 21
42.639128224833541
  0
LINE
  8
_0-0_
  6
CONTINUOUS
 62
    7
 10
75.997223462602165
 20
42.939128224833269
 11
49.497223462602165
 21
42.939128224833269
  0
LINE
  8
_0-0_
  6
CONTINUOUS
 62
    7
 10
49.497223462602165
 20
42.939128224833269
 11
46.497223462602165
 21
44.884238224833382
  0
LINE
  8
_0-0_
  6
CONTINUOUS
 62
    7
 10
48.78850346260208
 20
56.439128224833269
 11
44.205936254670291
 21
56.439128517909978
  0
LINE
  8
_0-f_
  6
CONTINUOUS
 62
    7
 10
48.78850346260208
 20
56.439128224833269
 11
48.788511368665809
 21
56.439128197986122
  0
LINE
  8
_0-0_
  6
CONTINUOUS
 62
    7
 10
49.489368155404122
 20
46.824253347078013
 11
43.497223462602165
 21
42.939128224833269
  0
LINE
  8
_0-0_
  6
CONTINUOUS
 62
    7
 10
43.497223462602165
 20
42.939128224833269
 11
16.997223462602165
 21
42.939128224833269
  0
LINE
  8
_0-0_
  6
CONTINUOUS
 62
    7
 10
16.497223462602165
 20
43.439128224833269
 11
16.497223462602165
 21
49.33912822483336
  0
LINE
  8
_0-0_
  6
CONTINUOUS
 62
    7
 10
19.647223462602255
 20
42.939128224833269
 11
19.820423462602434
 21
42.639128224833541
  0
LINE
  8
_0-0_
  6
CONTINUOUS
 62
    7
 10
19.820423462602434
 20
42.639128224833541
 11
30.174013462602147
 21
42.639128224833541
  0
LINE
  8
_0-0_
  6
CONTINUOUS
 62
    7
 10
30.174013462602147
 20
42.639128224833541
 11
30.347223462602074
 21
42.939128224833269
  0
LINE
  8
_0-0_
  6
CONTINUOUS
 62
    7
 10
54.058283462602162
 20
50.83912822483336
 11
49.497223462602165
 21
42.939128224833269
  0
LINE
  8
_0-0_
  6
CONTINUOUS
 62
    7
 10
76.497223462602165
 20
43.439128224833269
 11
76.497223462602165
 21
49.33912822483336
  0
LINE
  8
_0-0_
  6
CONTINUOUS
 62
    7
 10
150.17401346260169
 20
42.639128224833541
 11
150.34722346260162
 21
42.939128224833269
  0
LINE
  8
_0-0_
  6
CONTINUOUS
 62
    7
 10
150.17401346260169
 20
42.639128224833541
 11
139.82042346260152
 21
42.639128224833541
  0
LINE
  8
_0-0_
  6
CONTINUOUS
 62
    7
 10
139.82042346260152
 20
42.639128224833541
 11
139.6472234626018
 21
42.939128224833269
  0
LINE
  8
_0-0_
  6
CONTINUOUS
 62
    7
 10
136.99722346260171
 20
42.939128224833269
 11
163.49722346260171
 21
42.939128224833269
  0
LINE
  8
_0-0_
  6
CONTINUOUS
 62
    7
 10
163.49722346260171
 20
42.939128224833269
 11
166.49722346260171
 21
44.884238224833382
  0
LINE
  8
_0-0_
  6
CONTINUOUS
 62
    7
 10
164.20593625466984
 20
56.439128517909978
 11
168.78851136866535
 21
56.439128197986122
  0
LINE
  8
_0-0_
  6
CONTINUOUS
 62
    7
 10
160.99722346260171
 20
51.439128224833269
 11
160.99722346260171
 21
50.83912822483336
  0
LINE
  8
_0-0_
  6
CONTINUOUS
 62
    7
 10
160.99722346260171
 20
50.83912822483336
 11
137.99722346260171
 21
50.83912822483336
  0
LINE
  8
_0-0_
  6
CONTINUOUS
 62
    7
 10
136.49722346260171
 20
49.33912822483336
 11
136.49722346260171
 21
43.439128224833269
  0
LINE
  8
_0-0_
  6
CONTINUOUS
 62
    7
 10
163.49722346260171
 20
42.939128224833269
 11
158.93615346260196
 21
50.83912822483336
  0
LINE
  8
_0-0_
  6
CONTINUOUS
 62
    7
 10
163.50507796435215
 20
46.824253869306006
 11
169.49722346260171
 21
42.939128224833269
  0
LINE
  8
_0-0_
  6
CONTINUOUS
 62
    7
 10
169.49722346260171
 20
42.939128224833269
 11
195.99722346260171
 21
42.939128224833269
  0
LINE
  8
_0-0_
  6
CONTINUOUS
 62
    7
 10
196.49722346260171
 20
43.439128224833269
 11
196.49722346260171
 21
49.33912822483336
  0
LINE
  8
_0-0_
  6
CONTINUOUS
 62
    7
 10
194.99722346260171
 20
50.83912822483336
 11
171.99722346260171
 21
50.83912822483336
  0
LINE
  8
_0-0_
  6
CONTINUOUS
 62
    7
 10
171.99722346260171
 20
50.83912822483336
 11
171.99722346260171
 21
51.439128224833269
  0
LINE
  8
_0-0_
  6
CONTINUOUS
 62
    7
 10
193.17401346260169
 20
42.639128224833541
 11
182.82042346260198
 21
42.639128224833541
  0
LINE
  8
_0-0_
  6
CONTINUOUS
 62
    7
 10
182.82042346260198
 20
42.639128224833541
 11
182.6472234626018
 21
42.939128224833269
  0
LINE
  8
_0-0_
  6
CONTINUOUS
 62
    7
 10
193.34722346260207
 20
42.939128224833269
 11
193.17401346260169
 21
42.639128224833541
  0
ARC
  8
_0-0_
  6
CONTINUOUS
 62
    7
 10
46.497223462602165
 20
51.439128224833269
 40
5.5
 50
0
 51
65.380021999999983
  0
ARC
  8
_0-0_
  6
CONTINUOUS
 62
    7
 10
74.997223462602165
 20
49.33912822483336
 40
1.5000000000000002
 50
0
 51
90
  0
CIRCLE
  8
_0-0_
  6
CONTINUOUS
 62
    7
 10
46.497223462602165
 20
51.439128224833269
 40
3.0000000000000004
  0
ARC
  8
_0-0_
  6
CONTINUOUS
 62
    7
 10
75.997223462602165
 20
43.439128224833269
 40
0.5
 50
270
 51
0
  0
ARC
  8
_0-0_
  6
CONTINUOUS
 62
    7
 10
17.997223462602165
 20
49.33912822483336
 40
1.5000000000000002
 50
90
 51
180
  0
ARC
  8
_0-0_
  6
CONTINUOUS
 62
    7
 10
16.997223462602165
 20
43.439128224833269
 40
0.5
 50
180
 51
270
  0
ARC
  8
_0-0_
  6
CONTINUOUS
 62
    7
 10
46.497223462602165
 20
51.439128224833269
 40
5.5
 50
302.95814999999999
 51
65.380022000000068
  0
ARC
  8
_0-0_
  6
CONTINUOUS
 62
    7
 10
46.497223462602165
 20
51.439128224833269
 40
5.5
 50
114.61997000000001
 51
179.99999999999997
  0
ARC
  8
_0-0_
  6
CONTINUOUS
 62
    7
 10
136.99722346260171
 20
43.439128224833269
 40
0.5
 50
180
 51
270
  0
CIRCLE
  8
_0-0_
  6
CONTINUOUS
 62
    7
 10
166.49722346260171
 20
51.439128224833269
 40
3.0000000000000004
  0
ARC
  8
_0-0_
  6
CONTINUOUS
 62
    7
 10
137.99722346260171
 20
49.33912822483336
 40
1.5000000000000002
 50
90
 51
180
  0
ARC
  8
_0-0_
  6
CONTINUOUS
 62
    7
 10
195.99722346260171
 20
43.439128224833269
 40
0.5
 50
270
 51
0
  0
ARC
  8
_0-0_
  6
CONTINUOUS
 62
    7
 10
194.99722346260171
 20
49.33912822483336
 40
1.5000000000000002
 50
0
 51
90
  0
ARC
  8
_0-0_
  6
CONTINUOUS
 62
    7
 10
166.49722346260171
 20
51.439128224833269
 40
5.5
 50
0
 51
65.380021999999983
  0
ARC
  8
_0-0_
  6
CONTINUOUS
 62
    7
 10
166.49722346260171
 20
51.439128224833269
 40
5.5
 50
114.61997000000001
 51
237.04184000000006
  0
LINE
  8
_0-0_
  6
CONTINUOUS
 62
    7
 10
231.94861381326507
 20
181.25503091810253
 11
231.94861381326507
 21
131.25503091810253
  0
LINE
  8
_0-0_
  6
CONTINUOUS
 62
    7
 10
231.94861381326507
 20
131.25503091810253
 11
245.44861378326493
 21
131.25503091810253
  0
LINE
  8
_0-0_
  6
CONTINUOUS
 62
    7
 10
245.44861378326493
 20
131.25503091810253
 11
245.44861378326493
 21
181.25503091810253
  0
LINE
  8
_0-0_
  6
CONTINUOUS
 62
    7
 10
245.44861378326493
 20
181.25503091810253
 11
231.94861381326507
 21
181.25503091810253
  0
LINE
  8
_0-0_
  6
CONTINUOUS
 62
    7
 10
237.54861378626481
 20
134.25503091810253
 11
237.54861378626481
 21
178.25503091810253
  0
LINE
  8
_0-0_
  6
CONTINUOUS
 62
    7
 10
245.74861378646517
 20
163.25503091810253
 11
245.44861378326493
 21
163.25503091810253
  0
LINE
  8
_0-0_
  6
CONTINUOUS
 62
    7
 10
245.74861378646517
 20
163.25503091810253
 11
245.74861378646517
 21
179.25503091810253
  0
LINE
  8
_0-0_
  6
CONTINUOUS
 62
    7
 10
245.74861378646517
 20
179.25503091810253
 11
245.44861378326493
 21
179.25503091810253
  0
LINE
  8
_0-0_
  6
CONTINUOUS
 62
    7
 10
237.54861378626481
 20
157.25503091810253
 11
231.94861381326507
 21
157.25503091810253
  0
LINE
  8
_0-0_
  6
CONTINUOUS
 62
    7
 10
231.94861381326507
 20
155.25503091810253
 11
237.54861378626481
 21
155.25503091810253
  0
LINE
  8
_0-0_
  6
CONTINUOUS
 62
    7
 10
245.74861378646517
 20
133.25503091810253
 11
245.74861378646517
 21
149.25503091810253
  0
LINE
  8
_0-0_
  6
CONTINUOUS
 62
    7
 10
245.74861378646517
 20
149.25503091810253
 11
245.44861378326493
 21
149.25503091810253
  0
LINE
  8
_0-0_
  6
CONTINUOUS
 62
    7
 10
245.44861378326493
 20
133.25503091810253
 11
245.74861378646517
 21
133.25503091810253
  0
ARC
  8
_0-0_
  6
CONTINUOUS
 62
    7
 10
240.54861378626481
 20
134.25503091810253
 40
3
 50
180
 51
270
  0
ARC
  8
_0-0_
  6
CONTINUOUS
 62
    7
 10
240.54861378626481
 20
178.25503091810253
 40
3
 50
90
 51
180
  0
LINE
  8
_0-0_
  6
CONTINUOUS
 62
    7
 10
280.9579452678762
 20
181.25503091810253
 11
280.9579452678762
 21
131.25503091810253
  0
LINE
  8
_0-0_
  6
CONTINUOUS
 62
    7
 10
280.9579452678762
 20
131.25503091810253
 11
294.45794523787606
 21
131.25503091810253
  0
LINE
  8
_0-0_
  6
CONTINUOUS
 62
    7
 10
294.45794523787606
 20
131.25503091810253
 11
294.45794523787606
 21
181.25503091810253
  0
LINE
  8
_0-0_
  6
CONTINUOUS
 62
    7
 10
294.45794523787606
 20
181.25503091810253
 11
280.9579452678762
 21
181.25503091810253
  0
LINE
  8
_0-0_
  6
CONTINUOUS
 62
    7
 10
286.55794524087594
 20
134.25503091810253
 11
286.55794524087594
 21
178.25503091810253
  0
LINE
  8
_0-0_
  6
CONTINUOUS
 62
    7
 10
294.7579452410763
 20
163.25503091810253
 11
294.45794523787606
 21
163.25503091810253
  0
LINE
  8
_0-0_
  6
CONTINUOUS
 62
    7
 10
294.7579452410763
 20
163.25503091810253
 11
294.7579452410763
 21
179.25503091810253
  0
LINE
  8
_0-0_
  6
CONTINUOUS
 62
    7
 10
294.7579452410763
 20
179.25503091810253
 11
294.45794523787606
 21
179.25503091810253
  0
LINE
  8
_0-0_
  6
CONTINUOUS
 62
    7
 10
286.55794524087594
 20
157.25503091810253
 11
280.9579452678762
 21
157.25503091810253
  0
LINE
  8
_0-0_
  6
CONTINUOUS
 62
    7
 10
280.9579452678762
 20
155.25503091810253
 11
286.55794524087594
 21
155.25503091810253
  0
LINE
  8
_0-0_
  6
CONTINUOUS
 62
    7
 10
294.7579452410763
 20
133.25503091810253
 11
294.7579452410763
 21
149.25503091810253
  0
LINE
  8
_0-0_
  6
CONTINUOUS
 62
    7
 10
294.7579452410763
 20
149.25503091810253
 11
294.45794523787606
 21
149.25503091810253
  0
LINE
  8
_0-0_
  6
CONTINUOUS
 62
    7
 10
294.45794523787606
 20
133.25503091810253
 11
294.7579452410763
 21
133.25503091810253
  0
ARC
  8
_0-0_
  6
CONTINUOUS
 62
    7
 10
289.55794524087594
 20
134.25503091810253
 40
3
 50
180
 51
270
  0
ARC
  8
_0-0_
  6
CONTINUOUS
 62
    7
 10
289.55794524087594
 20
178.25503091810253
 40
3
 50
90
 51
180
  0
LINE
  8
_0-0_
  6
CONTINUOUS
 62
    7
 10
29.397223557969596
 20
51.739128224833337
 11
20.597223367234733
 21
51.739128224833337
  0
LINE
  8
_0-0_
  6
CONTINUOUS
 62
    7
 10
19.997223462602165
 20
51.139128320200768
 11
20.597223367234733
 21
51.739128224833337
  0
LINE
  8
_0-0_
  6
CONTINUOUS
 62
    7
 10
19.997223462602165
 20
51.139128320200768
 11
19.997223462602165
 21
50.83912822483336
  0
LINE
  8
_0-0_
  6
CONTINUOUS
 62
    7
 10
19.997223462602165
 20
51.139128320200768
 11
29.997223462602165
 21
51.139128320200768
  0
LINE
  8
_0-0_
  6
CONTINUOUS
 62
    7
 10
29.397223557969596
 20
51.739128224833337
 11
29.997223462602165
 21
51.139128320200768
  0
LINE
  8
_0-0_
  6
CONTINUOUS
 62
    7
 10
29.997223462602165
 20
51.139128320200768
 11
29.997223462602165
 21
50.83912822483336
  0
LINE
  8
_0-0_
  6
CONTINUOUS
 62
    7
 10
72.397223557969596
 20
51.739128224833337
 11
63.597223367234733
 21
51.739128224833337
  0
LINE
  8
_0-0_
  6
CONTINUOUS
 62
    7
 10
62.997223462602165
 20
51.139128320200768
 11
63.597223367234733
 21
51.739128224833337
  0
LINE
  8
_0-0_
  6
CONTINUOUS
 62
    7
 10
62.997223462602165
 20
51.139128320200768
 11
62.997223462602165
 21
50.83912822483336
  0
LINE
  8
_0-0_
  6
CONTINUOUS
 62
    7
 10
62.997223462602165
 20
51.139128320200768
 11
72.997223462602165
 21
51.139128320200768
  0
LINE
  8
_0-0_
  6
CONTINUOUS
 62
    7
 10
72.397223557969596
 20
51.739128224833337
 11
72.997223462602165
 21
51.139128320200768
  0
LINE
  8
_0-0_
  6
CONTINUOUS
 62
    7
 10
72.997223462602165
 20
51.139128320200768
 11
72.997223462602165
 21
50.83912822483336
  0
LINE
  8
_0-0_
  6
CONTINUOUS
 62
    7
 10
149.39722355796914
 20
51.739128224833337
 11
140.59722336723428
 21
51.739128224833337
  0
LINE
  8
_0-0_
  6
CONTINUOUS
 62
    7
 10
139.99722346260171
 20
51.139128320200768
 11
140.59722336723428
 21
51.739128224833337
  0
LINE
  8
_0-0_
  6
CONTINUOUS
 62
    7
 10
139.99722346260171
 20
51.139128320200768
 11
139.99722346260171
 21
50.83912822483336
  0
LINE
  8
_0-0_
  6
CONTINUOUS
 62
    7
 10
139.99722346260171
 20
51.139128320200768
 11
149.99722346260171
 21
51.139128320200768
  0
LINE
  8
_0-0_
  6
CONTINUOUS
 62
    7
 10
149.39722355796914
 20
51.739128224833337
 11
149.99722346260171
 21
51.139128320200768
  0
LINE
  8
_0-0_
  6
CONTINUOUS
 62
    7
 10
149.99722346260171
 20
51.139128320200768
 11
149.99722346260171
 21
50.83912822483336
  0
LINE
  8
_0-0_
  6
CONTINUOUS
 62
    7
 10
192.39722355796914
 20
51.739128224833337
 11
183.59722336723428
 21
51.739128224833337
  0
LINE
  8
_0-0_
  6
CONTINUOUS
 62
    7
 10
182.99722346260171
 20
51.139128320200768
 11
183.59722336723428
 21
51.739128224833337
  0
LINE
  8
_0-0_
  6
CONTINUOUS
 62
    7
 10
182.99722346260171
 20
51.139128320200768
 11
182.99722346260171
 21
50.83912822483336
  0
LINE
  8
_0-0_
  6
CONTINUOUS
 62
    7
 10
182.99722346260171
 20
51.139128320200768
 11
192.99722346260171
 21
51.139128320200768
  0
LINE
  8
_0-0_
  6
CONTINUOUS
 62
    7
 10
192.39722355796914
 20
51.739128224833337
 11
192.99722346260171
 21
51.139128320200768
  0
LINE
  8
_0-0_
  6
CONTINUOUS
 62
    7
 10
192.99722346260171
 20
51.139128320200768
 11
192.99722346260171
 21
50.83912822483336
  0
LINE
  8
_0-0_
  6
CONTINUOUS
 62
    7
 10
29.397223557969596
 20
116.74456091810225
 11
20.597223367234733
 21
116.74456091810225
  0
LINE
  8
_0-0_
  6
CONTINUOUS
 62
    7
 10
19.997223462602165
 20
116.14456101346968
 11
20.597223367234733
 21
116.74456091810225
  0
LINE
  8
_0-0_
  6
CONTINUOUS
 62
    7
 10
19.997223462602165
 20
116.14456101346968
 11
19.997223462602165
 21
115.84456091810227
  0
LINE
  8
_0-0_
  6
CONTINUOUS
 62
    7
 10
19.997223462602165
 20
116.14456101346968
 11
29.997223462602165
 21
116.14456101346968
  0
LINE
  8
_0-0_
  6
CONTINUOUS
 62
    7
 10
29.397223557969596
 20
116.74456091810225
 11
29.997223462602165
 21
116.14456101346968
  0
LINE
  8
_0-0_
  6
CONTINUOUS
 62
    7
 10
29.997223462602165
 20
116.14456101346968
 11
29.997223462602165
 21
115.84456091810227
  0
LINE
  8
_0-0_
  6
CONTINUOUS
 62
    7
 10
72.397223557969596
 20
116.74456091810225
 11
63.597223367234733
 21
116.74456091810225
  0
LINE
  8
_0-0_
  6
CONTINUOUS
 62
    7
 10
62.997223462602165
 20
116.14456101346968
 11
63.597223367234733
 21
116.74456091810225
  0
LINE
  8
_0-0_
  6
CONTINUOUS
 62
    7
 10
62.997223462602165
 20
116.14456101346968
 11
62.997223462602165
 21
115.84456091810227
  0
LINE
  8
_0-0_
  6
CONTINUOUS
 62
    7
 10
62.997223462602165
 20
116.14456101346968
 11
72.997223462602165
 21
116.14456101346968
  0
LINE
  8
_0-0_
  6
CONTINUOUS
 62
    7
 10
72.397223557969596
 20
116.74456091810225
 11
72.997223462602165
 21
116.14456101346968
  0
LINE
  8
_0-0_
  6
CONTINUOUS
 62
    7
 10
72.997223462602165
 20
116.14456101346968
 11
72.997223462602165
 21
115.84456091810227
  0
LINE
  8
_0-0_
  6
CONTINUOUS
 62
    7
 10
149.39722355796914
 20
116.74456091810225
 11
140.59722336723428
 21
116.74456091810225
  0
LINE
  8
_0-0_
  6
CONTINUOUS
 62
    7
 10
139.99722346260171
 20
116.14456101346968
 11
140.59722336723428
 21
116.74456091810225
  0
LINE
  8
_0-0_
  6
CONTINUOUS
 62
    7
 10
139.99722346260171
 20
116.14456101346968
 11
139.99722346260171
 21
115.84456091810227
  0
LINE
  8
_0-0_
  6
CONTINUOUS
 62
    7
 10
139.99722346260171
 20
116.14456101346968
 11
149.99722346260171
 21
116.14456101346968
  0
LINE
  8
_0-0_
  6
CONTINUOUS
 62
    7
 10
149.39722355796914
 20
116.74456091810225
 11
149.99722346260171
 21
116.14456101346968
  0
LINE
  8
_0-0_
  6
CONTINUOUS
 62
    7
 10
149.99722346260171
 20
116.14456101346968
 11
149.99722346260171
 21
115.84456091810227
  0
LINE
  8
_0-0_
  6
CONTINUOUS
 62
    7
 10
192.39722355796914
 20
116.74456091810225
 11
183.59722336723428
 21
116.74456091810225
  0
LINE
  8
_0-0_
  6
CONTINUOUS
 62
    7
 10
182.99722346260171
 20
116.14456101346968
 11
183.59722336723428
 21
116.74456091810225
  0
LINE
  8
_0-0_
  6
CONTINUOUS
 62
    7
 10
182.99722346260171
 20
116.14456101346968
 11
182.99722346260171
 21
115.84456091810227
  0
LINE
  8
_0-0_
  6
CONTINUOUS
 62
    7
 10
182.99722346260171
 20
116.14456101346968
 11
192.99722346260171
 21
116.14456101346968
  0
LINE
  8
_0-0_
  6
CONTINUOUS
 62
    7
 10
192.39722355796914
 20
116.74456091810225
 11
192.99722346260171
 21
116.14456101346968
  0
LINE
  8
_0-0_
  6
CONTINUOUS
 62
    7
 10
192.99722346260171
 20
116.14456101346968
 11
192.99722346260171
 21
115.84456091810227
  0
LINE
  8
_0-0_
  6
CONTINUOUS
 62
    7
 10
236.64861378626483
 20
145.65503101189881
 11
236.64861378626483
 21
136.85503082116395
  0
LINE
  8
_0-0_
  6
CONTINUOUS
 62
    7
 10
237.2486136908974
 20
136.25503091653138
 11
236.64861378626483
 21
136.85503082116395
  0
LINE
  8
_0-0_
  6
CONTINUOUS
 62
    7
 10
237.2486136908974
 20
136.25503091653138
 11
237.54861378626481
 21
136.25503091653138
  0
LINE
  8
_0-0_
  6
CONTINUOUS
 62
    7
 10
237.2486136908974
 20
136.25503091653138
 11
237.2486136908974
 21
146.25503091653138
  0
LINE
  8
_0-0_
  6
CONTINUOUS
 62
    7
 10
236.64861378626483
 20
145.65503101189881
 11
237.2486136908974
 21
146.25503091653138
  0
LINE
  8
_0-0_
  6
CONTINUOUS
 62
    7
 10
237.2486136908974
 20
146.25503091653138
 11
237.54861378626481
 21
146.25503091653138
  0
LINE
  8
_0-0_
  6
CONTINUOUS
 62
    7
 10
236.64861378626483
 20
175.65503101189881
 11
236.64861378626483
 21
166.85503082116395
  0
LINE
  8
_0-0_
  6
CONTINUOUS
 62
    7
 10
237.2486136908974
 20
166.25503091653138
 11
236.64861378626483
 21
166.85503082116395
  0
LINE
  8
_0-0_
  6
CONTINUOUS
 62
    7
 10
237.2486136908974
 20
166.25503091653138
 11
237.54861378626481
 21
166.25503091653138
  0
LINE
  8
_0-0_
  6
CONTINUOUS
 62
    7
 10
237.2486136908974
 20
166.25503091653138
 11
237.2486136908974
 21
176.25503091653138
  0
LINE
  8
_0-0_
  6
CONTINUOUS
 62
    7
 10
236.64861378626483
 20
175.65503101189881
 11
237.2486136908974
 21
176.25503091653138
  0
LINE
  8
_0-0_
  6
CONTINUOUS
 62
    7
 10
237.2486136908974
 20
176.25503091653138
 11
237.54861378626481
 21
176.25503091653138
  0
LINE
  8
_0-0_
  6
CONTINUOUS
 62
    7
 10
285.65794524087596
 20
175.65503101189881
 11
285.65794524087596
 21
166.85503082116395
  0
LINE
  8
_0-0_
  6
CONTINUOUS
 62
    7
 10
286.25794514550853
 20
166.25503091653138
 11
285.65794524087596
 21
166.85503082116395
  0
LINE
  8
_0-0_
  6
CONTINUOUS
 62
    7
 10
286.25794514550853
 20
166.25503091653138
 11
286.55794524087594
 21
166.25503091653138
  0
LINE
  8
_0-0_
  6
CONTINUOUS
 62
    7
 10
286.25794514550853
 20
166.25503091653138
 11
286.25794514550853
 21
176.25503091653138
  0
LINE
  8
_0-0_
  6
CONTINUOUS
 62
    7
 10
285.65794524087596
 20
175.65503101189881
 11
286.25794514550853
 21
176.25503091653138
  0
LINE
  8
_0-0_
  6
CONTINUOUS
 62
    7
 10
286.25794514550853
 20
176.25503091653138
 11
286.55794524087594
 21
176.25503091653138
  0
LINE
  8
_0-0_
  6
CONTINUOUS
 62
    7
 10
285.65794524087596
 20
145.65503101189881
 11
285.65794524087596
 21
136.85503082116395
  0
LINE
  8
_0-0_
  6
CONTINUOUS
 62
    7
 10
286.25794514550853
 20
136.25503091653138
 11
285.65794524087596
 21
136.85503082116395
  0
LINE
  8
_0-0_
  6
CONTINUOUS
 62
    7
 10
286.25794514550853
 20
136.25503091653138
 11
286.55794524087594
 21
136.25503091653138
  0
LINE
  8
_0-0_
  6
CONTINUOUS
 62
    7
 10
286.25794514550853
 20
136.25503091653138
 11
286.25794514550853
 21
146.25503091653138
  0
LINE
  8
_0-0_
  6
CONTINUOUS
 62
    7
 10
285.65794524087596
 20
145.65503101189881
 11
286.25794514550853
 21
146.25503091653138
  0
LINE
  8
_0-0_
  6
CONTINUOUS
 62
    7
 10
286.25794514550853
 20
146.25503091653138
 11
286.55794524087594
 21
146.25503091653138
  0
LINE
  8
_0-1_
  6
CONTINUOUS
 62
  152
 10
17.997223462602165
 20
134.43574091810262
 11
17.997223462602165
 21
178.43574091810262
  0
LINE
  8
_0-1_
  6
CONTINUOUS
 62
  152
 10
19.497223462602165
 20
179.93574091810262
 11
38.936153462602419
 21
179.93574091810262
  0
LINE
  8
_0-1_
  6
CONTINUOUS
 62
  152
 10
44.205933462602047
 20
181.43574091810217
 11
44.205933462602047
 21
157.43574091810262
  0
LINE
  8
_0-1_
  6
CONTINUOUS
 62
  152
 10
44.205933462602047
 20
155.43574091810217
 11
44.205933462602047
 21
131.43574091810217
  0
LINE
  8
_0-1_
  6
CENTER2
 62
  152
 10
46.497223462602165
 20
131.43574091810217
 11
46.497223462602165
 21
181.43574091810217
  0
LINE
  8
_0-1_
  6
CONTINUOUS
 62
  152
 10
48.78850346260208
 20
181.43574091810217
 11
48.78850346260208
 21
157.43574091810262
  0
LINE
  8
_0-1_
  6
CONTINUOUS
 62
  152
 10
48.78850346260208
 20
155.43574091810217
 11
48.78850346260208
 21
131.43574091810217
  0
LINE
  8
_0-1_
  6
CONTINUOUS
 62
  152
 10
54.058283462602162
 20
132.93574091810217
 11
73.497223462602165
 21
132.93574091810217
  0
LINE
  8
_0-1_
  6
CONTINUOUS
 62
  152
 10
19.497223462602165
 20
132.93574091810217
 11
40.997223462602165
 21
132.93574091810217
  0
LINE
  8
_0-1_
  6
CONTINUOUS
 62
  152
 10
51.997223462602165
 20
179.93574091810262
 11
73.497223462602165
 21
179.93574091810262
  0
LINE
  8
_0-1_
  6
CENTER2
 62
  152
 10
24.997223462602165
 20
176.93574091810262
 11
24.997223462602165
 21
165.93574091810262
  0
LINE
  8
_0-1_
  6
CONTINUOUS
 62
  152
 10
25.247223462602165
 20
162.43574091810262
 11
21.647223462602255
 21
162.43574091810262
  0
LINE
  8
_0-1_
  6
CONTINUOUS
 62
  152
 10
21.197223462602437
 20
161.98574091810235
 11
21.197223462602437
 21
150.88574091810244
  0
LINE
  8
_0-1_
  6
CONTINUOUS
 62
  152
 10
21.647223462602255
 20
150.43574091810217
 11
25.247223462602165
 21
150.43574091810217
  0
LINE
  8
_0-1_
  6
CONTINUOUS
 62
  152
 10
25.697223462602437
 20
150.88574091810244
 11
25.697223462602437
 21
161.98574091810235
  0
LINE
  8
_0-1_
  6
CONTINUOUS
 62
  152
 10
25.023973462602157
 20
161.63373091810229
 11
21.961633462602208
 21
161.63373091810229
  0
LINE
  8
_0-1_
  6
CONTINUOUS
 62
  152
 10
21.961633462602208
 20
161.63373091810229
 11
21.961633462602208
 21
159.48971091810211
  0
LINE
  8
_0-1_
  6
CONTINUOUS
 62
  152
 10
21.961633462602208
 20
159.48971091810211
 11
22.507573462602181
 21
159.48971091810211
  0
LINE
  8
_0-1_
  6
CONTINUOUS
 62
  152
 10
22.507573462602181
 20
159.48971091810211
 11
22.507573462602181
 21
160.87007091810221
  0
LINE
  8
_0-1_
  6
CONTINUOUS
 62
  152
 10
22.507573462602181
 20
160.87007091810221
 11
25.023973462602157
 21
160.87007091810221
  0
LINE
  8
_0-1_
  6
CONTINUOUS
 62
  152
 10
25.023973462602157
 20
160.87007091810221
 11
25.023973462602157
 21
161.63373091810229
  0
LINE
  8
_0-1_
  6
CONTINUOUS
 62
  152
 10
25.023973462602157
 20
158.90052091810242
 11
21.961633462602208
 21
158.90052091810242
  0
LINE
  8
_0-1_
  6
CONTINUOUS
 62
  152
 10
21.961633462602208
 20
158.90052091810242
 11
21.961633462602208
 21
156.75595091810249
  0
LINE
  8
_0-1_
  6
CONTINUOUS
 62
  152
 10
21.961633462602208
 20
156.75595091810249
 11
22.507573462602181
 21
156.75595091810249
  0
LINE
  8
_0-1_
  6
CONTINUOUS
 62
  152
 10
22.507573462602181
 20
156.75595091810249
 11
22.507573462602181
 21
158.13957091810255
  0
LINE
  8
_0-1_
  6
CONTINUOUS
 62
  152
 10
22.507573462602181
 20
158.13957091810255
 11
23.255393462602228
 21
158.13957091810255
  0
LINE
  8
_0-1_
  6
CONTINUOUS
 62
  152
 10
23.255393462602228
 20
158.13957091810255
 11
23.255393462602228
 21
156.88789091810224
  0
LINE
  8
_0-1_
  6
CONTINUOUS
 62
  152
 10
23.255393462602228
 20
156.88789091810224
 11
23.767873462602097
 21
156.88789091810224
  0
LINE
  8
_0-1_
  6
CONTINUOUS
 62
  152
 10
23.767873462602097
 20
156.88789091810224
 11
23.767873462602097
 21
158.13957091810255
  0
LINE
  8
_0-1_
  6
CONTINUOUS
 62
  152
 10
23.767873462602097
 20
158.13957091810255
 11
24.478043462602386
 21
158.13957091810255
  0
LINE
  8
_0-1_
  6
CONTINUOUS
 62
  152
 10
24.478043462602386
 20
158.13957091810255
 11
24.478043462602386
 21
156.75595091810249
  0
LINE
  8
_0-1_
  6
CONTINUOUS
 62
  152
 10
24.478043462602386
 20
156.75595091810249
 11
25.023973462602157
 21
156.75595091810249
  0
LINE
  8
_0-1_
  6
CONTINUOUS
 62
  152
 10
25.023973462602157
 20
156.75595091810249
 11
25.023973462602157
 21
158.90052091810242
  0
LINE
  8
_0-1_
  6
CONTINUOUS
 62
  152
 10
24.109403462602245
 20
154.8007809181023
 11
24.109403462602245
 21
154.02063091810226
  0
LINE
  8
_0-1_
  6
CONTINUOUS
 62
  152
 10
23.00591346260228
 20
154.00050091810238
 11
23.00591346260228
 21
154.79699091810255
  0
LINE
  8
_0-1_
  6
CENTER2
 62
  152
 10
24.997223462602165
 20
146.93574091810262
 11
24.997223462602165
 21
135.93574091810262
  0
LINE
  8
_0-1_
  6
CENTER2
 62
  152
 10
19.497223462602165
 20
141.43574091810217
 11
30.497223462602165
 21
141.43574091810217
  0
LINE
  8
_0-1_
  6
CENTER2
 62
  152
 10
40.997223462602165
 20
116.44456091810218
 11
51.997223462602165
 21
116.44456091810218
  0
LINE
  8
_0-1_
  6
CENTER2
 62
  152
 10
46.497223462602165
 20
107.94456091810218
 11
46.497223462602165
 21
121.44456091810218
  0
LINE
  8
_0-1_
  6
CONTINUOUS
 62
  152
 10
74.997223462602165
 20
178.43574091810262
 11
74.997223462602165
 21
134.43574091810262
  0
LINE
  8
_0-1_
  6
CENTER2
 62
  152
 10
73.497223462602165
 20
141.43574091810217
 11
62.497223462602165
 21
141.43574091810217
  0
LINE
  8
_0-1_
  6
CENTER2
 62
  152
 10
67.997223462602165
 20
135.93574091810262
 11
67.997223462602165
 21
146.93574091810262
  0
LINE
  8
_0-1_
  6
CONTINUOUS
 62
  152
 10
67.747223462602165
 20
150.43574091810217
 11
71.347223462602074
 21
150.43574091810217
  0
LINE
  8
_0-1_
  6
CONTINUOUS
 62
  152
 10
71.797223462602346
 20
150.88574091810244
 11
71.797223462602346
 21
161.98574091810235
  0
LINE
  8
_0-1_
  6
CONTINUOUS
 62
  152
 10
71.347223462602074
 20
162.43574091810262
 11
67.747223462602165
 21
162.43574091810262
  0
LINE
  8
_0-1_
  6
CONTINUOUS
 62
  152
 10
67.297223462602346
 20
161.98574091810235
 11
67.297223462602346
 21
150.88574091810244
  0
LINE
  8
_0-1_
  6
CONTINUOUS
 62
  152
 10
67.970463462602424
 20
151.2377409181023
 11
71.032803462602374
 21
151.2377409181023
  0
LINE
  8
_0-1_
  6
CONTINUOUS
 62
  152
 10
71.032803462602374
 20
151.2377409181023
 11
71.032803462602374
 21
153.38176091810249
  0
LINE
  8
_0-1_
  6
CONTINUOUS
 62
  152
 10
71.032803462602374
 20
153.38176091810249
 11
70.4868634626024
 21
153.38176091810249
  0
LINE
  8
_0-1_
  6
CONTINUOUS
 62
  152
 10
70.4868634626024
 20
153.38176091810249
 11
70.4868634626024
 21
152.00140091810238
  0
LINE
  8
_0-1_
  6
CONTINUOUS
 62
  152
 10
70.4868634626024
 20
152.00140091810238
 11
67.970463462602424
 21
152.00140091810238
  0
LINE
  8
_0-1_
  6
CONTINUOUS
 62
  152
 10
67.970463462602424
 20
152.00140091810238
 11
67.970463462602424
 21
151.2377409181023
  0
LINE
  8
_0-1_
  6
CONTINUOUS
 62
  152
 10
67.970463462602424
 20
153.97095091810218
 11
71.032803462602374
 21
153.97095091810218
  0
LINE
  8
_0-1_
  6
CONTINUOUS
 62
  152
 10
71.032803462602374
 20
153.97095091810218
 11
71.032803462602374
 21
156.11553091810231
  0
LINE
  8
_0-1_
  6
CONTINUOUS
 62
  152
 10
71.032803462602374
 20
156.11553091810231
 11
70.4868634626024
 21
156.11553091810231
  0
LINE
  8
_0-1_
  6
CONTINUOUS
 62
  152
 10
70.4868634626024
 20
156.11553091810231
 11
70.4868634626024
 21
154.7319009181025
  0
LINE
  8
_0-1_
  6
CONTINUOUS
 62
  152
 10
70.4868634626024
 20
154.7319009181025
 11
69.739043462602353
 21
154.7319009181025
  0
LINE
  8
_0-1_
  6
CONTINUOUS
 62
  152
 10
69.739043462602353
 20
154.7319009181025
 11
69.739043462602353
 21
155.98358091810235
  0
LINE
  8
_0-1_
  6
CONTINUOUS
 62
  152
 10
69.739043462602353
 20
155.98358091810235
 11
69.22656346260203
 21
155.98358091810235
  0
LINE
  8
_0-1_
  6
CONTINUOUS
 62
  152
 10
69.22656346260203
 20
155.98358091810235
 11
69.22656346260203
 21
154.7319009181025
  0
LINE
  8
_0-1_
  6
CONTINUOUS
 62
  152
 10
69.22656346260203
 20
154.7319009181025
 11
68.516393462602196
 21
154.7319009181025
  0
LINE
  8
_0-1_
  6
CONTINUOUS
 62
  152
 10
68.516393462602196
 20
154.7319009181025
 11
68.516393462602196
 21
156.11553091810231
  0
LINE
  8
_0-1_
  6
CONTINUOUS
 62
  152
 10
68.516393462602196
 20
156.11553091810231
 11
67.970463462602424
 21
156.11553091810231
  0
LINE
  8
_0-1_
  6
CONTINUOUS
 62
  152
 10
67.970463462602424
 20
156.11553091810231
 11
67.970463462602424
 21
153.97095091810218
  0
LINE
  8
_0-1_
  6
CONTINUOUS
 62
  152
 10
68.885033462602337
 20
158.07069091810229
 11
68.885033462602337
 21
158.85084091810234
  0
LINE
  8
_0-1_
  6
CONTINUOUS
 62
  152
 10
69.988523462602302
 20
158.87097091810222
 11
69.988523462602302
 21
158.07448091810249
  0
LINE
  8
_0-1_
  6
CENTER2
 62
  152
 10
67.997223462602165
 20
165.93574091810262
 11
67.997223462602165
 21
176.93574091810262
  0
LINE
  8
_0-1_
  6
CENTER2
 62
  152
 10
73.497223462602165
 20
171.43574091810217
 11
62.497223462602165
 21
171.43574091810217
  0
LINE
  8
_0-1_
  6
CENTER2
 62
  152
 10
30.497223462602165
 20
171.43574091810217
 11
19.497223462602165
 21
171.43574091810217
  0
LINE
  8
_0-1_
  6
CENTER2
 62
  152
 10
72.997243462602114
 20
87.944560918102411
 11
62.997193462602468
 21
87.944560918102411
  0
LINE
  8
_0-1_
  6
CENTER2
 62
  152
 10
67.997223462602165
 20
82.944540918102462
 11
67.997223462602165
 21
92.944580918102588
  0
LINE
  8
_0-1_
  6
CENTER2
 62
  152
 10
24.997223462602165
 20
92.944580918102588
 11
24.997223462602165
 21
82.944540918102462
  0
LINE
  8
_0-1_
  6
CENTER2
 62
  152
 10
29.997243462602114
 20
87.944560918102411
 11
19.997193462602468
 21
87.944560918102411
  0
LINE
  8
_0-1_
  6
CONTINUOUS
 62
  152
 10
137.99722346260216
 20
178.25503091810208
 11
137.99722346260216
 21
134.25503091810208
  0
LINE
  8
_0-1_
  6
CONTINUOUS
 62
  152
 10
139.49722346260216
 20
132.75503091810253
 11
158.93615346260242
 21
132.75503091810253
  0
LINE
  8
_0-1_
  6
CONTINUOUS
 62
  152
 10
164.20593346260205
 20
131.25503091810253
 11
164.20593346260205
 21
155.25503091810253
  0
LINE
  8
_0-1_
  6
CONTINUOUS
 62
  152
 10
164.20593346260205
 20
157.25503091810253
 11
164.20593346260205
 21
181.25503091810253
  0
LINE
  8
_0-1_
  6
CENTER2
 62
  152
 10
166.49722346260216
 20
181.25503091810253
 11
166.49722346260216
 21
131.25503091810253
  0
LINE
  8
_0-1_
  6
CONTINUOUS
 62
  152
 10
168.78850346260208
 20
131.25503091810253
 11
168.78850346260208
 21
155.25503091810253
  0
LINE
  8
_0-1_
  6
CONTINUOUS
 62
  152
 10
168.78850346260208
 20
157.25503091810253
 11
168.78850346260208
 21
181.25503091810253
  0
LINE
  8
_0-1_
  6
CONTINUOUS
 62
  152
 10
174.05828346260216
 20
179.75503091810253
 11
193.49722346260216
 21
179.75503091810253
  0
LINE
  8
_0-1_
  6
CONTINUOUS
 62
  152
 10
139.49722346260216
 20
179.75503091810253
 11
160.99722346260216
 21
179.75503091810253
  0
LINE
  8
_0-1_
  6
CONTINUOUS
 62
  152
 10
171.99722346260216
 20
132.75503091810253
 11
193.49722346260216
 21
132.75503091810253
  0
LINE
  8
_0-1_
  6
CENTER2
 62
  152
 10
144.99722346260216
 20
135.75503091810208
 11
144.99722346260216
 21
146.75503091810208
  0
LINE
  8
_0-1_
  6
CONTINUOUS
 62
  152
 10
145.24722346260216
 20
150.25503091810253
 11
141.64722346260226
 21
150.25503091810253
  0
LINE
  8
_0-1_
  6
CONTINUOUS
 62
  152
 10
141.19722346260198
 20
150.70503091810235
 11
141.19722346260198
 21
161.80503091810226
  0
LINE
  8
_0-1_
  6
CONTINUOUS
 62
  152
 10
141.64722346260226
 20
162.25503091810253
 11
145.24722346260216
 21
162.25503091810253
  0
LINE
  8
_0-1_
  6
CONTINUOUS
 62
  152
 10
145.69722346260198
 20
161.80503091810226
 11
145.69722346260198
 21
150.70503091810235
  0
LINE
  8
_0-1_
  6
CONTINUOUS
 62
  152
 10
144.10940346260224
 20
153.83993091810237
 11
144.10940346260224
 21
154.62008091810242
  0
LINE
  8
_0-1_
  6
CONTINUOUS
 62
  152
 10
143.00591346260228
 20
154.61628091810246
 11
143.00591346260228
 21
153.81980091810249
  0
LINE
  8
_0-1_
  6
CONTINUOUS
 62
  152
 10
143.25539346260223
 20
156.70718091810261
 11
143.7678734626021
 21
156.70718091810261
  0
LINE
  8
_0-1_
  6
CONTINUOUS
 62
  152
 10
143.7678734626021
 20
156.70718091810261
 11
143.7678734626021
 21
157.95886091810246
  0
LINE
  8
_0-1_
  6
CONTINUOUS
 62
  152
 10
143.7678734626021
 20
157.95886091810246
 11
144.47804346260239
 21
157.95886091810246
  0
LINE
  8
_0-1_
  6
CONTINUOUS
 62
  152
 10
144.47804346260239
 20
157.95886091810246
 11
144.47804346260239
 21
156.57524091810239
  0
LINE
  8
_0-1_
  6
CONTINUOUS
 62
  152
 10
144.47804346260239
 20
156.57524091810239
 11
145.02397346260216
 21
156.57524091810239
  0
LINE
  8
_0-1_
  6
CONTINUOUS
 62
  152
 10
145.02397346260216
 20
156.57524091810239
 11
145.02397346260216
 21
158.71981091810233
  0
LINE
  8
_0-1_
  6
CONTINUOUS
 62
  152
 10
145.02397346260216
 20
158.71981091810233
 11
141.96163346260221
 21
158.71981091810233
  0
LINE
  8
_0-1_
  6
CONTINUOUS
 62
  152
 10
141.96163346260221
 20
158.71981091810233
 11
141.96163346260221
 21
156.57524091810239
  0
LINE
  8
_0-1_
  6
CONTINUOUS
 62
  152
 10
141.96163346260221
 20
156.57524091810239
 11
142.50757346260218
 21
156.57524091810239
  0
LINE
  8
_0-1_
  6
CONTINUOUS
 62
  152
 10
142.50757346260218
 20
156.57524091810239
 11
142.50757346260218
 21
157.95886091810246
  0
LINE
  8
_0-1_
  6
CONTINUOUS
 62
  152
 10
142.50757346260218
 20
157.95886091810246
 11
143.25539346260223
 21
157.95886091810246
  0
LINE
  8
_0-1_
  6
CONTINUOUS
 62
  152
 10
143.25539346260223
 20
157.95886091810246
 11
143.25539346260223
 21
156.70718091810261
  0
LINE
  8
_0-1_
  6
CONTINUOUS
 62
  152
 10
142.50757346260218
 20
159.30901091810222
 11
142.50757346260218
 21
160.68936091810258
  0
LINE
  8
_0-1_
  6
CONTINUOUS
 62
  152
 10
142.50757346260218
 20
160.68936091810258
 11
145.02397346260216
 21
160.68936091810258
  0
LINE
  8
_0-1_
  6
CONTINUOUS
 62
  152
 10
145.02397346260216
 20
160.68936091810258
 11
145.02397346260216
 21
161.4530209181022
  0
LINE
  8
_0-1_
  6
CONTINUOUS
 62
  152
 10
145.02397346260216
 20
161.4530209181022
 11
141.96163346260221
 21
161.4530209181022
  0
LINE
  8
_0-1_
  6
CONTINUOUS
 62
  152
 10
141.96163346260221
 20
161.4530209181022
 11
141.96163346260221
 21
159.30901091810222
  0
LINE
  8
_0-1_
  6
CONTINUOUS
 62
  152
 10
141.96163346260221
 20
159.30901091810222
 11
142.50757346260218
 21
159.30901091810222
  0
LINE
  8
_0-1_
  6
CENTER2
 62
  152
 10
144.99722346260216
 20
165.75503091810208
 11
144.99722346260216
 21
176.75503091810208
  0
LINE
  8
_0-1_
  6
CENTER2
 62
  152
 10
139.49722346260216
 20
171.25503091810253
 11
150.49722346260216
 21
171.25503091810253
  0
LINE
  8
_0-1_
  6
CENTER2
 62
  152
 10
150.49722346260216
 20
141.25503091810253
 11
139.49722346260216
 21
141.25503091810253
  0
LINE
  8
_0-1_
  6
CENTER2
 62
  152
 10
166.49722346260171
 20
107.94456091810218
 11
166.49722346260171
 21
121.44456091810218
  0
LINE
  8
_0-1_
  6
CENTER2
 62
  152
 10
171.99722346260171
 20
116.44456091810218
 11
160.99722346260171
 21
116.44456091810218
  0
LINE
  8
_0-1_
  6
CENTER2
 62
  152
 10
139.99719346260201
 20
87.944560918102411
 11
149.99724346260166
 21
87.944560918102411
  0
LINE
  8
_0-1_
  6
CENTER2
 62
  152
 10
144.99722346260171
 20
82.944540918102462
 11
144.99722346260171
 21
92.944580918102588
  0
LINE
  8
_0-1_
  6
CENTER2
 62
  152
 10
187.99722346260171
 20
92.944580918102588
 11
187.99722346260171
 21
82.944540918102462
  0
LINE
  8
_0-1_
  6
CENTER2
 62
  152
 10
192.99724346260166
 20
87.944560918102411
 11
182.99719346260201
 21
87.944560918102411
  0
LINE
  8
_0-1_
  6
CENTER2
 62
  152
 10
187.99722346260216
 20
135.75503091810208
 11
187.99722346260216
 21
146.75503091810208
  0
LINE
  8
_0-1_
  6
CONTINUOUS
 62
  152
 10
187.74722346260216
 20
150.25503091810253
 11
191.34722346260207
 21
150.25503091810253
  0
LINE
  8
_0-1_
  6
CONTINUOUS
 62
  152
 10
191.79722346260235
 20
150.70503091810235
 11
191.79722346260235
 21
161.80503091810226
  0
LINE
  8
_0-1_
  6
CONTINUOUS
 62
  152
 10
191.34722346260207
 20
162.25503091810253
 11
187.74722346260216
 21
162.25503091810253
  0
LINE
  8
_0-1_
  6
CONTINUOUS
 62
  152
 10
187.29722346260235
 20
161.80503091810226
 11
187.29722346260235
 21
150.70503091810235
  0
LINE
  8
_0-1_
  6
CONTINUOUS
 62
  152
 10
187.97046346260242
 20
151.05704091810242
 11
191.03280346260237
 21
151.05704091810242
  0
LINE
  8
_0-1_
  6
CONTINUOUS
 62
  152
 10
191.03280346260237
 20
151.05704091810242
 11
191.03280346260237
 21
153.2010509181024
  0
LINE
  8
_0-1_
  6
CONTINUOUS
 62
  152
 10
191.03280346260237
 20
153.2010509181024
 11
190.4868634626024
 21
153.2010509181024
  0
LINE
  8
_0-1_
  6
CONTINUOUS
 62
  152
 10
190.4868634626024
 20
153.2010509181024
 11
190.4868634626024
 21
151.82070091810249
  0
LINE
  8
_0-1_
  6
CONTINUOUS
 62
  152
 10
190.4868634626024
 20
151.82070091810249
 11
187.97046346260242
 21
151.82070091810249
  0
LINE
  8
_0-1_
  6
CONTINUOUS
 62
  152
 10
187.97046346260242
 20
151.82070091810249
 11
187.97046346260242
 21
151.05704091810242
  0
LINE
  8
_0-1_
  6
CONTINUOUS
 62
  152
 10
187.97046346260242
 20
153.79025091810229
 11
191.03280346260237
 21
153.79025091810229
  0
LINE
  8
_0-1_
  6
CONTINUOUS
 62
  152
 10
191.03280346260237
 20
153.79025091810229
 11
191.03280346260237
 21
155.93482091810222
  0
LINE
  8
_0-1_
  6
CONTINUOUS
 62
  152
 10
191.03280346260237
 20
155.93482091810222
 11
190.4868634626024
 21
155.93482091810222
  0
LINE
  8
_0-1_
  6
CONTINUOUS
 62
  152
 10
190.4868634626024
 20
155.93482091810222
 11
190.4868634626024
 21
154.55120091810261
  0
LINE
  8
_0-1_
  6
CONTINUOUS
 62
  152
 10
190.4868634626024
 20
154.55120091810261
 11
189.73904346260235
 21
154.55120091810261
  0
LINE
  8
_0-1_
  6
CONTINUOUS
 62
  152
 10
189.73904346260235
 20
154.55120091810261
 11
189.73904346260235
 21
155.80288091810246
  0
LINE
  8
_0-1_
  6
CONTINUOUS
 62
  152
 10
189.73904346260235
 20
155.80288091810246
 11
189.22656346260203
 21
155.80288091810246
  0
LINE
  8
_0-1_
  6
CONTINUOUS
 62
  152
 10
189.22656346260203
 20
155.80288091810246
 11
189.22656346260203
 21
154.55120091810261
  0
LINE
  8
_0-1_
  6
CONTINUOUS
 62
  152
 10
189.22656346260203
 20
154.55120091810261
 11
188.5163934626022
 21
154.55120091810261
  0
LINE
  8
_0-1_
  6
CONTINUOUS
 62
  152
 10
188.5163934626022
 20
154.55120091810261
 11
188.5163934626022
 21
155.93482091810222
  0
LINE
  8
_0-1_
  6
CONTINUOUS
 62
  152
 10
188.5163934626022
 20
155.93482091810222
 11
187.97046346260242
 21
155.93482091810222
  0
LINE
  8
_0-1_
  6
CONTINUOUS
 62
  152
 10
187.97046346260242
 20
155.93482091810222
 11
187.97046346260242
 21
153.79025091810229
  0
LINE
  8
_0-1_
  6
CONTINUOUS
 62
  152
 10
188.88503346260234
 20
157.8899809181022
 11
188.88503346260234
 21
158.67013091810225
  0
LINE
  8
_0-1_
  6
CONTINUOUS
 62
  152
 10
189.9885234626023
 20
158.69026091810258
 11
189.9885234626023
 21
157.89378091810215
  0
LINE
  8
_0-1_
  6
CENTER2
 62
  152
 10
187.99722346260216
 20
165.75503091810208
 11
187.99722346260216
 21
176.75503091810208
  0
LINE
  8
_0-1_
  6
CENTER2
 62
  152
 10
193.49722346260216
 20
171.25503091810253
 11
182.49722346260216
 21
171.25503091810253
  0
LINE
  8
_0-1_
  6
CONTINUOUS
 62
  152
 10
194.99722346260216
 20
178.25503091810208
 11
194.99722346260216
 21
134.25503091810208
  0
LINE
  8
_0-1_
  6
CENTER2
 62
  152
 10
193.49722346260216
 20
141.25503091810253
 11
182.49722346260216
 21
141.25503091810253
  0
ARC
  8
_0-1_
  6
CONTINUOUS
 62
  152
 10
21.647223462602255
 20
161.98574091810235
 40
0.45
 50
90
 51
180
  0
ARC
  8
_0-1_
  6
CONTINUOUS
 62
  152
 10
25.247223462602165
 20
161.98574091810235
 40
0.45
 50
0
 51
90
  0
ARC
  8
_0-1_
  6
CONTINUOUS
 62
  152
 10
25.247223462602165
 20
150.88574091810244
 40
0.45
 50
270
 51
0
  0
ARC
  8
_0-1_
  6
CONTINUOUS
 62
  152
 10
21.647223462602255
 20
150.88574091810244
 40
0.45
 50
180
 51
270
  0
ARC
  8
_0-1_
  6
CONTINUOUS
 62
  152
 10
23.49280346260241
 20
152.59796091810233
 40
3.5984795000000003
 50
74.216001999999989
 51
105.78399000000002
  0
ARC
  8
_0-1_
  6
CONTINUOUS
 62
  152
 10
23.49280346260241
 20
146.24220091810241
 40
9.1391083999999996
 50
86.789190000000005
 51
93.210808999999998
  0
ARC
  8
_0-1_
  6
CONTINUOUS
 62
  152
 10
22.79507346260209
 20
155.24982091810227
 40
0.8582684000000001
 50
109.11812
 51
163.77089000000001
  0
ARC
  8
_0-1_
  6
CONTINUOUS
 62
  152
 10
23.574323462602138
 20
155.08192091810236
 40
1.6543543999999999
 50
165.73070000000004
 51
194.26929000000004
  0
ARC
  8
_0-1_
  6
CONTINUOUS
 62
  152
 10
22.79507346260209
 20
154.91403091810218
 40
0.8582684000000001
 50
196.22910000000002
 51
250.88186999999999
  0
ARC
  8
_0-1_
  6
CONTINUOUS
 62
  152
 10
23.49280346260241
 20
157.56589091810258
 40
3.5984795000000003
 50
254.21600000000007
 51
262.22375000000005
  0
ARC
  8
_0-1_
  6
CONTINUOUS
 62
  152
 10
22.693833462602129
 20
155.08192091810236
 40
0.2487944
 50
108.78093000000001
 51
251.21905999999998
  0
ARC
  8
_0-1_
  6
CONTINUOUS
 62
  152
 10
22.981663462602341
 20
156.18624091810227
 40
1.3894609
 50
254.64474000000007
 51
271.00007000000005
  0
ARC
  8
_0-1_
  6
CONTINUOUS
 62
  152
 10
22.981663462602341
 20
153.97761091810219
 40
1.3894609
 50
89.280775000000006
 51
105.35525
  0
ARC
  8
_0-1_
  6
CONTINUOUS
 62
  152
 10
24.291783462602439
 20
155.08192091810236
 40
0.2487944
 50
288.78093000000001
 51
71.219064999999986
  0
ARC
  8
_0-1_
  6
CONTINUOUS
 62
  152
 10
24.003953462602226
 20
153.97761091810219
 40
1.3894609
 50
74.644740999999996
 51
90.719223999999997
  0
ARC
  8
_0-1_
  6
CONTINUOUS
 62
  152
 10
24.003953462602226
 20
156.18624091810227
 40
1.3894609
 50
274.35280999999998
 51
285.35524999999984
  0
ARC
  8
_0-1_
  6
CONTINUOUS
 62
  152
 10
24.190533462602275
 20
154.91403091810218
 40
0.8582684000000001
 50
289.11811999999998
 51
343.77089000000001
  0
ARC
  8
_0-1_
  6
CONTINUOUS
 62
  152
 10
23.49280346260241
 20
157.56589091810258
 40
3.5984795000000003
 50
279.86631999999997
 51
285.78399000000002
  0
ARC
  8
_0-1_
  6
CONTINUOUS
 62
  152
 10
23.41129346260243
 20
155.08192091810236
 40
1.6543543999999999
 50
345.73070000000007
 51
14.26929200000003
  0
ARC
  8
_0-1_
  6
CONTINUOUS
 62
  152
 10
24.190533462602275
 20
155.24982091810227
 40
0.8582684000000001
 50
16.229102999999999
 51
70.881879000000012
  0
ARC
  8
_0-1_
  6
CONTINUOUS
 62
  152
 10
23.49280346260241
 20
149.91402091810244
 40
3.5984795000000003
 50
74.216001999999989
 51
105.78399000000002
  0
ARC
  8
_0-1_
  6
CONTINUOUS
 62
  152
 10
23.49280346260241
 20
143.55826091810252
 40
9.1391083999999996
 50
86.789190000000005
 51
93.210808999999998
  0
ARC
  8
_0-1_
  6
CONTINUOUS
 62
  152
 10
23.49280346260241
 20
161.23771091810215
 40
9.1391083999999996
 50
266.78919000000002
 51
273.21079999999995
  0
ARC
  8
_0-1_
  6
CONTINUOUS
 62
  152
 10
22.693833462602129
 20
152.39799091810221
 40
0.2487944
 50
108.78093000000001
 51
251.21905999999998
  0
ARC
  8
_0-1_
  6
CONTINUOUS
 62
  152
 10
23.574323462602138
 20
152.39799091810221
 40
1.6543543999999999
 50
165.73070000000004
 51
194.26929000000004
  0
ARC
  8
_0-1_
  6
CONTINUOUS
 62
  152
 10
22.79507346260209
 20
152.23009091810229
 40
0.8582684000000001
 50
196.22910000000002
 51
250.88186999999999
  0
ARC
  8
_0-1_
  6
CONTINUOUS
 62
  152
 10
22.79507346260209
 20
152.56588091810238
 40
0.8582684000000001
 50
109.11812
 51
163.77089000000001
  0
ARC
  8
_0-1_
  6
CONTINUOUS
 62
  152
 10
23.49280346260241
 20
154.88195091810223
 40
3.5984795000000003
 50
254.21600000000007
 51
285.78399000000007
  0
ARC
  8
_0-1_
  6
CONTINUOUS
 62
  152
 10
22.981663462602341
 20
153.50230091810238
 40
1.3894609
 50
254.64474000000007
 51
270.71922000000001
  0
ARC
  8
_0-1_
  6
CONTINUOUS
 62
  152
 10
22.981663462602341
 20
151.29367091810229
 40
1.3894609
 50
89.280775000000006
 51
105.35525
  0
ARC
  8
_0-1_
  6
CONTINUOUS
 62
  152
 10
24.003953462602226
 20
151.29367091810229
 40
1.3894609
 50
74.644740999999996
 51
90.719223999999997
  0
ARC
  8
_0-1_
  6
CONTINUOUS
 62
  152
 10
24.291783462602439
 20
152.39799091810221
 40
0.2487944
 50
288.78093000000001
 51
71.219064999999986
  0
ARC
  8
_0-1_
  6
CONTINUOUS
 62
  152
 10
24.003953462602226
 20
153.50230091810238
 40
1.3894609
 50
269.28076999999996
 51
285.35525000000018
  0
ARC
  8
_0-1_
  6
CONTINUOUS
 62
  152
 10
23.41129346260243
 20
152.39799091810221
 40
1.6543543999999999
 50
345.73070000000007
 51
14.26929200000003
  0
ARC
  8
_0-1_
  6
CONTINUOUS
 62
  152
 10
24.190533462602275
 20
152.56588091810238
 40
0.8582684000000001
 50
16.229102999999999
 51
70.881879000000012
  0
ARC
  8
_0-1_
  6
CONTINUOUS
 62
  152
 10
24.190533462602275
 20
152.23009091810229
 40
0.8582684000000001
 50
289.11811999999998
 51
343.77089000000001
  0
ARC
  8
_0-1_
  6
CONTINUOUS
 62
  152
 10
19.497223462602165
 20
134.43574091810262
 40
1.5000000000000002
 50
180
 51
270
  0
ARC
  8
_0-1_
  6
CONTINUOUS
 62
  152
 10
19.497223462602165
 20
178.43574091810262
 40
1.5000000000000002
 50
90
 51
180
  0
ARC
  8
_0-1_
  6
CONTINUOUS
 62
  152
 10
71.347223462602074
 20
150.88574091810244
 40
0.45
 50
270
 51
0
  0
ARC
  8
_0-1_
  6
CONTINUOUS
 62
  152
 10
67.747223462602165
 20
150.88574091810244
 40
0.45
 50
180
 51
270
  0
ARC
  8
_0-1_
  6
CONTINUOUS
 62
  152
 10
67.747223462602165
 20
161.98574091810235
 40
0.45
 50
90
 51
180
  0
ARC
  8
_0-1_
  6
CONTINUOUS
 62
  152
 10
71.347223462602074
 20
161.98574091810235
 40
0.45
 50
0
 51
90
  0
ARC
  8
_0-1_
  6
CONTINUOUS
 62
  152
 10
69.501633462602172
 20
160.27352091810246
 40
3.5984795000000003
 50
254.21600000000007
 51
285.78399000000007
  0
ARC
  8
_0-1_
  6
CONTINUOUS
 62
  152
 10
69.501633462602172
 20
166.62927091810263
 40
9.1391083999999996
 50
266.78919000000002
 51
273.21079999999995
  0
ARC
  8
_0-1_
  6
CONTINUOUS
 62
  152
 10
70.199363462602037
 20
157.62165091810232
 40
0.8582684000000001
 50
289.11811999999998
 51
343.77089000000001
  0
ARC
  8
_0-1_
  6
CONTINUOUS
 62
  152
 10
69.420113462602444
 20
157.78955091810224
 40
1.6543543999999999
 50
345.73070000000007
 51
14.26929200000003
  0
ARC
  8
_0-1_
  6
CONTINUOUS
 62
  152
 10
70.199363462602037
 20
157.95745091810261
 40
0.8582684000000001
 50
16.229102999999999
 51
70.881879000000012
  0
ARC
  8
_0-1_
  6
CONTINUOUS
 62
  152
 10
69.501633462602172
 20
155.30558091810246
 40
3.5984795000000003
 50
74.216001999999989
 51
82.223758000000032
  0
ARC
  8
_0-1_
  6
CONTINUOUS
 62
  152
 10
70.300603462602453
 20
157.78955091810224
 40
0.2487944
 50
288.78093000000001
 51
71.219064999999986
  0
ARC
  8
_0-1_
  6
CONTINUOUS
 62
  152
 10
70.01277346260224
 20
156.68524091810252
 40
1.3894609
 50
74.644740999999996
 51
91.000074999999995
  0
ARC
  8
_0-1_
  6
CONTINUOUS
 62
  152
 10
70.01277346260224
 20
158.8938609181024
 40
1.3894609
 50
269.28076999999996
 51
285.35525000000018
  0
ARC
  8
_0-1_
  6
CONTINUOUS
 62
  152
 10
68.702653462602143
 20
157.78955091810224
 40
0.2487944
 50
108.78093000000001
 51
251.21905999999998
  0
ARC
  8
_0-1_
  6
CONTINUOUS
 62
  152
 10
68.990493462602103
 20
158.8938609181024
 40
1.3894609
 50
254.64474000000007
 51
270.71922000000001
  0
ARC
  8
_0-1_
  6
CONTINUOUS
 62
  152
 10
68.990493462602103
 20
156.68524091810252
 40
1.3894609
 50
94.352810000000019
 51
105.35525000000003
  0
ARC
  8
_0-1_
  6
CONTINUOUS
 62
  152
 10
68.803903462602307
 20
157.95745091810261
 40
0.8582684000000001
 50
109.11812
 51
163.77089000000001
  0
ARC
  8
_0-1_
  6
CONTINUOUS
 62
  152
 10
69.501633462602172
 20
155.30558091810246
 40
3.5984795000000003
 50
99.866322000000039
 51
105.78399000000002
  0
ARC
  8
_0-1_
  6
CONTINUOUS
 62
  152
 10
69.583143462602152
 20
157.78955091810224
 40
1.6543543999999999
 50
165.73070000000004
 51
194.26929000000004
  0
ARC
  8
_0-1_
  6
CONTINUOUS
 62
  152
 10
68.803903462602307
 20
157.62165091810232
 40
0.8582684000000001
 50
196.22910000000002
 51
250.88186999999999
  0
ARC
  8
_0-1_
  6
CONTINUOUS
 62
  152
 10
69.501633462602172
 20
162.95745091810261
 40
3.5984795000000003
 50
254.21600000000007
 51
285.78399000000007
  0
ARC
  8
_0-1_
  6
CONTINUOUS
 62
  152
 10
69.501633462602172
 20
169.31321091810207
 40
9.1391083999999996
 50
266.78919000000002
 51
273.21079999999995
  0
ARC
  8
_0-1_
  6
CONTINUOUS
 62
  152
 10
69.501633462602172
 20
151.63376091810244
 40
9.1391083999999996
 50
86.789190000000005
 51
93.210808999999998
  0
ARC
  8
_0-1_
  6
CONTINUOUS
 62
  152
 10
70.300603462602453
 20
160.47349091810213
 40
0.2487944
 50
288.78093000000001
 51
71.219064999999986
  0
ARC
  8
_0-1_
  6
CONTINUOUS
 62
  152
 10
69.420113462602444
 20
160.47349091810213
 40
1.6543543999999999
 50
345.73070000000007
 51
14.26929200000003
  0
ARC
  8
_0-1_
  6
CONTINUOUS
 62
  152
 10
70.199363462602037
 20
160.6413809181023
 40
0.8582684000000001
 50
16.229102999999999
 51
70.881879000000012
  0
ARC
  8
_0-1_
  6
CONTINUOUS
 62
  152
 10
70.199363462602037
 20
160.30559091810221
 40
0.8582684000000001
 50
289.11811999999998
 51
343.77089000000001
  0
ARC
  8
_0-1_
  6
CONTINUOUS
 62
  152
 10
69.501633462602172
 20
157.98952091810236
 40
3.5984795000000003
 50
74.216001999999989
 51
105.78399000000002
  0
ARC
  8
_0-1_
  6
CONTINUOUS
 62
  152
 10
70.01277346260224
 20
159.36917091810221
 40
1.3894609
 50
74.644740999999996
 51
90.719223999999997
  0
ARC
  8
_0-1_
  6
CONTINUOUS
 62
  152
 10
70.01277346260224
 20
161.5778009181023
 40
1.3894609
 50
269.28076999999996
 51
285.35525000000018
  0
ARC
  8
_0-1_
  6
CONTINUOUS
 62
  152
 10
68.990493462602103
 20
161.5778009181023
 40
1.3894609
 50
254.64474000000007
 51
270.71922000000001
  0
ARC
  8
_0-1_
  6
CONTINUOUS
 62
  152
 10
68.702653462602143
 20
160.47349091810213
 40
0.2487944
 50
108.78093000000001
 51
251.21905999999998
  0
ARC
  8
_0-1_
  6
CONTINUOUS
 62
  152
 10
68.990493462602103
 20
159.36917091810221
 40
1.3894609
 50
89.280775000000006
 51
105.35525
  0
ARC
  8
_0-1_
  6
CONTINUOUS
 62
  152
 10
69.583143462602152
 20
160.47349091810213
 40
1.6543543999999999
 50
165.73070000000004
 51
194.26929000000004
  0
ARC
  8
_0-1_
  6
CONTINUOUS
 62
  152
 10
68.803903462602307
 20
160.30559091810221
 40
0.8582684000000001
 50
196.22910000000002
 51
250.88186999999999
  0
ARC
  8
_0-1_
  6
CONTINUOUS
 62
  152
 10
68.803903462602307
 20
160.6413809181023
 40
0.8582684000000001
 50
109.11812
 51
163.77089000000001
  0
ARC
  8
_0-1_
  6
CONTINUOUS
 62
  152
 10
73.497223462602165
 20
178.43574091810262
 40
1.5000000000000002
 50
0
 51
90
  0
ARC
  8
_0-1_
  6
CONTINUOUS
 62
  152
 10
73.497223462602165
 20
134.43574091810262
 40
1.5000000000000002
 50
270
 51
0
  0
ARC
  8
_0-1_
  6
CONTINUOUS
 62
  152
 10
139.49722346260216
 20
178.25503091810208
 40
1.5000000000000002
 50
90
 51
180
  0
ARC
  8
_0-1_
  6
CONTINUOUS
 62
  152
 10
139.49722346260216
 20
134.25503091810208
 40
1.5000000000000002
 50
180
 51
270
  0
ARC
  8
_0-1_
  6
CONTINUOUS
 62
  152
 10
141.64722346260226
 20
161.80503091810226
 40
0.45
 50
90
 51
180
  0
ARC
  8
_0-1_
  6
CONTINUOUS
 62
  152
 10
145.24722346260216
 20
161.80503091810226
 40
0.45
 50
0
 51
90
  0
ARC
  8
_0-1_
  6
CONTINUOUS
 62
  152
 10
145.24722346260216
 20
150.70503091810235
 40
0.45
 50
270
 51
0
  0
ARC
  8
_0-1_
  6
CONTINUOUS
 62
  152
 10
141.64722346260226
 20
150.70503091810235
 40
0.45
 50
180
 51
270
  0
ARC
  8
_0-1_
  6
CONTINUOUS
 62
  152
 10
143.49280346260241
 20
152.41725091810224
 40
3.5984795000000003
 50
74.216001999999989
 51
105.78399000000002
  0
ARC
  8
_0-1_
  6
CONTINUOUS
 62
  152
 10
143.49280346260241
 20
146.06149091810232
 40
9.1391083999999996
 50
86.789190000000005
 51
93.210808999999998
  0
ARC
  8
_0-1_
  6
CONTINUOUS
 62
  152
 10
142.79507346260209
 20
155.06911091810218
 40
0.8582684000000001
 50
109.11812
 51
163.77089000000001
  0
ARC
  8
_0-1_
  6
CONTINUOUS
 62
  152
 10
143.57432346260214
 20
154.90122091810247
 40
1.6543543999999999
 50
165.73070000000004
 51
194.26929000000004
  0
ARC
  8
_0-1_
  6
CONTINUOUS
 62
  152
 10
142.79507346260209
 20
154.73332091810209
 40
0.8582684000000001
 50
196.22910000000002
 51
250.88186999999999
  0
ARC
  8
_0-1_
  6
CONTINUOUS
 62
  152
 10
143.49280346260241
 20
157.38519091810224
 40
3.5984795000000003
 50
254.21600000000007
 51
262.22375000000005
  0
ARC
  8
_0-1_
  6
CONTINUOUS
 62
  152
 10
142.69383346260213
 20
154.90122091810247
 40
0.2487944
 50
108.78093000000001
 51
251.21905999999998
  0
ARC
  8
_0-1_
  6
CONTINUOUS
 62
  152
 10
142.98166346260234
 20
156.00553091810264
 40
1.3894609
 50
254.64474000000007
 51
271.00007000000005
  0
ARC
  8
_0-1_
  6
CONTINUOUS
 62
  152
 10
142.98166346260234
 20
153.7969109181023
 40
1.3894609
 50
89.280775000000006
 51
105.35525
  0
ARC
  8
_0-1_
  6
CONTINUOUS
 62
  152
 10
144.29178346260198
 20
154.90122091810247
 40
0.2487944
 50
288.78093000000001
 51
71.219064999999986
  0
ARC
  8
_0-1_
  6
CONTINUOUS
 62
  152
 10
144.00395346260223
 20
153.7969109181023
 40
1.3894609
 50
74.644740999999996
 51
90.719223999999997
  0
ARC
  8
_0-1_
  6
CONTINUOUS
 62
  152
 10
144.00395346260223
 20
156.00553091810264
 40
1.3894609
 50
274.35280999999998
 51
285.35524999999984
  0
ARC
  8
_0-1_
  6
CONTINUOUS
 62
  152
 10
144.19053346260227
 20
154.73332091810209
 40
0.8582684000000001
 50
289.11811999999998
 51
343.77089000000001
  0
ARC
  8
_0-1_
  6
CONTINUOUS
 62
  152
 10
143.49280346260241
 20
157.38519091810224
 40
3.5984795000000003
 50
279.86631999999997
 51
285.78399000000002
  0
ARC
  8
_0-1_
  6
CONTINUOUS
 62
  152
 10
143.41129346260243
 20
154.90122091810247
 40
1.6543543999999999
 50
345.73070000000007
 51
14.26929200000003
  0
ARC
  8
_0-1_
  6
CONTINUOUS
 62
  152
 10
144.19053346260227
 20
155.06911091810218
 40
0.8582684000000001
 50
16.229102999999999
 51
70.881879000000012
  0
ARC
  8
_0-1_
  6
CONTINUOUS
 62
  152
 10
143.49280346260241
 20
149.73331091810235
 40
3.5984795000000003
 50
74.216001999999989
 51
105.78399000000002
  0
ARC
  8
_0-1_
  6
CONTINUOUS
 62
  152
 10
143.49280346260241
 20
143.37756091810263
 40
9.1391083999999996
 50
86.789190000000005
 51
93.210808999999998
  0
ARC
  8
_0-1_
  6
CONTINUOUS
 62
  152
 10
143.49280346260241
 20
161.05700091810252
 40
9.1391083999999996
 50
266.78919000000002
 51
273.21079999999995
  0
ARC
  8
_0-1_
  6
CONTINUOUS
 62
  152
 10
142.69383346260213
 20
152.21728091810257
 40
0.2487944
 50
108.78093000000001
 51
251.21905999999998
  0
ARC
  8
_0-1_
  6
CONTINUOUS
 62
  152
 10
143.57432346260214
 20
152.21728091810257
 40
1.6543543999999999
 50
165.73070000000004
 51
194.26929000000004
  0
ARC
  8
_0-1_
  6
CONTINUOUS
 62
  152
 10
142.79507346260209
 20
152.0493809181022
 40
0.8582684000000001
 50
196.22910000000002
 51
250.88186999999999
  0
ARC
  8
_0-1_
  6
CONTINUOUS
 62
  152
 10
142.79507346260209
 20
152.38518091810249
 40
0.8582684000000001
 50
109.11812
 51
163.77089000000001
  0
ARC
  8
_0-1_
  6
CONTINUOUS
 62
  152
 10
143.49280346260241
 20
154.70125091810235
 40
3.5984795000000003
 50
254.21600000000007
 51
285.78399000000007
  0
ARC
  8
_0-1_
  6
CONTINUOUS
 62
  152
 10
142.98166346260234
 20
153.32159091810229
 40
1.3894609
 50
254.64474000000007
 51
270.71922000000001
  0
ARC
  8
_0-1_
  6
CONTINUOUS
 62
  152
 10
142.98166346260234
 20
151.11297091810241
 40
1.3894609
 50
89.280775000000006
 51
105.35525
  0
ARC
  8
_0-1_
  6
CONTINUOUS
 62
  152
 10
144.00395346260223
 20
151.11297091810241
 40
1.3894609
 50
74.644740999999996
 51
90.719223999999997
  0
ARC
  8
_0-1_
  6
CONTINUOUS
 62
  152
 10
144.29178346260198
 20
152.21728091810257
 40
0.2487944
 50
288.78093000000001
 51
71.219064999999986
  0
ARC
  8
_0-1_
  6
CONTINUOUS
 62
  152
 10
144.00395346260223
 20
153.32159091810229
 40
1.3894609
 50
269.28076999999996
 51
285.35525000000018
  0
ARC
  8
_0-1_
  6
CONTINUOUS
 62
  152
 10
143.41129346260243
 20
152.21728091810257
 40
1.6543543999999999
 50
345.73070000000007
 51
14.26929200000003
  0
ARC
  8
_0-1_
  6
CONTINUOUS
 62
  152
 10
144.19053346260227
 20
152.38518091810249
 40
0.8582684000000001
 50
16.229102999999999
 51
70.881879000000012
  0
ARC
  8
_0-1_
  6
CONTINUOUS
 62
  152
 10
144.19053346260227
 20
152.0493809181022
 40
0.8582684000000001
 50
289.11811999999998
 51
343.77089000000001
  0
ARC
  8
_0-1_
  6
CONTINUOUS
 62
  152
 10
193.49722346260216
 20
134.25503091810208
 40
1.5000000000000002
 50
270
 51
0
  0
ARC
  8
_0-1_
  6
CONTINUOUS
 62
  152
 10
193.49722346260216
 20
178.25503091810208
 40
1.5000000000000002
 50
0
 51
90
  0
ARC
  8
_0-1_
  6
CONTINUOUS
 62
  152
 10
191.34722346260207
 20
150.70503091810235
 40
0.45
 50
270
 51
0
  0
ARC
  8
_0-1_
  6
CONTINUOUS
 62
  152
 10
187.74722346260216
 20
150.70503091810235
 40
0.45
 50
180
 51
270
  0
ARC
  8
_0-1_
  6
CONTINUOUS
 62
  152
 10
187.74722346260216
 20
161.80503091810226
 40
0.45
 50
90
 51
180
  0
ARC
  8
_0-1_
  6
CONTINUOUS
 62
  152
 10
191.34722346260207
 20
161.80503091810226
 40
0.45
 50
0
 51
90
  0
ARC
  8
_0-1_
  6
CONTINUOUS
 62
  152
 10
189.50163346260217
 20
160.09281091810237
 40
3.5984795000000003
 50
254.21600000000007
 51
285.78399000000007
  0
ARC
  8
_0-1_
  6
CONTINUOUS
 62
  152
 10
189.50163346260217
 20
166.44856091810254
 40
9.1391083999999996
 50
266.78919000000002
 51
273.21079999999995
  0
ARC
  8
_0-1_
  6
CONTINUOUS
 62
  152
 10
190.19936346260204
 20
157.44094091810223
 40
0.8582684000000001
 50
289.11811999999998
 51
343.77089000000001
  0
ARC
  8
_0-1_
  6
CONTINUOUS
 62
  152
 10
189.42011346260199
 20
157.60884091810215
 40
1.6543543999999999
 50
345.73070000000007
 51
14.26929200000003
  0
ARC
  8
_0-1_
  6
CONTINUOUS
 62
  152
 10
190.19936346260204
 20
157.77674091810252
 40
0.8582684000000001
 50
16.229102999999999
 51
70.881879000000012
  0
ARC
  8
_0-1_
  6
CONTINUOUS
 62
  152
 10
189.50163346260217
 20
155.12487091810237
 40
3.5984795000000003
 50
74.216001999999989
 51
82.223758000000032
  0
ARC
  8
_0-1_
  6
CONTINUOUS
 62
  152
 10
190.300603462602
 20
157.60884091810215
 40
0.2487944
 50
288.78093000000001
 51
71.219064999999986
  0
ARC
  8
_0-1_
  6
CONTINUOUS
 62
  152
 10
190.01277346260224
 20
156.50453091810243
 40
1.3894609
 50
74.644740999999996
 51
91.000074999999995
  0
ARC
  8
_0-1_
  6
CONTINUOUS
 62
  152
 10
190.01277346260224
 20
158.71315091810231
 40
1.3894609
 50
269.28076999999996
 51
285.35525000000018
  0
ARC
  8
_0-1_
  6
CONTINUOUS
 62
  152
 10
188.70265346260214
 20
157.60884091810215
 40
0.2487944
 50
108.78093000000001
 51
251.21905999999998
  0
ARC
  8
_0-1_
  6
CONTINUOUS
 62
  152
 10
188.9904934626021
 20
158.71315091810231
 40
1.3894609
 50
254.64474000000007
 51
270.71922000000001
  0
ARC
  8
_0-1_
  6
CONTINUOUS
 62
  152
 10
188.9904934626021
 20
156.50453091810243
 40
1.3894609
 50
94.352810000000019
 51
105.35525000000003
  0
ARC
  8
_0-1_
  6
CONTINUOUS
 62
  152
 10
188.80390346260231
 20
157.77674091810252
 40
0.8582684000000001
 50
109.11812
 51
163.77089000000001
  0
ARC
  8
_0-1_
  6
CONTINUOUS
 62
  152
 10
189.50163346260217
 20
155.12487091810237
 40
3.5984795000000003
 50
99.866322000000039
 51
105.78399000000002
  0
ARC
  8
_0-1_
  6
CONTINUOUS
 62
  152
 10
189.58314346260215
 20
157.60884091810215
 40
1.6543543999999999
 50
165.73070000000004
 51
194.26929000000004
  0
ARC
  8
_0-1_
  6
CONTINUOUS
 62
  152
 10
188.80390346260231
 20
157.44094091810223
 40
0.8582684000000001
 50
196.22910000000002
 51
250.88186999999999
  0
ARC
  8
_0-1_
  6
CONTINUOUS
 62
  152
 10
189.50163346260217
 20
162.77675091810227
 40
3.5984795000000003
 50
254.21600000000007
 51
285.78399000000007
  0
ARC
  8
_0-1_
  6
CONTINUOUS
 62
  152
 10
189.50163346260217
 20
169.13250091810244
 40
9.1391083999999996
 50
266.78919000000002
 51
273.21079999999995
  0
ARC
  8
_0-1_
  6
CONTINUOUS
 62
  152
 10
189.50163346260217
 20
151.45306091810255
 40
9.1391083999999996
 50
86.789190000000005
 51
93.210808999999998
  0
ARC
  8
_0-1_
  6
CONTINUOUS
 62
  152
 10
190.300603462602
 20
160.29278091810249
 40
0.2487944
 50
288.78093000000001
 51
71.219064999999986
  0
ARC
  8
_0-1_
  6
CONTINUOUS
 62
  152
 10
189.42011346260199
 20
160.29278091810249
 40
1.6543543999999999
 50
345.73070000000007
 51
14.26929200000003
  0
ARC
  8
_0-1_
  6
CONTINUOUS
 62
  152
 10
190.19936346260204
 20
160.46068091810241
 40
0.8582684000000001
 50
16.229102999999999
 51
70.881879000000012
  0
ARC
  8
_0-1_
  6
CONTINUOUS
 62
  152
 10
190.19936346260204
 20
160.12488091810258
 40
0.8582684000000001
 50
289.11811999999998
 51
343.77089000000001
  0
ARC
  8
_0-1_
  6
CONTINUOUS
 62
  152
 10
189.50163346260217
 20
157.80881091810227
 40
3.5984795000000003
 50
74.216001999999989
 51
105.78399000000002
  0
ARC
  8
_0-1_
  6
CONTINUOUS
 62
  152
 10
190.01277346260224
 20
159.18847091810233
 40
1.3894609
 50
74.644740999999996
 51
90.719223999999997
  0
ARC
  8
_0-1_
  6
CONTINUOUS
 62
  152
 10
190.01277346260224
 20
161.39709091810221
 40
1.3894609
 50
269.28076999999996
 51
285.35525000000018
  0
ARC
  8
_0-1_
  6
CONTINUOUS
 62
  152
 10
188.9904934626021
 20
161.39709091810221
 40
1.3894609
 50
254.64474000000007
 51
270.71922000000001
  0
ARC
  8
_0-1_
  6
CONTINUOUS
 62
  152
 10
188.70265346260214
 20
160.29278091810249
 40
0.2487944
 50
108.78093000000001
 51
251.21905999999998
  0
ARC
  8
_0-1_
  6
CONTINUOUS
 62
  152
 10
188.9904934626021
 20
159.18847091810233
 40
1.3894609
 50
89.280775000000006
 51
105.35525
  0
ARC
  8
_0-1_
  6
CONTINUOUS
 62
  152
 10
189.58314346260215
 20
160.29278091810249
 40
1.6543543999999999
 50
165.73070000000004
 51
194.26929000000004
  0
ARC
  8
_0-1_
  6
CONTINUOUS
 62
  152
 10
188.80390346260231
 20
160.12488091810258
 40
0.8582684000000001
 50
196.22910000000002
 51
250.88186999999999
  0
ARC
  8
_0-1_
  6
CONTINUOUS
 62
  152
 10
188.80390346260231
 20
160.46068091810241
 40
0.8582684000000001
 50
109.11812
 51
163.77089000000001
  0
TEXT
  8
_0-e_
 62
    7
 10
7.5224975262701719
 20
186.34164885149826
 40
5
 41
1
 50
0
  1
H40W-L
  0
TEXT
  8
_0-e_
 62
    7
 10
127.52249752627017
 20
186.34164885149826
 40
5
 41
1
 50
0
  1
H40W-R
  0
LINE
  8
_0-1_
  6
CENTER2
 62
  152
 10
40.997223462602165
 20
51.439128224833269
 11
51.997223462602165
 21
51.439128224833269
  0
LINE
  8
_0-1_
  6
CENTER2
 62
  152
 10
46.497223462602165
 20
42.939128224833269
 11
46.497223462602165
 21
56.439128224833269
  0
LINE
  8
_0-1_
  6
CENTER2
 62
  152
 10
24.997223462602165
 20
27.939148224833673
 11
24.997223462602165
 21
17.939108224833547
  0
LINE
  8
_0-1_
  6
CENTER2
 62
  152
 10
29.997243462602114
 20
22.939128224833496
 11
19.997193462602468
 21
22.939128224833496
  0
LINE
  8
_0-1_
  6
CENTER2
 62
  152
 10
166.49722346260171
 20
42.939128224833269
 11
166.49722346260171
 21
56.439128224833269
  0
LINE
  8
_0-1_
  6
CENTER2
 62
  152
 10
171.99722346260171
 20
51.439128224833269
 11
160.99722346260171
 21
51.439128224833269
  0
LINE
  8
_0-1_
  6
CENTER2
 62
  152
 10
187.99722346260171
 20
27.939148224833673
 11
187.99722346260171
 21
17.939108224833547
  0
LINE
  8
_0-1_
  6
CENTER2
 62
  152
 10
192.99724346260166
 20
22.939128224833496
 11
182.99719346260201
 21
22.939128224833496
  0
LINE
  8
_0-1_
  6
CENTER2
 62
  152
 10
236.9486137901248
 20
181.25503091810253
 11
236.9486137901248
 21
131.25503091810253
  0
LINE
  8
_0-1_
  6
CENTER2
 62
  152
 10
236.9486137864177
 20
171.25503091653138
 11
245.74861378641742
 21
171.25503091653138
  0
LINE
  8
_0-1_
  6
CENTER2
 62
  152
 10
236.9486137864177
 20
141.25503091653138
 11
245.74861378641742
 21
141.25503091653138
  0
LINE
  8
_0-1_
  6
CENTER2
 62
  152
 10
285.95794524473592
 20
181.25503091810253
 11
285.95794524473592
 21
131.25503091810253
  0
LINE
  8
_0-1_
  6
CENTER2
 62
  152
 10
24.997223462602165
 20
34.669029692967285
 11
24.997223462602165
 21
51.439128224833269
  0
LINE
  8
_0-2_
  6
CONTINUOUS
 62
  152
 10
21.497259163642752
 20
35.739131205981892
 11
28.497093959382596
 21
35.739105243839902
  0
LINE
  8
_0-2_
  6
CONTINUOUS
 62
  152
 10
30.084632002213652
 20
39.339128224833246
 11
29.822201313127948
 21
42.339116651041138
  0
LINE
  8
_0-2_
  6
CONTINUOUS
 62
  152
 10
28.497093959382596
 20
35.739105243839902
 11
31.675938940902483
 21
37.574370209009146
  0
LINE
  8
_0-2_
  6
CONTINUOUS
 62
  152
 10
31.997177434527543
 20
39.339128224833246
 11
30.084632002213652
 21
39.339128224833246
  0
LINE
  8
_0-2_
  6
CONTINUOUS
 62
  152
 10
31.675938940902483
 20
37.574370209009146
 11
31.997177434527543
 21
39.339128224833246
  0
LINE
  8
_0-2_
  6
CONTINUOUS
 62
  152
 10
19.909741654768709
 20
39.339128224833246
 11
20.17224561211458
 21
42.339149798618735
  0
LINE
  8
_0-2_
  6
CONTINUOUS
 62
  152
 10
29.822201313127948
 20
42.339116651041138
 11
20.17224561211458
 21
42.339149798618735
  0
LINE
  8
_0-2_
  6
CONTINUOUS
 62
  152
 10
21.497341109672902
 20
35.739105243839902
 11
18.318496128153015
 21
37.574370209009146
  0
LINE
  8
_0-2_
  6
CONTINUOUS
 62
  152
 10
17.997257634527955
 20
39.339128224833246
 11
19.909803066841846
 21
39.339128224833246
  0
LINE
  8
_0-2_
  6
CONTINUOUS
 62
  152
 10
18.318496128153015
 20
37.574370209009146
 11
17.997257634527955
 21
39.339128224833246
  0
LINE
  8
_0-1_
  6
CENTER2
 62
  152
 10
67.997223462602165
 20
34.669029692967285
 11
67.997223462602165
 21
51.439128224833269
  0
LINE
  8
_0-2_
  6
CONTINUOUS
 62
  152
 10
64.497259163642752
 20
35.739131205981892
 11
71.497093959382596
 21
35.739105243839902
  0
LINE
  8
_0-2_
  6
CONTINUOUS
 62
  152
 10
73.084632002213652
 20
39.339128224833246
 11
72.822201313127948
 21
42.339116651041138
  0
LINE
  8
_0-2_
  6
CONTINUOUS
 62
  152
 10
71.497093959382596
 20
35.739105243839902
 11
74.675938940902483
 21
37.574370209009146
  0
LINE
  8
_0-2_
  6
CONTINUOUS
 62
  152
 10
74.997177434527543
 20
39.339128224833246
 11
73.084632002213652
 21
39.339128224833246
  0
LINE
  8
_0-2_
  6
CONTINUOUS
 62
  152
 10
74.675938940902483
 20
37.574370209009146
 11
74.997177434527543
 21
39.339128224833246
  0
LINE
  8
_0-2_
  6
CONTINUOUS
 62
  152
 10
62.909741654768709
 20
39.339128224833246
 11
63.17224561211458
 21
42.339149798618735
  0
LINE
  8
_0-2_
  6
CONTINUOUS
 62
  152
 10
72.822201313127948
 20
42.339116651041138
 11
63.17224561211458
 21
42.339149798618735
  0
LINE
  8
_0-2_
  6
CONTINUOUS
 62
  152
 10
64.497341109672902
 20
35.739105243839902
 11
61.318496128153015
 21
37.574370209009146
  0
LINE
  8
_0-2_
  6
CONTINUOUS
 62
  152
 10
60.997257634527955
 20
39.339128224833246
 11
62.909803066841846
 21
39.339128224833246
  0
LINE
  8
_0-2_
  6
CONTINUOUS
 62
  152
 10
61.318496128153015
 20
37.574370209009146
 11
60.997257634527955
 21
39.339128224833246
  0
LINE
  8
_0-1_
  6
CENTER2
 62
  152
 10
144.99722346260171
 20
34.669029692967285
 11
144.99722346260171
 21
51.439128224833269
  0
LINE
  8
_0-2_
  6
CONTINUOUS
 62
  152
 10
141.4972591636423
 20
35.739131205981892
 11
148.49709395938214
 21
35.739105243839902
  0
LINE
  8
_0-2_
  6
CONTINUOUS
 62
  152
 10
150.0846320022132
 20
39.339128224833246
 11
149.82220131312749
 21
42.339116651041138
  0
LINE
  8
_0-2_
  6
CONTINUOUS
 62
  152
 10
148.49709395938214
 20
35.739105243839902
 11
151.67593894090203
 21
37.574370209009146
  0
LINE
  8
_0-2_
  6
CONTINUOUS
 62
  152
 10
151.99717743452709
 20
39.339128224833246
 11
150.0846320022132
 21
39.339128224833246
  0
LINE
  8
_0-2_
  6
CONTINUOUS
 62
  152
 10
151.67593894090203
 20
37.574370209009146
 11
151.99717743452709
 21
39.339128224833246
  0
LINE
  8
_0-2_
  6
CONTINUOUS
 62
  152
 10
139.90974165476825
 20
39.339128224833246
 11
140.17224561211412
 21
42.339149798618735
  0
LINE
  8
_0-2_
  6
CONTINUOUS
 62
  152
 10
149.82220131312749
 20
42.339116651041138
 11
140.17224561211412
 21
42.339149798618735
  0
LINE
  8
_0-2_
  6
CONTINUOUS
 62
  152
 10
141.49734110967245
 20
35.739105243839902
 11
138.31849612815256
 21
37.574370209009146
  0
LINE
  8
_0-2_
  6
CONTINUOUS
 62
  152
 10
137.9972576345275
 20
39.339128224833246
 11
139.90980306684139
 21
39.339128224833246
  0
LINE
  8
_0-2_
  6
CONTINUOUS
 62
  152
 10
138.31849612815256
 20
37.574370209009146
 11
137.9972576345275
 21
39.339128224833246
  0
LINE
  8
_0-1_
  6
CENTER2
 62
  152
 10
187.99722346260171
 20
34.669029692967285
 11
187.99722346260171
 21
51.439128224833269
  0
LINE
  8
_0-2_
  6
CONTINUOUS
 62
  152
 10
184.4972591636423
 20
35.739131205981892
 11
191.49709395938214
 21
35.739105243839902
  0
LINE
  8
_0-2_
  6
CONTINUOUS
 62
  152
 10
193.0846320022132
 20
39.339128224833246
 11
192.82220131312749
 21
42.339116651041138
  0
LINE
  8
_0-2_
  6
CONTINUOUS
 62
  152
 10
191.49709395938214
 20
35.739105243839902
 11
194.67593894090203
 21
37.574370209009146
  0
LINE
  8
_0-2_
  6
CONTINUOUS
 62
  152
 10
194.99717743452709
 20
39.339128224833246
 11
193.0846320022132
 21
39.339128224833246
  0
LINE
  8
_0-2_
  6
CONTINUOUS
 62
  152
 10
194.67593894090203
 20
37.574370209009146
 11
194.99717743452709
 21
39.339128224833246
  0
LINE
  8
_0-2_
  6
CONTINUOUS
 62
  152
 10
182.90974165476825
 20
39.339128224833246
 11
183.17224561211412
 21
42.339149798618735
  0
LINE
  8
_0-2_
  6
CONTINUOUS
 62
  152
 10
192.82220131312749
 20
42.339116651041138
 11
183.17224561211412
 21
42.339149798618735
  0
LINE
  8
_0-2_
  6
CONTINUOUS
 62
  152
 10
184.49734110967245
 20
35.739105243839902
 11
181.31849612815256
 21
37.574370209009146
  0
LINE
  8
_0-2_
  6
CONTINUOUS
 62
  152
 10
180.9972576345275
 20
39.339128224833246
 11
182.90980306684139
 21
39.339128224833246
  0
LINE
  8
_0-2_
  6
CONTINUOUS
 62
  152
 10
181.31849612815256
 20
37.574370209009146
 11
180.9972576345275
 21
39.339128224833246
  0
LINE
  8
_0-1_
  6
CENTER2
 62
  152
 10
24.997223462602165
 20
104.18945049067611
 11
24.997223462602165
 21
116.44456091810218
  0
LINE
  8
_0-1_
  6
CENTER2
 62
  152
 10
67.997223462602165
 20
116.44456091810218
 11
67.997223462602165
 21
104.18945049067611
  0
LINE
  8
_0-1_
  6
CENTER2
 62
  152
 10
144.99722346260171
 20
116.44456091810218
 11
144.99722346260171
 21
104.18945049067611
  0
LINE
  8
_0-1_
  6
CENTER2
 62
  152
 10
187.99722346260171
 20
116.44456091810218
 11
187.99722346260171
 21
104.18945049067611
  0
LINE
  8
_0-2_
  6
CONTINUOUS
 62
  152
 10
295.05795681166819
 20
133.75503091653138
 11
301.6579682186682
 21
133.75503091653138
  0
LINE
  8
_0-2_
  6
CONTINUOUS
 62
  152
 10
295.05795681166819
 20
133.75503091653138
 11
295.05795681166819
 21
178.75503091653138
  0
LINE
  8
_0-2_
  6
CONTINUOUS
 62
  152
 10
298.05794523766826
 20
133.75503091653138
 11
298.05794523766826
 21
178.75503091653138
  0
LINE
  8
_0-2_
  6
CONTINUOUS
 62
  152
 10
299.82270325366824
 20
133.75503091653138
 11
299.82270325366824
 21
178.75503091653138
  0
LINE
  8
_0-2_
  6
CONTINUOUS
 62
  152
 10
295.05795681166819
 20
178.75503091653138
 11
301.6579682186682
 21
178.75503091653138
  0
LINE
  8
_0-2_
  6
CONTINUOUS
 62
  152
 10
301.6579682186682
 20
133.75503091653138
 11
301.6579682186682
 21
178.75503091653138
  0
LINE
  8
_0-1_
  6
CENTER2
 62
  152
 10
285.95794524102882
 20
171.25503091653138
 11
303.96702206813347
 21
171.25503091653138
  0
LINE
  8
_0-1_
  6
CENTER2
 62
  152
 10
285.95794524102882
 20
141.25503091653138
 11
303.80895478391062
 21
141.25503091653138
  0
LINE
  8
_0-3_
  6
PHANTOM1
 62
  152
 10
4.9972234626021645
 20
2.939128224833496
 11
44.997223462602165
 21
2.939128224833496
  0
LINE
  8
_0-3_
  6
PHANTOM1
 62
  152
 10
44.997223462602165
 20
2.939128224833496
 11
44.997223462602165
 21
42.939128224833496
  0
LINE
  8
_0-3_
  6
PHANTOM1
 62
  152
 10
44.997223462602165
 20
42.939128224833496
 11
4.9972234626021645
 21
42.939128224833496
  0
LINE
  8
_0-3_
  6
PHANTOM1
 62
  152
 10
4.9972234626021645
 20
42.939128224833496
 11
4.9972234626021645
 21
2.939128224833496
  0
LINE
  8
_0-3_
  6
PHANTOM1
 62
  152
 10
87.997223462602165
 20
42.939128224833496
 11
47.997223462602165
 21
42.939128224833496
  0
LINE
  8
_0-3_
  6
PHANTOM1
 62
  152
 10
164.99722346260171
 20
42.939128224833496
 11
124.99722346260171
 21
42.939128224833496
  0
LINE
  8
_0-3_
  6
PHANTOM1
 62
  152
 10
167.99722346260171
 20
42.939128224833496
 11
167.99722346260171
 21
2.939128224833496
  0
LINE
  8
_0-3_
  6
PHANTOM1
 62
  152
 10
167.99722346260171
 20
2.939128224833496
 11
207.99722346260171
 21
2.939128224833496
  0
LINE
  8
_0-3_
  6
PHANTOM1
 62
  152
 10
207.99722346260171
 20
2.939128224833496
 11
207.99722346260171
 21
42.939128224833496
  0
LINE
  8
_0-3_
  6
PHANTOM1
 62
  152
 10
207.99722346260171
 20
42.939128224833496
 11
167.99722346260171
 21
42.939128224833496
  0
LINE
  8
_0-3_
  6
PHANTOM1
 62
  152
 10
4.9972234626021645
 20
210.74240690399529
 11
4.9972234626021645
 21
99.779173379538577
  0
LINE
  8
_0-3_
  6
PHANTOM1
 62
  152
 10
87.997223462602165
 20
210.74240690399529
 11
87.997223462602165
 21
99.779173379538577
  0
LINE
  8
_0-3_
  6
PHANTOM1
 62
  152
 10
44.997223462602165
 20
210.74240690399529
 11
44.997223462602165
 21
181.43574091810217
  0
LINE
  8
_0-3_
  6
PHANTOM1
 62
  152
 10
44.997223462602165
 20
131.43574091810217
 11
44.997223462602165
 21
124.98548413294196
  0
LINE
  8
_0-3_
  6
PHANTOM1
 62
  152
 10
47.997223462602165
 20
210.74240690399529
 11
47.997223462602165
 21
181.43574091810217
  0
LINE
  8
_0-3_
  6
PHANTOM1
 62
  152
 10
47.997223462602165
 20
131.43574091810217
 11
47.997223462602165
 21
124.98548413294196
  0
LINE
  8
_0-3_
  6
PHANTOM1
 62
  152
 10
124.99722346260216
 20
210.74240690399529
 11
124.99722346260216
 21
99.779173379538577
  0
LINE
  8
_0-3_
  6
PHANTOM1
 62
  152
 10
164.99722346260216
 20
210.74240690399529
 11
164.99722346260216
 21
181.43574091810217
  0
LINE
  8
_0-3_
  6
PHANTOM1
 62
  152
 10
167.99722346260216
 20
210.74240690399529
 11
167.99722346260216
 21
181.43574091810217
  0
LINE
  8
_0-3_
  6
PHANTOM1
 62
  152
 10
207.99722346260216
 20
210.74240690399529
 11
207.99722346260216
 21
99.779173379538577
  0
LINE
  8
_0-3_
  6
PHANTOM1
 62
  152
 10
164.99722346260216
 20
131.43574091810217
 11
164.99722346260216
 21
124.98548413294196
  0
LINE
  8
_0-3_
  6
PHANTOM1
 62
  152
 10
167.99722346260216
 20
131.43574091810217
 11
167.99722346260216
 21
124.98548413294196
  0
LINE
  8
_0-3_
  6
PHANTOM1
 62
  152
 10
294.45794524260214
 20
210.74240690399529
 11
294.45794524260214
 21
99.779173379538577
  0
LINE
  8
_0-3_
  6
PHANTOM1
 62
  152
 10
124.99722346260171
 20
42.939128224833496
 11
124.99722346260171
 21
22.939128224833496
  0
LINE
  8
_0-3_
  6
PHANTOM1
 62
  152
 10
164.99722346260171
 20
22.939128224833496
 11
124.99722346260171
 21
22.939128224833496
  0
LINE
  8
_0-3_
  6
PHANTOM1
 62
  152
 10
164.99722346260171
 20
22.939128224833496
 11
164.99722346260171
 21
42.939128224833496
  0
LINE
  8
_0-3_
  6
PHANTOM1
 62
  152
 10
47.997223462602165
 20
42.939128224833496
 11
47.997223462602165
 21
22.939128224833496
  0
LINE
  8
_0-3_
  6
PHANTOM1
 62
  152
 10
87.997223462602165
 20
22.939128224833496
 11
47.997223462602165
 21
22.939128224833496
  0
LINE
  8
_0-3_
  6
PHANTOM1
 62
  152
 10
87.997223462602165
 20
22.939128224833496
 11
87.997223462602165
 21
42.939128224833496
  0
LINE
  8
_0-1_
  6
CENTER2
 62
  152
 10
72.997243462602114
 20
32.939128224833496
 11
62.997193462602468
 21
32.939128224833496
  0
LINE
  8
_0-1_
  6
CENTER2
 62
  152
 10
67.997223462602165
 20
27.939108224833547
 11
67.997223462602165
 21
37.939148224833673
  0
LINE
  8
_0-1_
  6
CENTER2
 62
  152
 10
139.99719346260201
 20
32.939128224833496
 11
149.99724346260166
 21
32.939128224833496
  0
LINE
  8
_0-1_
  6
CENTER2
 62
  152
 10
144.99722346260171
 20
27.939108224833547
 11
144.99722346260171
 21
37.939148224833673
  0
ENDSEC
  0
EOF
