  0
SECTION
  2
HEADER
  9
$ACADVER
  1
AC1009
  9
$INSBASE
 10
0
 20
0
 30
0
  9
$EXTMIN
 10
0
 20
0
  9
$EXTMAX
 10
1189
 20
841
  9
$LIMMIN
 10
0
 20
0
  9
$LIMMAX
 10
1189
 20
841
  9
$LTSCALE
 40
1
  0
ENDSEC
  0
SECTION
  2
TABLES
  0
TABLE
  2
LTYPE
 70
     9
  0
LTYPE
  2
CONTINUOUS
 70
    64
  3
実線
 72
    65
 73
     0
 40
0.0
  0
LTYPE
  2
DASHED1
 70
    64
  3
--  --  --  --  --  --  --  --  
 72
    65
 73
     2
 40
2.5
 49
1.25
 49
-1.25
  0
LTYPE
  2
DASHED2
 70
    64
  3
----    ----    ----    ----    
 72
    65
 73
     2
 40
5.0
 49
2.5
 49
-2.5
  0
LTYPE
  2
DASHED3
 70
    64
  3
------  ------  ------  ------  
 72
    65
 73
     2
 40
5.0
 49
3.75
 49
-1.25
  0
LTYPE
  2
CENTER1
 70
    64
  3
----- - ----- - ----- - ----- - 
 72
    65
 73
     4
 40
10.0
 49
6.25
 49
-1.25
 49
1.25
 49
-1.25
  0
LTYPE
  2
CENTER2
 70
    64
  3
----------  --  ----------  --  
 72
    65
 73
     4
 40
20.0
 49
12.5
 49
-2.5
 49
2.5
 49
-2.5
  0
LTYPE
  2
PHANTOM1
 70
    64
  3
--- - - --- - - --- - - --- - - 
 72
    65
 73
     6
 40
10.0
 49
3.25
 49
-1.25
 49
1.25
 49
-1.25
 49
1.25
 49
-1.25
  0
LTYPE
  2
PHANTOM2
 70
    64
  3
--------  -  -  --------  -  -  
 72
    65
 73
     6
 40
20.0
 49
10.0
 49
-2.5
 49
1.25
 49
-2.5
 49
1.25
 49
-2.5
  0
LTYPE
  2
DOT
 70
    64
  3
-   -   -   -   -   -   -   -   
 72
    65
 73
     2
 40
2.5
 49
0.625
 49
-1.875
  0
LTYPE
  2
DUMMY
 70
    64
  3
ダミー
 72
    65
 73
     0
 40
0.0
  0
LTYPE
  2
RAND1
 70
    64
  3
ランダム線1
 72
    65
 73
     4
 40
10.0
 49
1.0
 49
-2.0
 49
3.0
 49
-4.0
  0
LTYPE
  2
RAND2
 70
    64
  3
ランダム線2
 72
    65
 73
     4
 40
14.0
 49
2.0
 49
-3.0
 49
4.0
 49
-5.0
  0
LTYPE
  2
RAND3
 70
    64
  3
ランダム線3
 72
    65
 73
     4
 40
18.0
 49
3.0
 49
-4.0
 49
5.0
 49
-6.0
  0
LTYPE
  2
RAND4
 70
    64
  3
ランダム線4
 72
    65
 73
     4
 40
22.0
 49
4.0
 49
-5.0
 49
6.0
 49
-7.0
  0
LTYPE
  2
RAND5
 70
    64
  3
ランダム線5
 72
    65
 73
     4
 40
26.0
 49
5.0
 49
-6.0
 49
7.0
 49
-8.0
  0
LTYPE
  2
LONG1
 70
    64
  3
----------  --  ----------  --  
 72
    65
 73
     4
 40
40.0
 49
32.5
 49
-2.5
 49
2.5
 49
-2.5
  0
LTYPE
  2
LONG2
 70
    64
  3
--------  -  -  --------  -  -  
 72
    65
 73
     6
 40
40.0
 49
30.0
 49
-2.5
 49
1.25
 49
-2.5
 49
1.25
 49
-2.5
  0
LTYPE
  2
LONG3
 70
    64
  3
+++++++++++++++..+++++++++++++++
 72
    65
 73
     2
 40
40.0
 49
37.5
 49
-2.5
  0
LTYPE
  2
LONG4
 70
    64
  3
+++++++++++++++..+++++++++++++++
 72
    65
 73
     2
 40
80.0
 49
75.0
 49
-5.0
  0
LTYPE
  2
LONG5
 70
    64
  3
----------  --  ----------  --  
 72
    65
 73
     4
 40
60.0
 49
37.5
 49
-7.5
 49
7.5
 49
-7.5
  0
LTYPE
  2
dashed
 70
   64
  3
-------   -------------   ------
 72
   65
 73
    2
 40
7.5
 49
6
 49
-1.5
  0
LTYPE
  2
dashed_spaced
 70
   64
  3
----        --------        ----
 72
   65
 73
    2
 40
12
 49
6
 49
-6
  0
LTYPE
  2
long_dashed_dotted
 70
   64
  3
------------- --- --------------
 72
   65
 73
    4
 40
15.25
 49
12
 49
-1.5
 49
0.25
 49
-1.5
  0
LTYPE
  2
long_dashed_double-dotted
 70
   64
  3
----------- --- --- ------------
 72
   65
 73
    6
 40
17
 49
12
 49
-1.5
 49
0.25
 49
-1.5
 49
0.25
 49
-1.5
  0
LTYPE
  2
long_dashed_triplicate-dotted
 70
   64
  3
--------- --- --- --- ----------
 72
   65
 73
    8
 40
18.75
 49
12
 49
-1.5
 49
0.25
 49
-1.5
 49
0.25
 49
-1.5
 49
0.25
 49
-1.5
  0
LTYPE
  2
dotted
 70
   64
  3
   -       -       -       -    
 72
   65
 73
    2
 40
1.75
 49
0.25
 49
-1.5
  0
LTYPE
  2
chain
 70
   64
  3
-------------- -- --------------
 72
   65
 73
    4
 40
18.5
 49
12
 49
-1.5
 49
3.5
 49
-1.5
  0
LTYPE
  2
chain_double_dash
 70
   64
  3
------------ -- -- -------------
 72
   65
 73
    6
 40
23.5
 49
12
 49
-1.5
 49
3.5
 49
-1.5
 49
3.5
 49
-1.5
  0
LTYPE
  2
dashed_dotted
 70
   64
  3
-----------     -     ----------
 72
   65
 73
    4
 40
9.25
 49
6
 49
-1.5
 49
0.25
 49
-1.5
  0
LTYPE
  2
double-dashed_dotted
 70
   64
  3
------   -----------   -   -----
 72
   65
 73
    6
 40
16.75
 49
6
 49
-1.5
 49
6
 49
-1.5
 49
0.25
 49
-1.5
  0
LTYPE
  2
dashed_double-dotted
 70
   64
  3
---------    -    -    ---------
 72
   65
 73
    6
 40
11
 49
6
 49
-1.5
 49
0.25
 49
-1.5
 49
0.25
 49
-1.5
  0
LTYPE
  2
double-dashed_double-dotted
 70
   64
  3
-----   ---------   -   -   ----
 72
   65
 73
    8
 40
18.5
 49
6
 49
-1.5
 49
6
 49
-1.5
 49
0.25
 49
-1.5
 49
0.25
 49
-1.5
  0
LTYPE
  2
dashed_triplicate-dotted
 70
   64
  3
-------    -    -    -    ------
 72
   65
 73
    8
 40
12.75
 49
6
 49
-1.5
 49
0.25
 49
-1.5
 49
0.25
 49
-1.5
 49
0.25
 49
-1.5
  0
LTYPE
  2
double-dashed_triplicate-dotted
 70
   64
  3
-----  ---------  -  -  -  -----
 72
   65
 73
   10
 40
20.25
 49
6
 49
-1.5
 49
6
 49
-1.5
 49
0.25
 49
-1.5
 49
0.25
 49
-1.5
 49
0.25
 49
-1.5
  0
LTYPE
  2
undefined
 70
   64
  3
--------------------------------
 72
   65
 73
    0
 40
0
  0
ENDTAB
  0
TABLE
  2
STYLE
  5
3
100
AcDbSymbolTable
 70
     1
  0
STYLE
  5
10
100
AcDbSymbolTableRecord
100
AcDbTextStyleTableRecord
  2
STANDARD
 70
     0
 40
0.0
 41
1.0
 50
0.0
 71
     0
 42
0.2
  3
txt
  4
bigfont.shx
  0
STYLE
  5
26
100
AcDbSymbolTableRecord
100
AcDbTextStyleTableRecord
  2
TATEGAKI
 70
    68
 40
0.0
 41
1.0
 50
0.0
 71
     0
 42
1.0
  3
txt
  4
bigfont.shx
  0
ENDTAB
  0
TABLE
  2
LAYER
 70
    4
  0
LAYER
  2
_0-0_
 70
   64
 62
    7
  6
CONTINUOUS
  0
LAYER
  2
_0-1_
 70
   64
 62
    7
  6
CONTINUOUS
  0
LAYER
  2
_0-e_
 70
   64
 62
    7
  6
CONTINUOUS
  0
LAYER
  2
ADD_LINE
 70
   64
 62
    7
  6
CONTINUOUS
  0
ENDTAB
  0
ENDSEC
  0
SECTION
  2
BLOCKS
  0
ENDSEC
  0
SECTION
  2
ENTITIES
  0
LINE
  8
_0-0_
  6
CONTINUOUS
 62
    7
 10
249.0766283047821
 20
120.6220122380488
 11
249.0766283047821
 21
94.122012238048796
  0
LINE
  8
_0-0_
  6
CONTINUOUS
 62
    7
 10
248.3266283047821
 20
94.122012238048796
 11
247.8266283047821
 21
93.622012238048796
  0
LINE
  8
_0-0_
  6
CONTINUOUS
 62
    7
 10
247.8266283047821
 20
93.622012238048796
 11
247.8266283047821
 21
88.622012238048796
  0
LINE
  8
_0-0_
  6
CONTINUOUS
 62
    7
 10
247.8266283047821
 20
88.622012238048796
 11
248.3266283047821
 21
88.122012238048796
  0
LINE
  8
_0-0_
  6
CONTINUOUS
 62
    7
 10
248.3266283047821
 20
88.122012238049251
 11
247.8266283047821
 21
87.622012238049251
  0
LINE
  8
_0-0_
  6
CONTINUOUS
 62
    7
 10
247.8266283047821
 20
87.622012238049251
 11
247.8266283047821
 21
82.622012238049251
  0
LINE
  8
_0-0_
  6
CONTINUOUS
 62
    7
 10
247.8266283047821
 20
82.622012238049251
 11
248.3266283047821
 21
82.122012238049251
  0
LINE
  8
_0-0_
  6
CONTINUOUS
 62
    7
 10
248.3266283047821
 20
82.122012238049251
 11
258.11727778228823
 21
82.122012238049251
  0
LINE
  8
_0-0_
  6
CONTINUOUS
 62
    7
 10
258.11727778228823
 20
82.122012238049251
 11
258.33714039588739
 21
82.622012238049251
  0
LINE
  8
_0-0_
  6
CONTINUOUS
 62
    7
 10
258.33714039588739
 20
82.622012238049251
 11
258.33714039588739
 21
86.922012238048978
  0
LINE
  8
_0-0_
  6
CONTINUOUS
 62
    7
 10
258.33714039588739
 20
86.922012238048978
 11
259.3266283047821
 21
86.922012238048978
  0
LINE
  8
_0-0_
  6
CONTINUOUS
 62
    7
 10
259.3266283047821
 20
88.122012238049251
 11
248.3266283047821
 21
88.122012238049251
  0
LINE
  8
_0-0_
  6
CONTINUOUS
 62
    7
 10
248.3266283047821
 20
94.122012238048796
 11
259.3266283047821
 21
94.122012238048796
  0
LINE
  8
_0-0_
  6
CONTINUOUS
 62
    7
 10
257.46217478391344
 20
82.122012238048796
 11
257.46217478391344
 21
55.622012238048796
  0
LINE
  8
_0-0_
  6
CONTINUOUS
 62
    7
 10
259.3266283047821
 20
55.622012238048796
 11
259.3266283047821
 21
120.6220122380488
  0
LINE
  8
_0-0_
  6
CONTINUOUS
 62
    7
 10
259.8266283047821
 20
120.6220122380488
 11
259.8266283047821
 21
120.78226627589322
  0
LINE
  8
_0-0_
  6
CONTINUOUS
 62
    7
 10
260.8266283047821
 20
120.6220122380488
 11
260.8266283047821
 21
55.622012238048796
  0
LINE
  8
_0-0_
  6
CONTINUOUS
 62
    7
 10
262.8266283047821
 20
55.622012238048796
 11
262.8266283047821
 21
120.6220122380488
  0
LINE
  8
_0-0_
  6
CONTINUOUS
 62
    7
 10
262.8266283047821
 20
120.6220122380488
 11
249.0766283047821
 21
120.6220122380488
  0
LINE
  8
_0-0_
  6
CONTINUOUS
 62
    7
 10
249.8266283047821
 20
120.6220122380488
 11
249.8266283047821
 21
120.78226627589322
  0
LINE
  8
_0-0_
  6
CONTINUOUS
 62
    7
 10
249.0766283047821
 20
55.622012238048796
 11
262.8266283047821
 21
55.622012238048796
  0
LINE
  8
_0-0_
  6
CONTINUOUS
 62
    7
 10
249.0766283047821
 20
55.622012238048796
 11
249.0766283047821
 21
82.122012238048796
  0
LINE
  8
_0-0_
  6
CONTINUOUS
 62
    7
 10
214.27018987931586
 20
110.8720122380488
 11
219.27018987931586
 21
110.8720122380488
  0
LINE
  8
_0-0_
  6
CONTINUOUS
 62
    7
 10
219.27018987931586
 20
105.3720122380488
 11
214.27018987931586
 21
105.3720122380488
  0
LINE
  8
_0-0_
  6
CONTINUOUS
 62
    7
 10
206.77018987931586
 20
120.6220122380488
 11
228.27018987931586
 21
120.6220122380488
  0
LINE
  8
_0-0_
  6
CONTINUOUS
 62
    7
 10
228.27018987931586
 20
120.6220122380488
 11
228.27018987931586
 21
55.622012238048796
  0
LINE
  8
_0-0_
  6
CONTINUOUS
 62
    7
 10
228.27018987931586
 20
55.622012238048796
 11
192.52018987931586
 21
55.622012238048796
  0
LINE
  8
_0-0_
  6
CONTINUOUS
 62
    7
 10
192.52018987931586
 20
55.622012238048796
 11
192.52018987931586
 21
82.122012238048796
  0
LINE
  8
_0-0_
  6
CONTINUOUS
 62
    7
 10
191.77018987931541
 20
82.122012238049251
 11
191.27018987931586
 21
82.622012238049251
  0
LINE
  8
_0-0_
  6
CONTINUOUS
 62
    7
 10
191.27018987931586
 20
82.622012238049251
 11
191.27018987931586
 21
87.622012238049251
  0
LINE
  8
_0-0_
  6
CONTINUOUS
 62
    7
 10
191.27018987931586
 20
87.622012238049251
 11
191.77018987931586
 21
88.122012238049251
  0
LINE
  8
_0-0_
  6
CONTINUOUS
 62
    7
 10
191.77018987931586
 20
88.122012238049251
 11
204.77018987931586
 21
88.122012238049251
  0
LINE
  8
_0-0_
  6
CONTINUOUS
 62
    7
 10
204.77018987931586
 20
88.122012238049251
 11
205.27018987931586
 21
87.622012238049251
  0
LINE
  8
_0-0_
  6
CONTINUOUS
 62
    7
 10
205.27018987931586
 20
87.622012238049251
 11
205.27018987931586
 21
82.622012238049251
  0
LINE
  8
_0-0_
  6
CONTINUOUS
 62
    7
 10
205.27018987931586
 20
82.622012238049251
 11
204.77018987931586
 21
82.122012238049251
  0
LINE
  8
_0-0_
  6
CONTINUOUS
 62
    7
 10
204.77018987931586
 20
82.122012238049251
 11
191.77018987931541
 21
82.122012238049251
  0
LINE
  8
_0-0_
  6
CONTINUOUS
 62
    7
 10
205.24506361346874
 20
82.293332581608979
 11
205.24506361346874
 21
55.622012238048796
  0
LINE
  8
_0-0_
  6
CONTINUOUS
 62
    7
 10
204.02018987931586
 20
55.622012238048796
 11
204.02018987931586
 21
82.122012238048796
  0
LINE
  8
_0-0_
  6
CONTINUOUS
 62
    7
 10
205.39151022287541
 20
86.922012238048978
 11
206.77018987931496
 21
86.922012238048978
  0
LINE
  8
_0-0_
  6
CONTINUOUS
 62
    7
 10
206.77018987931496
 20
86.922012238048978
 11
206.77018987931586
 21
120.6220122380488
  0
LINE
  8
_0-0_
  6
CONTINUOUS
 62
    7
 10
204.02018987931586
 20
120.6220122380488
 11
168.27018987931586
 21
120.6220122380488
  0
LINE
  8
_0-0_
  6
CONTINUOUS
 62
    7
 10
168.27018987931586
 20
120.6220122380488
 11
168.27018987931586
 21
55.622012238048796
  0
LINE
  8
_0-0_
  6
CONTINUOUS
 62
    7
 10
168.27018987931586
 20
55.622012238048796
 11
189.77018987931586
 21
55.622012238048796
  0
LINE
  8
_0-0_
  6
CONTINUOUS
 62
    7
 10
189.77018987931586
 20
55.622012238048796
 11
189.77018987931586
 21
89.322012238049069
  0
LINE
  8
_0-0_
  6
CONTINUOUS
 62
    7
 10
189.77018987931586
 20
89.322012238049069
 11
191.14886953575632
 21
89.322012238049069
  0
LINE
  8
_0-0_
  6
CONTINUOUS
 62
    7
 10
191.27018987931586
 20
88.622012238048796
 11
191.77018987931586
 21
88.122012238048796
  0
LINE
  8
_0-0_
  6
CONTINUOUS
 62
    7
 10
205.27018987931586
 20
88.622012238048796
 11
205.27018987931586
 21
93.622012238048796
  0
LINE
  8
_0-0_
  6
CONTINUOUS
 62
    7
 10
205.27018987931586
 20
93.622012238048796
 11
204.77018987931586
 21
94.122012238048796
  0
LINE
  8
_0-0_
  6
CONTINUOUS
 62
    7
 10
204.77018987931586
 20
94.122012238048796
 11
191.77018987931586
 21
94.122012238048796
  0
LINE
  8
_0-0_
  6
CONTINUOUS
 62
    7
 10
191.77018987931586
 20
94.122012238048796
 11
191.27018987931586
 21
93.622012238048796
  0
LINE
  8
_0-0_
  6
CONTINUOUS
 62
    7
 10
191.27018987931586
 20
93.622012238048796
 11
191.27018987931586
 21
88.622012238048796
  0
LINE
  8
_0-0_
  6
CONTINUOUS
 62
    7
 10
205.27018987931586
 20
88.622012238048796
 11
204.77018987931586
 21
88.122012238048796
  0
LINE
  8
_0-0_
  6
CONTINUOUS
 62
    7
 10
191.29531614516299
 20
93.950691894489069
 11
191.29531614516299
 21
120.6220122380488
  0
LINE
  8
_0-0_
  6
CONTINUOUS
 62
    7
 10
192.52018987931586
 20
120.6220122380488
 11
192.52018987931586
 21
94.122012238048796
  0
LINE
  8
_0-0_
  6
CONTINUOUS
 62
    7
 10
204.02018987931586
 20
94.122012238048796
 11
204.02018987931586
 21
120.6220122380488
  0
LINE
  8
_0-0_
  6
CONTINUOUS
 62
    7
 10
203.27018987931586
 20
120.6220122380488
 11
203.27018987931586
 21
120.78226627589322
  0
LINE
  8
_0-0_
  6
CONTINUOUS
 62
    7
 10
198.27018987931586
 20
40.510006538846142
 11
198.27018987931586
 21
23.00415998764322
  0
LINE
  8
_0-0_
  6
CONTINUOUS
 62
    7
 10
192.74506361346874
 20
23.757083263243771
 11
168.27018987931586
 21
23.757083263243771
  0
LINE
  8
_0-0_
  6
CONTINUOUS
 62
    7
 10
168.27018987931586
 20
23.757083263243771
 11
168.27018987931586
 21
25.757083263243771
  0
LINE
  8
_0-0_
  6
CONTINUOUS
 62
    7
 10
168.27018987931586
 20
25.757083263243771
 11
171.27018987931586
 21
27.257083263243771
  0
LINE
  8
_0-0_
  6
CONTINUOUS
 62
    7
 10
171.27018987931586
 20
27.257083263243771
 11
190.46688902041677
 21
27.257083263243771
  0
LINE
  8
_0-0_
  6
CONTINUOUS
 62
    7
 10
189.77018987931586
 20
27.257083263243771
 11
189.77018987931586
 21
23.757083263243771
  0
LINE
  8
_0-0_
  6
CONTINUOUS
 62
    7
 10
192.74506361346874
 20
23.757083263243771
 11
194.71505436822207
 21
25.727074017996642
  0
LINE
  8
_0-0_
  6
CONTINUOUS
 62
    7
 10
192.24018063406919
 20
28.201947752149977
 11
191.88110258278965
 21
27.842869700870892
  0
LINE
  8
_0-0_
  6
CONTINUOUS
 62
    7
 10
189.51726660371486
 20
31.757083263243771
 11
207.02311315491778
 21
31.757083263243771
  0
LINE
  8
_0-0_
  6
CONTINUOUS
 62
    7
 10
206.77018987931586
 20
27.257083263243771
 11
206.77018987931586
 21
23.757083263243771
  0
LINE
  8
_0-0_
  6
CONTINUOUS
 62
    7
 10
203.79531614516253
 20
23.757083263243771
 11
200.90573635844675
 21
26.646663049960011
  0
LINE
  8
_0-0_
  6
CONTINUOUS
 62
    7
 10
200.89611541110315
 20
26.585573319184846
 11
201.78070197042024
 21
25.700986759868215
  0
LINE
  8
_0-0_
  6
CONTINUOUS
 62
    7
 10
203.79531614516253
 20
23.757083263243771
 11
228.27018987931586
 21
23.757083263243771
  0
LINE
  8
_0-0_
  6
CONTINUOUS
 62
    7
 10
228.27018987931586
 20
23.757083263243771
 11
228.27018987931586
 21
25.757083263243771
  0
LINE
  8
_0-0_
  6
CONTINUOUS
 62
    7
 10
228.27018987931586
 20
25.757083263243771
 11
225.27018987931586
 21
27.257083263243771
  0
LINE
  8
_0-0_
  6
CONTINUOUS
 62
    7
 10
225.27018987931586
 20
27.257083263243771
 11
206.0734907382145
 21
27.257083263243771
  0
LINE
  8
_0-0_
  6
CONTINUOUS
 62
    7
 10
204.65927717584162
 20
27.842869700870892
 11
203.38061009259962
 21
29.121536784112436
  0
LINE
  8
_0-0_
  6
CONTINUOUS
 62
    7
 10
203.44169982337479
 20
29.131157731456028
 11
204.32628638269188
 21
28.246571172138943
  0
LINE
  8
_0-0_
  6
CONTINUOUS
 62
    7
 10
182.27018987931586
 20
105.3720122380488
 11
177.27018987931586
 21
105.3720122380488
  0
LINE
  8
_0-0_
  6
CONTINUOUS
 62
    7
 10
177.27018987931586
 20
110.8720122380488
 11
182.27018987931586
 21
110.8720122380488
  0
LINE
  8
_0-0_
  6
CONTINUOUS
 62
    7
 10
193.27018987931586
 20
120.6220122380488
 11
193.27018987931586
 21
120.78226627589322
  0
LINE
  8
_0-0_
  6
CONTINUOUS
 62
    7
 10
214.27018987931586
 20
70.872012238048796
 11
219.27018987931586
 21
70.872012238048796
  0
LINE
  8
_0-0_
  6
CONTINUOUS
 62
    7
 10
219.27018987931586
 20
65.372012238048796
 11
214.27018987931586
 21
65.372012238048796
  0
LINE
  8
_0-0_
  6
CONTINUOUS
 62
    7
 10
177.27018987931586
 20
65.372012238048796
 11
182.27018987931586
 21
65.372012238048796
  0
LINE
  8
_0-0_
  6
CONTINUOUS
 62
    7
 10
182.27018987931586
 20
70.872012238048796
 11
177.27018987931586
 21
70.872012238048796
  0
LINE
  8
_0-0_
  6
CONTINUOUS
 62
    7
 10
115.53759569333823
 20
55.622012238048796
 11
115.53759569333823
 21
82.122012238048796
  0
LINE
  8
_0-0_
  6
CONTINUOUS
 62
    7
 10
116.19269869171302
 20
82.122012238049251
 11
116.41256130531218
 21
82.622012238049251
  0
LINE
  8
_0-0_
  6
CONTINUOUS
 62
    7
 10
116.41256130531218
 20
82.622012238049251
 11
116.41256130531218
 21
86.922012238048978
  0
LINE
  8
_0-0_
  6
CONTINUOUS
 62
    7
 10
116.41256130531218
 20
86.922012238048978
 11
117.4020492142069
 21
86.922012238048978
  0
LINE
  8
_0-0_
  6
CONTINUOUS
 62
    7
 10
105.9020492142069
 20
87.622012238049251
 11
105.9020492142069
 21
82.622012238049251
  0
LINE
  8
_0-0_
  6
CONTINUOUS
 62
    7
 10
105.9020492142069
 20
82.622012238049251
 11
106.4020492142069
 21
82.122012238049251
  0
LINE
  8
_0-0_
  6
CONTINUOUS
 62
    7
 10
106.4020492142069
 20
82.122012238049251
 11
116.19269869171302
 21
82.122012238049251
  0
LINE
  8
_0-0_
  6
CONTINUOUS
 62
    7
 10
107.1520492142069
 20
82.122012238048796
 11
107.1520492142069
 21
55.622012238048796
  0
LINE
  8
_0-0_
  6
CONTINUOUS
 62
    7
 10
107.1520492142069
 20
55.622012238048796
 11
120.9020492142069
 21
55.622012238048796
  0
LINE
  8
_0-0_
  6
CONTINUOUS
 62
    7
 10
120.9020492142069
 20
55.622012238048796
 11
120.9020492142069
 21
120.6220122380488
  0
LINE
  8
_0-0_
  6
CONTINUOUS
 62
    7
 10
120.9020492142069
 20
120.6220122380488
 11
107.1520492142069
 21
120.6220122380488
  0
LINE
  8
_0-0_
  6
CONTINUOUS
 62
    7
 10
107.1520492142069
 20
120.6220122380488
 11
107.1520492142069
 21
94.122012238048796
  0
LINE
  8
_0-0_
  6
CONTINUOUS
 62
    7
 10
106.4020492142069
 20
94.122012238048796
 11
105.9020492142069
 21
93.622012238048796
  0
LINE
  8
_0-0_
  6
CONTINUOUS
 62
    7
 10
105.9020492142069
 20
93.622012238048796
 11
105.9020492142069
 21
88.622012238048796
  0
LINE
  8
_0-0_
  6
CONTINUOUS
 62
    7
 10
105.9020492142069
 20
88.622012238048796
 11
106.4020492142069
 21
88.122012238048796
  0
LINE
  8
_0-0_
  6
CONTINUOUS
 62
    7
 10
106.4020492142069
 20
88.122012238049251
 11
105.9020492142069
 21
87.622012238049251
  0
LINE
  8
_0-0_
  6
CONTINUOUS
 62
    7
 10
117.4020492142069
 20
88.122012238049251
 11
106.4020492142069
 21
88.122012238049251
  0
LINE
  8
_0-0_
  6
CONTINUOUS
 62
    7
 10
106.4020492142069
 20
94.122012238048796
 11
117.4020492142069
 21
94.122012238048796
  0
LINE
  8
_0-0_
  6
CONTINUOUS
 62
    7
 10
118.9020492142069
 20
120.6220122380488
 11
118.9020492142069
 21
55.622012238048796
  0
LINE
  8
_0-0_
  6
CONTINUOUS
 62
    7
 10
117.4020492142069
 20
55.622012238048796
 11
117.4020492142069
 21
120.6220122380488
  0
LINE
  8
_0-0_
  6
CONTINUOUS
 62
    7
 10
117.9020492142069
 20
120.6220122380488
 11
117.9020492142069
 21
120.78226627589322
  0
LINE
  8
_0-0_
  6
CONTINUOUS
 62
    7
 10
86.345610788740203
 20
55.622012238048796
 11
64.84561078874026
 21
55.622012238048796
  0
LINE
  8
_0-0_
  6
CONTINUOUS
 62
    7
 10
64.84561078874026
 20
55.622012238048796
 11
64.84561078874026
 21
89.322012238049069
  0
LINE
  8
_0-0_
  6
CONTINUOUS
 62
    7
 10
64.84561078874026
 20
89.322012238049069
 11
63.466931132299806
 21
89.322012238049069
  0
LINE
  8
_0-0_
  6
CONTINUOUS
 62
    7
 10
63.34561078874026
 20
88.622012238048796
 11
62.84561078874026
 21
88.122012238048796
  0
LINE
  8
_0-0_
  6
CONTINUOUS
 62
    7
 10
62.84561078874026
 20
88.122012238049251
 11
63.34561078874026
 21
87.622012238049251
  0
LINE
  8
_0-0_
  6
CONTINUOUS
 62
    7
 10
63.34561078874026
 20
87.622012238049251
 11
63.34561078874026
 21
82.622012238049251
  0
LINE
  8
_0-0_
  6
CONTINUOUS
 62
    7
 10
63.34561078874026
 20
82.622012238049251
 11
62.845610788740714
 21
82.122012238049251
  0
LINE
  8
_0-0_
  6
CONTINUOUS
 62
    7
 10
62.845610788740714
 20
82.122012238049251
 11
49.84561078874026
 21
82.122012238049251
  0
LINE
  8
_0-0_
  6
CONTINUOUS
 62
    7
 10
49.84561078874026
 20
82.122012238049251
 11
49.34561078874026
 21
82.622012238049251
  0
LINE
  8
_0-0_
  6
CONTINUOUS
 62
    7
 10
49.34561078874026
 20
82.622012238049251
 11
49.34561078874026
 21
87.622012238049251
  0
LINE
  8
_0-0_
  6
CONTINUOUS
 62
    7
 10
49.34561078874026
 20
87.622012238049251
 11
49.84561078874026
 21
88.122012238049251
  0
LINE
  8
_0-0_
  6
CONTINUOUS
 62
    7
 10
49.84561078874026
 20
88.122012238048796
 11
49.34561078874026
 21
88.622012238048796
  0
LINE
  8
_0-0_
  6
CONTINUOUS
 62
    7
 10
49.34561078874026
 20
88.622012238048796
 11
49.34561078874026
 21
93.622012238048796
  0
LINE
  8
_0-0_
  6
CONTINUOUS
 62
    7
 10
49.34561078874026
 20
93.622012238048796
 11
49.84561078874026
 21
94.122012238048796
  0
LINE
  8
_0-0_
  6
CONTINUOUS
 62
    7
 10
49.84561078874026
 20
94.122012238048796
 11
62.84561078874026
 21
94.122012238048796
  0
LINE
  8
_0-0_
  6
CONTINUOUS
 62
    7
 10
62.84561078874026
 20
94.122012238048796
 11
63.34561078874026
 21
93.622012238048796
  0
LINE
  8
_0-0_
  6
CONTINUOUS
 62
    7
 10
63.34561078874026
 20
93.622012238048796
 11
63.34561078874026
 21
88.622012238048796
  0
LINE
  8
_0-0_
  6
CONTINUOUS
 62
    7
 10
62.84561078874026
 20
88.122012238049251
 11
49.84561078874026
 21
88.122012238049251
  0
LINE
  8
_0-0_
  6
CONTINUOUS
 62
    7
 10
49.224290445180714
 20
86.922012238048978
 11
47.845610788741169
 21
86.922012238048978
  0
LINE
  8
_0-0_
  6
CONTINUOUS
 62
    7
 10
47.845610788741169
 20
86.922012238048978
 11
47.84561078874026
 21
120.6220122380488
  0
LINE
  8
_0-0_
  6
CONTINUOUS
 62
    7
 10
47.84561078874026
 20
120.6220122380488
 11
26.34561078874026
 21
120.6220122380488
  0
LINE
  8
_0-0_
  6
CONTINUOUS
 62
    7
 10
26.34561078874026
 20
120.6220122380488
 11
26.34561078874026
 21
55.622012238048796
  0
LINE
  8
_0-0_
  6
CONTINUOUS
 62
    7
 10
26.34561078874026
 20
55.622012238048796
 11
62.09561078874026
 21
55.622012238048796
  0
LINE
  8
_0-0_
  6
CONTINUOUS
 62
    7
 10
62.09561078874026
 20
55.622012238048796
 11
62.09561078874026
 21
82.122012238048796
  0
LINE
  8
_0-0_
  6
CONTINUOUS
 62
    7
 10
49.37073705458738
 20
82.293332581608979
 11
49.37073705458738
 21
55.622012238048796
  0
LINE
  8
_0-0_
  6
CONTINUOUS
 62
    7
 10
50.59561078874026
 20
55.622012238048796
 11
50.59561078874026
 21
82.122012238048796
  0
LINE
  8
_0-0_
  6
CONTINUOUS
 62
    7
 10
50.59561078874026
 20
94.122012238048796
 11
50.59561078874026
 21
120.6220122380488
  0
LINE
  8
_0-0_
  6
CONTINUOUS
 62
    7
 10
50.59561078874026
 20
120.6220122380488
 11
86.345610788740203
 21
120.6220122380488
  0
LINE
  8
_0-0_
  6
CONTINUOUS
 62
    7
 10
86.345610788740203
 20
120.6220122380488
 11
86.345610788740203
 21
55.622012238048796
  0
LINE
  8
_0-0_
  6
CONTINUOUS
 62
    7
 10
72.34561078874026
 20
105.3720122380488
 11
77.34561078874026
 21
105.3720122380488
  0
LINE
  8
_0-0_
  6
CONTINUOUS
 62
    7
 10
77.34561078874026
 20
110.8720122380488
 11
72.34561078874026
 21
110.8720122380488
  0
LINE
  8
_0-0_
  6
CONTINUOUS
 62
    7
 10
35.34561078874026
 20
110.8720122380488
 11
40.34561078874026
 21
110.8720122380488
  0
LINE
  8
_0-0_
  6
CONTINUOUS
 62
    7
 10
40.34561078874026
 20
105.3720122380488
 11
35.34561078874026
 21
105.3720122380488
  0
LINE
  8
_0-0_
  6
CONTINUOUS
 62
    7
 10
40.34561078874026
 20
65.372012238048796
 11
35.34561078874026
 21
65.372012238048796
  0
LINE
  8
_0-0_
  6
CONTINUOUS
 62
    7
 10
35.34561078874026
 20
70.872012238048796
 11
40.34561078874026
 21
70.872012238048796
  0
LINE
  8
_0-0_
  6
CONTINUOUS
 62
    7
 10
61.34561078874026
 20
120.78226627589322
 11
61.34561078874026
 21
120.6220122380488
  0
LINE
  8
_0-0_
  6
CONTINUOUS
 62
    7
 10
62.09561078874026
 20
120.6220122380488
 11
62.09561078874026
 21
94.122012238048796
  0
LINE
  8
_0-0_
  6
CONTINUOUS
 62
    7
 10
63.320484522893139
 20
93.950691894489069
 11
63.320484522893139
 21
120.6220122380488
  0
LINE
  8
_0-0_
  6
CONTINUOUS
 62
    7
 10
51.34561078874026
 20
120.6220122380488
 11
51.34561078874026
 21
120.78226627589322
  0
LINE
  8
_0-0_
  6
CONTINUOUS
 62
    7
 10
77.34561078874026
 20
70.872012238048796
 11
72.34561078874026
 21
70.872012238048796
  0
LINE
  8
_0-0_
  6
CONTINUOUS
 62
    7
 10
72.34561078874026
 20
65.372012238048796
 11
77.34561078874026
 21
65.372012238048796
  0
LINE
  8
_0-0_
  6
CONTINUOUS
 62
    7
 10
83.345610788740203
 20
27.257083263243771
 11
64.148911647639352
 21
27.257083263243771
  0
LINE
  8
_0-0_
  6
CONTINUOUS
 62
    7
 10
64.84561078874026
 20
27.257083263243771
 11
64.84561078874026
 21
23.757083263243771
  0
LINE
  8
_0-0_
  6
CONTINUOUS
 62
    7
 10
61.87073705458738
 20
23.757083263243771
 11
86.345610788740203
 21
23.757083263243771
  0
LINE
  8
_0-0_
  6
CONTINUOUS
 62
    7
 10
86.345610788740203
 20
23.757083263243771
 11
86.345610788740203
 21
25.757083263243771
  0
LINE
  8
_0-0_
  6
CONTINUOUS
 62
    7
 10
86.345610788740203
 20
25.757083263243771
 11
83.345610788740203
 21
27.257083263243771
  0
LINE
  8
_0-0_
  6
CONTINUOUS
 62
    7
 10
61.87073705458738
 20
23.757083263243771
 11
59.900746299834054
 21
25.727074017996642
  0
LINE
  8
_0-0_
  6
CONTINUOUS
 62
    7
 10
62.375620033986934
 20
28.201947752149977
 11
62.734698085266473
 21
27.842869700870892
  0
LINE
  8
_0-0_
  6
CONTINUOUS
 62
    7
 10
47.84561078874026
 20
27.257083263243771
 11
47.84561078874026
 21
23.757083263243771
  0
LINE
  8
_0-0_
  6
CONTINUOUS
 62
    7
 10
50.820484522893594
 20
23.757083263243771
 11
53.710064309609379
 21
26.646663049960011
  0
LINE
  8
_0-0_
  6
CONTINUOUS
 62
    7
 10
53.719685256952971
 20
26.585573319184846
 11
52.835098697635885
 21
25.700986759868215
  0
LINE
  8
_0-0_
  6
CONTINUOUS
 62
    7
 10
29.34561078874026
 20
27.257083263243771
 11
26.34561078874026
 21
25.757083263243771
  0
LINE
  8
_0-0_
  6
CONTINUOUS
 62
    7
 10
26.34561078874026
 20
25.757083263243771
 11
26.34561078874026
 21
23.757083263243771
  0
LINE
  8
_0-0_
  6
CONTINUOUS
 62
    7
 10
26.34561078874026
 20
23.757083263243771
 11
50.820484522893594
 21
23.757083263243771
  0
LINE
  8
_0-0_
  6
CONTINUOUS
 62
    7
 10
49.956523492214501
 20
27.842869700870892
 11
51.2351905754565
 21
29.121536784112436
  0
LINE
  8
_0-0_
  6
CONTINUOUS
 62
    7
 10
51.174100844681334
 20
29.131157731456028
 11
50.289514285364248
 21
28.246571172138943
  0
LINE
  8
_0-0_
  6
CONTINUOUS
 62
    7
 10
48.542309929841622
 20
27.257083263243771
 11
29.34561078874026
 21
27.257083263243771
  0
LINE
  8
_0-0_
  6
CONTINUOUS
 62
    7
 10
107.9020492142069
 20
120.78226627589322
 11
107.9020492142069
 21
120.6220122380488
  0
ARC
  8
_0-0_
  6
CONTINUOUS
 62
    7
 10
198.27018987931586
 20
112.1220122380488
 40
9.9999999999998366
 50
59.99999999999946
 51
120.0000000000006
  0
ARC
  8
_0-0_
  6
CONTINUOUS
 62
    7
 10
182.27018987931586
 20
68.122012238048796
 40
2.75
 50
270
 51
90
  0
ARC
  8
_0-0_
  6
CONTINUOUS
 62
    7
 10
177.27018987931586
 20
68.122012238048796
 40
2.75
 50
90
 51
270
  0
ARC
  8
_0-0_
  6
CONTINUOUS
 62
    7
 10
182.27018987931586
 20
108.1220122380488
 40
2.75
 50
270
 51
90
  0
ARC
  8
_0-0_
  6
CONTINUOUS
 62
    7
 10
177.27018987931586
 20
108.1220122380488
 40
2.75
 50
90
 51
270
  0
ARC
  8
_0-0_
  6
CONTINUOUS
 62
    7
 10
214.27018987931586
 20
68.122012238048796
 40
2.75
 50
90
 51
270
  0
ARC
  8
_0-0_
  6
CONTINUOUS
 62
    7
 10
219.27018987931586
 20
68.122012238048796
 40
2.75
 50
270
 51
90
  0
ARC
  8
_0-0_
  6
CONTINUOUS
 62
    7
 10
214.27018987931586
 20
108.1220122380488
 40
2.75
 50
90
 51
270
  0
ARC
  8
_0-0_
  6
CONTINUOUS
 62
    7
 10
219.27018987931586
 20
108.1220122380488
 40
2.75
 50
270
 51
90
  0
ARC
  8
_0-0_
  6
CONTINUOUS
 62
    7
 10
198.27018987931586
 20
31.757083263243771
 40
2.5
 50
0
 51
90
  0
ARC
  8
_0-0_
  6
CONTINUOUS
 62
    7
 10
198.27018987931586
 20
31.757083263243771
 40
2.5
 50
180
 51
0
  0
ARC
  8
_0-0_
  6
CONTINUOUS
 62
    7
 10
198.27018987931586
 20
31.757083263243771
 40
2.5
 50
90
 51
180
  0
ARC
  8
_0-0_
  6
CONTINUOUS
 62
    7
 10
198.27018987931586
 20
31.757083263243771
 40
2
 50
90
 51
270
  0
ARC
  8
_0-0_
  6
CONTINUOUS
 62
    7
 10
198.27018987931586
 20
31.757083263243771
 40
7
 50
180
 51
300.09940331217103
  0
ARC
  8
_0-0_
  6
CONTINUOUS
 62
    7
 10
198.27018987931586
 20
31.757083263243771
 40
7
 50
90
 51
180
  0
ARC
  8
_0-0_
  6
CONTINUOUS
 62
    7
 10
198.27018987931586
 20
31.757083263243771
 40
7
 50
0
 51
90
  0
ARC
  8
_0-0_
  6
CONTINUOUS
 62
    7
 10
198.27018987931586
 20
31.757083263243771
 40
7.0000000000000986
 50
329.9005966878276
 51
359.99999999999994
  0
ARC
  8
_0-0_
  6
CONTINUOUS
 62
    7
 10
190.46688902041677
 20
29.257083263243771
 40
2
 50
270
 51
314.99999999999596
  0
ARC
  8
_0-0_
  6
CONTINUOUS
 62
    7
 10
206.0734907382145
 20
29.257083263243771
 40
1.9999999999999361
 50
225.0000000000023
 51
270
  0
ARC
  8
_0-0_
  6
CONTINUOUS
 62
    7
 10
254.8266283047821
 20
112.1220122380488
 40
9.9999999999998366
 50
59.99999999999946
 51
120.0000000000006
  0
ARC
  8
_0-0_
  6
CONTINUOUS
 62
    7
 10
112.9020492142069
 20
112.1220122380488
 40
9.9999999999998366
 50
59.99999999999946
 51
120.0000000000006
  0
ARC
  8
_0-0_
  6
CONTINUOUS
 62
    7
 10
56.34561078874026
 20
112.1220122380488
 40
9.9999999999998366
 50
59.999999999999396
 51
120.00000000000053
  0
ARC
  8
_0-0_
  6
CONTINUOUS
 62
    7
 10
72.34561078874026
 20
68.122012238048796
 40
2.75
 50
90
 51
270
  0
ARC
  8
_0-0_
  6
CONTINUOUS
 62
    7
 10
77.34561078874026
 20
68.122012238048796
 40
2.75
 50
270
 51
90
  0
ARC
  8
_0-0_
  6
CONTINUOUS
 62
    7
 10
72.34561078874026
 20
108.1220122380488
 40
2.75
 50
90
 51
270
  0
ARC
  8
_0-0_
  6
CONTINUOUS
 62
    7
 10
77.34561078874026
 20
108.1220122380488
 40
2.75
 50
270
 51
90
  0
ARC
  8
_0-0_
  6
CONTINUOUS
 62
    7
 10
40.34561078874026
 20
68.122012238048796
 40
2.75
 50
270
 51
90
  0
ARC
  8
_0-0_
  6
CONTINUOUS
 62
    7
 10
35.34561078874026
 20
68.122012238048796
 40
2.75
 50
90
 51
270
  0
ARC
  8
_0-0_
  6
CONTINUOUS
 62
    7
 10
40.34561078874026
 20
108.1220122380488
 40
2.75
 50
270
 51
90
  0
ARC
  8
_0-0_
  6
CONTINUOUS
 62
    7
 10
35.34561078874026
 20
108.1220122380488
 40
2.75
 50
90
 51
270
  0
ARC
  8
_0-0_
  6
CONTINUOUS
 62
    7
 10
56.34561078874026
 20
31.757083263243771
 40
2.5
 50
90
 51
180
  0
ARC
  8
_0-0_
  6
CONTINUOUS
 62
    7
 10
56.34561078874026
 20
31.757083263243771
 40
2.5
 50
180
 51
0
  0
ARC
  8
_0-0_
  6
CONTINUOUS
 62
    7
 10
56.34561078874026
 20
31.757083263243771
 40
2.5
 50
0
 51
90
  0
ARC
  8
_0-0_
  6
CONTINUOUS
 62
    7
 10
56.34561078874026
 20
31.757083263243771
 40
2
 50
270
 51
90
  0
ARC
  8
_0-0_
  6
CONTINUOUS
 62
    7
 10
56.34561078874026
 20
31.757083263243771
 40
7
 50
239.90059668782891
 51
0
  0
ARC
  8
_0-0_
  6
CONTINUOUS
 62
    7
 10
56.34561078874026
 20
31.757083263243771
 40
7
 50
0
 51
90
  0
ARC
  8
_0-0_
  6
CONTINUOUS
 62
    7
 10
56.34561078874026
 20
31.757083263243771
 40
7
 50
90
 51
180
  0
ARC
  8
_0-0_
  6
CONTINUOUS
 62
    7
 10
56.34561078874026
 20
31.757083263243771
 40
7.0000000000000986
 50
180
 51
210.09940331217231
  0
ARC
  8
_0-0_
  6
CONTINUOUS
 62
    7
 10
64.148911647639352
 20
29.257083263243771
 40
2
 50
225.00000000000404
 51
270
  0
ARC
  8
_0-0_
  6
CONTINUOUS
 62
    7
 10
48.542309929841622
 20
29.257083263243771
 40
1.9999999999999361
 50
270
 51
314.99999999999773
  0
LINE
  8
_0-1_
  6
CONTINUOUS
 62
  152
 10
259.3266283047821
 20
87.622012238049251
 11
247.8266283047821
 21
87.622012238049251
  0
LINE
  8
_0-1_
  6
CONTINUOUS
 62
  152
 10
247.8266283047821
 20
88.622012238048796
 11
259.3266283047821
 21
88.622012238048796
  0
LINE
  8
_0-1_
  6
CONTINUOUS
 62
  152
 10
259.3266283047821
 20
93.622012238048796
 11
247.8266283047821
 21
93.622012238048796
  0
LINE
  8
_0-1_
  6
CONTINUOUS
 62
  152
 10
247.8266283047821
 20
82.622012238049251
 11
258.33714039588739
 21
82.622012238049251
  0
LINE
  8
_0-1_
  6
CENTER1
 62
  152
 10
254.8266283047821
 20
122.7728084997799
 11
254.8266283047821
 21
53.041426491309835
  0
LINE
  8
_0-1_
  6
CENTER1
 62
  152
 10
257.23020584094928
 20
68.122012238048796
 11
264.49590204428904
 21
68.122012238048796
  0
LINE
  8
_0-1_
  6
CENTER1
 62
  152
 10
264.49590204428904
 20
108.1220122380488
 11
257.23020584094928
 21
108.1220122380488
  0
LINE
  8
_0-1_
  6
CENTER1
 62
  152
 10
223.94730957022756
 20
108.1220122380488
 11
210.29134533069208
 21
108.1220122380488
  0
LINE
  8
_0-1_
  6
CENTER1
 62
  152
 10
219.27018987931586
 20
112.0486369438114
 11
219.27018987931586
 21
104.30281011822319
  0
LINE
  8
_0-1_
  6
CENTER1
 62
  152
 10
214.27018987931586
 20
104.30281011822319
 11
214.27018987931586
 21
112.0486369438114
  0
LINE
  8
_0-1_
  6
CONTINUOUS
 62
  152
 10
191.27018987931586
 20
82.622012238049251
 11
205.27018987931586
 21
82.622012238049251
  0
LINE
  8
_0-1_
  6
CONTINUOUS
 62
  152
 10
191.27018987931586
 20
87.622012238049251
 11
205.27018987931586
 21
87.622012238049251
  0
LINE
  8
_0-1_
  6
CONTINUOUS
 62
  152
 10
191.27018987931586
 20
88.622012238048796
 11
205.27018987931586
 21
88.622012238048796
  0
LINE
  8
_0-1_
  6
CONTINUOUS
 62
  152
 10
205.27018987931586
 20
93.622012238048796
 11
191.27018987931586
 21
93.622012238048796
  0
LINE
  8
_0-1_
  6
CENTER1
 62
  152
 10
198.27018987931586
 20
123.1220122380488
 11
198.27018987931586
 21
51.878925180307874
  0
LINE
  8
_0-1_
  6
DASHED2
 62
  152
 10
196.27018987931586
 20
55.622012238049251
 11
195.77018987931586
 21
56.622012238049251
  0
LINE
  8
_0-1_
  6
DASHED2
 62
  152
 10
195.77018987931586
 20
56.622012238049251
 11
195.77018987931586
 21
106.62201223804925
  0
LINE
  8
_0-1_
  6
DASHED2
 62
  152
 10
195.77018987931586
 20
106.62201223804925
 11
196.85972124370045
 21
109.63248087366412
  0
LINE
  8
_0-1_
  6
DASHED2
 62
  152
 10
199.68065851493083
 20
109.63248087366412
 11
200.77018987931586
 21
106.62201223804925
  0
LINE
  8
_0-1_
  6
DASHED2
 62
  152
 10
200.77018987931586
 20
106.62201223804925
 11
200.77018987931586
 21
56.622012238049251
  0
LINE
  8
_0-1_
  6
DASHED2
 62
  152
 10
200.77018987931586
 20
56.622012238049251
 11
195.77018987931586
 21
56.622012238049251
  0
LINE
  8
_0-1_
  6
DASHED2
 62
  152
 10
200.77018987931586
 20
56.622012238049251
 11
200.27018987931586
 21
55.622012238049251
  0
LINE
  8
_0-1_
  6
PHANTOM1
 62
  152
 10
201.46941014100429
 20
22.193901970876709
 11
214.18009245601314
 21
9.4832196558676287
  0
LINE
  8
_0-1_
  6
PHANTOM1
 62
  152
 10
214.18009245601314
 20
9.4832196558676287
 11
215.24075262779314
 21
6.3012391405276276
  0
LINE
  8
_0-1_
  6
PHANTOM1
 62
  152
 10
215.24075262779314
 20
6.3012391405276276
 11
213.82653906541981
 21
4.8870255781547485
  0
LINE
  8
_0-1_
  6
PHANTOM1
 62
  152
 10
213.82653906541981
 20
4.8870255781547485
 11
199.22042979384986
 21
19.493134849724697
  0
LINE
  8
_0-1_
  6
PHANTOM1
 62
  152
 10
197.31994996478187
 20
19.493134849724697
 11
182.71384069321192
 21
4.8870255781547485
  0
LINE
  8
_0-1_
  6
PHANTOM1
 62
  152
 10
182.71384069321192
 20
4.8870255781547485
 11
181.29962713083859
 21
6.3012391405276276
  0
LINE
  8
_0-1_
  6
PHANTOM1
 62
  152
 10
181.29962713083859
 20
6.3012391405276276
 11
182.36028730261859
 21
9.4832196558676287
  0
LINE
  8
_0-1_
  6
PHANTOM1
 62
  152
 10
182.36028730261859
 20
9.4832196558676287
 11
194.62434717169816
 21
21.747279524946975
  0
LINE
  8
_0-1_
  6
DASHED2
 62
  152
 10
215.52018987931586
 20
27.257083263243771
 11
215.52018987931586
 21
23.757083263243771
  0
LINE
  8
_0-1_
  6
DASHED2
 62
  152
 10
221.02018987931586
 20
23.757083263243771
 11
221.02018987931586
 21
27.257083263243771
  0
LINE
  8
_0-1_
  6
CENTER1
 62
  152
 10
218.27018987931586
 20
31.410239267520979
 11
218.27018987931586
 21
20.438992791315854
  0
LINE
  8
_0-1_
  6
CENTER1
 62
  152
 10
212.1670697616575
 20
17.369691898122596
 11
204.40922698026424
 21
9.6118491167302409
  0
LINE
  8
_0-1_
  6
CENTER1
 62
  152
 10
192.13115277836749
 20
9.6118491167302409
 11
184.37330999697423
 21
17.369691898122596
  0
LINE
  8
_0-1_
  6
CENTER1
 62
  152
 10
178.27018987931586
 20
20.438992791315854
 11
178.27018987931586
 21
31.410239267520979
  0
LINE
  8
_0-1_
  6
DASHED2
 62
  152
 10
175.52018987931586
 20
27.257083263243771
 11
175.52018987931586
 21
23.757083263243771
  0
LINE
  8
_0-1_
  6
DASHED2
 62
  152
 10
181.02018987931586
 20
23.757083263243771
 11
181.02018987931586
 21
27.257083263243771
  0
LINE
  8
_0-1_
  6
CONTINUOUS
 62
  152
 10
171.27018987931541
 20
55.622012238048796
 11
171.27018987931541
 21
120.6220122380488
  0
LINE
  8
_0-1_
  6
CENTER1
 62
  152
 10
172.59307018840417
 20
108.1220122380488
 11
186.24903442793965
 21
108.1220122380488
  0
LINE
  8
_0-1_
  6
CENTER1
 62
  152
 10
177.27018987931586
 20
104.30281011822319
 11
177.27018987931586
 21
112.0486369438114
  0
LINE
  8
_0-1_
  6
CENTER1
 62
  152
 10
182.27018987931586
 20
112.0486369438114
 11
182.27018987931586
 21
104.30281011822319
  0
LINE
  8
_0-1_
  6
DASHED2
 62
  152
 10
195.77018987931586
 20
106.62201223804925
 11
200.77018987931586
 21
106.62201223804925
  0
LINE
  8
_0-1_
  6
CONTINUOUS
 62
  152
 10
225.27018987931586
 20
120.6220122380488
 11
225.27018987931586
 21
55.622012238048796
  0
LINE
  8
_0-1_
  6
CENTER1
 62
  152
 10
223.94730957022756
 20
68.122012238048796
 11
209.93668934170927
 21
68.122012238048796
  0
LINE
  8
_0-1_
  6
CENTER1
 62
  152
 10
219.27018987931586
 20
72.048636943811402
 11
219.27018987931586
 21
64.302810118223192
  0
LINE
  8
_0-1_
  6
CENTER1
 62
  152
 10
214.27018987931586
 20
64.302810118223192
 11
214.27018987931586
 21
72.048636943811402
  0
LINE
  8
_0-1_
  6
CENTER1
 62
  152
 10
186.60369041692246
 20
68.122012238048796
 11
172.59307018840417
 21
68.122012238048796
  0
LINE
  8
_0-1_
  6
CENTER1
 62
  152
 10
182.27018987931586
 20
64.302810118223192
 11
182.27018987931586
 21
72.048636943811402
  0
LINE
  8
_0-1_
  6
CENTER1
 62
  152
 10
177.27018987931586
 20
72.048636943811402
 11
177.27018987931586
 21
64.302810118223192
  0
LINE
  8
_0-1_
  6
CENTER1
 62
  152
 10
122.57132295371383
 20
68.122012238048796
 11
115.30562675037407
 21
68.122012238048796
  0
LINE
  8
_0-1_
  6
CONTINUOUS
 62
  152
 10
117.4020492142069
 20
87.622012238049251
 11
105.9020492142069
 21
87.622012238049251
  0
LINE
  8
_0-1_
  6
CONTINUOUS
 62
  152
 10
116.41256130531218
 20
82.622012238049251
 11
105.9020492142069
 21
82.622012238049251
  0
LINE
  8
_0-1_
  6
CONTINUOUS
 62
  152
 10
105.9020492142069
 20
88.622012238048796
 11
117.4020492142069
 21
88.622012238048796
  0
LINE
  8
_0-1_
  6
CONTINUOUS
 62
  152
 10
117.4020492142069
 20
93.622012238048796
 11
105.9020492142069
 21
93.622012238048796
  0
LINE
  8
_0-1_
  6
CENTER1
 62
  152
 10
115.30562675037407
 20
108.1220122380488
 11
122.57132295371383
 21
108.1220122380488
  0
LINE
  8
_0-1_
  6
CENTER1
 62
  152
 10
112.9020492142069
 20
122.7728084997799
 11
112.9020492142069
 21
53.041426491309835
  0
LINE
  8
_0-1_
  6
CONTINUOUS
 62
  152
 10
63.34561078874026
 20
88.622012238048796
 11
49.34561078874026
 21
88.622012238048796
  0
LINE
  8
_0-1_
  6
CONTINUOUS
 62
  152
 10
49.34561078874026
 20
87.622012238049251
 11
63.34561078874026
 21
87.622012238049251
  0
LINE
  8
_0-1_
  6
CONTINUOUS
 62
  152
 10
63.34561078874026
 20
82.622012238049251
 11
49.34561078874026
 21
82.622012238049251
  0
LINE
  8
_0-1_
  6
CONTINUOUS
 62
  152
 10
83.345610788740657
 20
55.622012238048796
 11
83.345610788740657
 21
120.6220122380488
  0
LINE
  8
_0-1_
  6
CENTER1
 62
  152
 10
82.022730479651955
 20
108.1220122380488
 11
68.366766240116476
 21
108.1220122380488
  0
LINE
  8
_0-1_
  6
CENTER1
 62
  152
 10
77.34561078874026
 20
104.30281011822319
 11
77.34561078874026
 21
112.0486369438114
  0
LINE
  8
_0-1_
  6
CENTER1
 62
  152
 10
72.34561078874026
 20
112.0486369438114
 11
72.34561078874026
 21
104.30281011822319
  0
LINE
  8
_0-1_
  6
DASHED2
 62
  152
 10
58.84561078874026
 20
106.62201223804925
 11
57.756079424355676
 21
109.63248087366412
  0
LINE
  8
_0-1_
  6
DASHED2
 62
  152
 10
54.935142153125298
 20
109.63248087366412
 11
53.84561078874026
 21
106.62201223804925
  0
LINE
  8
_0-1_
  6
DASHED2
 62
  152
 10
53.84561078874026
 20
106.62201223804925
 11
53.84561078874026
 21
56.622012238049251
  0
LINE
  8
_0-1_
  6
DASHED2
 62
  152
 10
53.84561078874026
 20
56.622012238049251
 11
54.34561078874026
 21
55.622012238049251
  0
LINE
  8
_0-1_
  6
DASHED2
 62
  152
 10
53.84561078874026
 20
56.622012238049251
 11
58.84561078874026
 21
56.622012238049251
  0
LINE
  8
_0-1_
  6
DASHED2
 62
  152
 10
58.84561078874026
 20
56.622012238049251
 11
58.84561078874026
 21
106.62201223804925
  0
LINE
  8
_0-1_
  6
DASHED2
 62
  152
 10
58.84561078874026
 20
106.62201223804925
 11
53.84561078874026
 21
106.62201223804925
  0
LINE
  8
_0-1_
  6
CENTER1
 62
  152
 10
44.324455337364043
 20
108.1220122380488
 11
30.668491097828564
 21
108.1220122380488
  0
LINE
  8
_0-1_
  6
CENTER1
 62
  152
 10
40.34561078874026
 20
112.0486369438114
 11
40.34561078874026
 21
104.30281011822319
  0
LINE
  8
_0-1_
  6
CENTER1
 62
  152
 10
35.34561078874026
 20
104.30281011822319
 11
35.34561078874026
 21
112.0486369438114
  0
LINE
  8
_0-1_
  6
CONTINUOUS
 62
  152
 10
29.34561078874026
 20
120.6220122380488
 11
29.34561078874026
 21
55.622012238048796
  0
LINE
  8
_0-1_
  6
CENTER1
 62
  152
 10
30.668491097828564
 20
68.122012238048796
 11
44.679111326346856
 21
68.122012238048796
  0
LINE
  8
_0-1_
  6
CENTER1
 62
  152
 10
35.34561078874026
 20
64.302810118223192
 11
35.34561078874026
 21
72.048636943811402
  0
LINE
  8
_0-1_
  6
CENTER1
 62
  152
 10
40.34561078874026
 20
72.048636943811402
 11
40.34561078874026
 21
64.302810118223192
  0
LINE
  8
_0-1_
  6
DASHED2
 62
  152
 10
58.84561078874026
 20
56.622012238049251
 11
58.34561078874026
 21
55.622012238049251
  0
LINE
  8
_0-1_
  6
CENTER1
 62
  152
 10
56.34561078874026
 20
51.878925180307874
 11
56.34561078874026
 21
123.1220122380488
  0
LINE
  8
_0-1_
  6
CONTINUOUS
 62
  152
 10
49.34561078874026
 20
93.622012238048796
 11
63.34561078874026
 21
93.622012238048796
  0
LINE
  8
_0-1_
  6
CENTER1
 62
  152
 10
68.012110251133663
 20
68.122012238048796
 11
82.022730479651955
 21
68.122012238048796
  0
LINE
  8
_0-1_
  6
CENTER1
 62
  152
 10
72.34561078874026
 20
72.048636943811402
 11
72.34561078874026
 21
64.302810118223192
  0
LINE
  8
_0-1_
  6
CENTER1
 62
  152
 10
77.34561078874026
 20
64.302810118223192
 11
77.34561078874026
 21
72.048636943811402
  0
LINE
  8
_0-1_
  6
CENTER1
 62
  152
 10
76.34561078874026
 20
31.410239267520979
 11
76.34561078874026
 21
20.438992791315854
  0
LINE
  8
_0-1_
  6
DASHED2
 62
  152
 10
79.09561078874026
 20
23.757083263243771
 11
79.09561078874026
 21
27.257083263243771
  0
LINE
  8
_0-1_
  6
DASHED2
 62
  152
 10
73.59561078874026
 20
27.257083263243771
 11
73.59561078874026
 21
23.757083263243771
  0
LINE
  8
_0-1_
  6
CENTER1
 62
  152
 10
70.242490671081896
 20
17.369691898122596
 11
62.484647889688631
 21
9.6118491167302409
  0
LINE
  8
_0-1_
  6
PHANTOM1
 62
  152
 10
72.255513365437537
 20
9.4832196558676287
 11
59.991453496357963
 21
21.747279524946975
  0
LINE
  8
_0-1_
  6
PHANTOM1
 62
  152
 10
53.146390527051835
 20
22.193901970876709
 11
40.435708212042982
 21
9.4832196558676287
  0
LINE
  8
_0-1_
  6
PHANTOM1
 62
  152
 10
40.435708212042982
 20
9.4832196558676287
 11
39.375048040262982
 21
6.3012391405276276
  0
LINE
  8
_0-1_
  6
PHANTOM1
 62
  152
 10
39.375048040262982
 20
6.3012391405276276
 11
40.789261602636316
 21
4.8870255781547485
  0
LINE
  8
_0-1_
  6
PHANTOM1
 62
  152
 10
40.789261602636316
 20
4.8870255781547485
 11
55.395370874206264
 21
19.493134849724697
  0
LINE
  8
_0-1_
  6
PHANTOM1
 62
  152
 10
57.295850703274255
 20
19.493134849724697
 11
71.901959974844203
 21
4.8870255781547485
  0
LINE
  8
_0-1_
  6
PHANTOM1
 62
  152
 10
71.901959974844203
 20
4.8870255781547485
 11
73.316173537217537
 21
6.3012391405276276
  0
LINE
  8
_0-1_
  6
PHANTOM1
 62
  152
 10
73.316173537217537
 20
6.3012391405276276
 11
72.255513365437537
 21
9.4832196558676287
  0
LINE
  8
_0-1_
  6
CENTER1
 62
  152
 10
50.206573687791888
 20
9.6118491167302409
 11
42.448730906398623
 21
17.369691898122596
  0
LINE
  8
_0-1_
  6
CENTER1
 62
  152
 10
36.34561078874026
 20
20.438992791315854
 11
36.34561078874026
 21
31.410239267520979
  0
LINE
  8
_0-1_
  6
DASHED2
 62
  152
 10
39.09561078874026
 20
27.257083263243771
 11
39.09561078874026
 21
23.757083263243771
  0
LINE
  8
_0-1_
  6
DASHED2
 62
  152
 10
33.59561078874026
 20
23.757083263243771
 11
33.59561078874026
 21
27.257083263243771
  0
TEXT
  8
_0-e_
 62
    7
 10
7.7881720151465288
 20
129.50229339994451
 40
5
 41
1
 50
0
  1
H40S-L
  0
ARC
  8
_0-1_
  6
DASHED2
 62
  152
 10
198.27018987931586
 20
109.12201223804925
 40
1.5000000000001441
 50
19.895909749783559
 51
160.10409025021613
  0
ARC
  8
_0-1_
  6
CONTINUOUS
 62
  152
 10
198.27018987931586
 20
31.757083263243771
 40
6.4999999999999973
 50
331.07664983160345
 51
298.92335016839803
  0
ARC
  8
_0-1_
  6
CONTINUOUS
 62
  152
 10
198.27018987931586
 20
31.757083263243771
 40
5.8000000000000096
 50
333.08001262442332
 51
296.91998737557515
  0
ARC
  8
_0-1_
  6
DASHED2
 62
  152
 10
56.34561078874026
 20
109.12201223804925
 40
1.5000000000001441
 50
19.895909749783886
 51
160.10409025021642
  0
ARC
  8
_0-1_
  6
CONTINUOUS
 62
  152
 10
56.34561078874026
 20
31.757083263243771
 40
6.4999999999999973
 50
241.07664983160197
 51
208.92335016839678
  0
ARC
  8
_0-1_
  6
CONTINUOUS
 62
  152
 10
56.34561078874026
 20
31.757083263243771
 40
5.8000000000000096
 50
243.08001262442491
 51
206.91998737557671
  0
TEXT
  8
_0-e_
 62
    7
 10
149.68427998740543
 20
129.50229339994451
 40
5
 41
1
 50
0
  1
H40S-R
  0
LINE
  8
_0-1_
  6
CENTER1
 62
  152
 10
65.098534064341266
 20
31.757083263243771
 11
47.592687513138344
 21
31.757083263243771
  0
LINE
  8
_0-1_
  6
CENTER1
 62
  152
 10
56.34561078874026
 20
23.00415998764322
 11
56.34561078874026
 21
40.510006538846142
  0
ENDSEC
  0
EOF
