  0
SECTION
  2
HEADER
  9
$ACADVER
  1
AC1009
  9
$INSBASE
 10
0
 20
0
 30
0
  9
$EXTMIN
 10
0
 20
0
  9
$EXTMAX
 10
1189
 20
841
  9
$LIMMIN
 10
0
 20
0
  9
$LIMMAX
 10
1189
 20
841
  9
$LTSCALE
 40
1
  0
ENDSEC
  0
SECTION
  2
TABLES
  0
TABLE
  2
LTYPE
 70
     9
  0
LTYPE
  2
CONTINUOUS
 70
    64
  3
実線
 72
    65
 73
     0
 40
0.0
  0
LTYPE
  2
DASHED1
 70
    64
  3
--  --  --  --  --  --  --  --  
 72
    65
 73
     2
 40
2.5
 49
1.25
 49
-1.25
  0
LTYPE
  2
DASHED2
 70
    64
  3
----    ----    ----    ----    
 72
    65
 73
     2
 40
5.0
 49
2.5
 49
-2.5
  0
LTYPE
  2
DASHED3
 70
    64
  3
------  ------  ------  ------  
 72
    65
 73
     2
 40
5.0
 49
3.75
 49
-1.25
  0
LTYPE
  2
CENTER1
 70
    64
  3
----- - ----- - ----- - ----- - 
 72
    65
 73
     4
 40
10.0
 49
6.25
 49
-1.25
 49
1.25
 49
-1.25
  0
LTYPE
  2
CENTER2
 70
    64
  3
----------  --  ----------  --  
 72
    65
 73
     4
 40
20.0
 49
12.5
 49
-2.5
 49
2.5
 49
-2.5
  0
LTYPE
  2
PHANTOM1
 70
    64
  3
--- - - --- - - --- - - --- - - 
 72
    65
 73
     6
 40
10.0
 49
3.25
 49
-1.25
 49
1.25
 49
-1.25
 49
1.25
 49
-1.25
  0
LTYPE
  2
PHANTOM2
 70
    64
  3
--------  -  -  --------  -  -  
 72
    65
 73
     6
 40
20.0
 49
10.0
 49
-2.5
 49
1.25
 49
-2.5
 49
1.25
 49
-2.5
  0
LTYPE
  2
DOT
 70
    64
  3
-   -   -   -   -   -   -   -   
 72
    65
 73
     2
 40
2.5
 49
0.625
 49
-1.875
  0
LTYPE
  2
DUMMY
 70
    64
  3
ダミー
 72
    65
 73
     0
 40
0.0
  0
LTYPE
  2
RAND1
 70
    64
  3
ランダム線1
 72
    65
 73
     4
 40
10.0
 49
1.0
 49
-2.0
 49
3.0
 49
-4.0
  0
LTYPE
  2
RAND2
 70
    64
  3
ランダム線2
 72
    65
 73
     4
 40
14.0
 49
2.0
 49
-3.0
 49
4.0
 49
-5.0
  0
LTYPE
  2
RAND3
 70
    64
  3
ランダム線3
 72
    65
 73
     4
 40
18.0
 49
3.0
 49
-4.0
 49
5.0
 49
-6.0
  0
LTYPE
  2
RAND4
 70
    64
  3
ランダム線4
 72
    65
 73
     4
 40
22.0
 49
4.0
 49
-5.0
 49
6.0
 49
-7.0
  0
LTYPE
  2
RAND5
 70
    64
  3
ランダム線5
 72
    65
 73
     4
 40
26.0
 49
5.0
 49
-6.0
 49
7.0
 49
-8.0
  0
LTYPE
  2
LONG1
 70
    64
  3
----------  --  ----------  --  
 72
    65
 73
     4
 40
40.0
 49
32.5
 49
-2.5
 49
2.5
 49
-2.5
  0
LTYPE
  2
LONG2
 70
    64
  3
--------  -  -  --------  -  -  
 72
    65
 73
     6
 40
40.0
 49
30.0
 49
-2.5
 49
1.25
 49
-2.5
 49
1.25
 49
-2.5
  0
LTYPE
  2
LONG3
 70
    64
  3
+++++++++++++++..+++++++++++++++
 72
    65
 73
     2
 40
40.0
 49
37.5
 49
-2.5
  0
LTYPE
  2
LONG4
 70
    64
  3
+++++++++++++++..+++++++++++++++
 72
    65
 73
     2
 40
80.0
 49
75.0
 49
-5.0
  0
LTYPE
  2
LONG5
 70
    64
  3
----------  --  ----------  --  
 72
    65
 73
     4
 40
60.0
 49
37.5
 49
-7.5
 49
7.5
 49
-7.5
  0
LTYPE
  2
dashed
 70
   64
  3
-------   -------------   ------
 72
   65
 73
    2
 40
7.5
 49
6
 49
-1.5
  0
LTYPE
  2
dashed_spaced
 70
   64
  3
----        --------        ----
 72
   65
 73
    2
 40
12
 49
6
 49
-6
  0
LTYPE
  2
long_dashed_dotted
 70
   64
  3
------------- --- --------------
 72
   65
 73
    4
 40
15.25
 49
12
 49
-1.5
 49
0.25
 49
-1.5
  0
LTYPE
  2
long_dashed_double-dotted
 70
   64
  3
----------- --- --- ------------
 72
   65
 73
    6
 40
17
 49
12
 49
-1.5
 49
0.25
 49
-1.5
 49
0.25
 49
-1.5
  0
LTYPE
  2
long_dashed_triplicate-dotted
 70
   64
  3
--------- --- --- --- ----------
 72
   65
 73
    8
 40
18.75
 49
12
 49
-1.5
 49
0.25
 49
-1.5
 49
0.25
 49
-1.5
 49
0.25
 49
-1.5
  0
LTYPE
  2
dotted
 70
   64
  3
   -       -       -       -    
 72
   65
 73
    2
 40
1.75
 49
0.25
 49
-1.5
  0
LTYPE
  2
chain
 70
   64
  3
-------------- -- --------------
 72
   65
 73
    4
 40
18.5
 49
12
 49
-1.5
 49
3.5
 49
-1.5
  0
LTYPE
  2
chain_double_dash
 70
   64
  3
------------ -- -- -------------
 72
   65
 73
    6
 40
23.5
 49
12
 49
-1.5
 49
3.5
 49
-1.5
 49
3.5
 49
-1.5
  0
LTYPE
  2
dashed_dotted
 70
   64
  3
-----------     -     ----------
 72
   65
 73
    4
 40
9.25
 49
6
 49
-1.5
 49
0.25
 49
-1.5
  0
LTYPE
  2
double-dashed_dotted
 70
   64
  3
------   -----------   -   -----
 72
   65
 73
    6
 40
16.75
 49
6
 49
-1.5
 49
6
 49
-1.5
 49
0.25
 49
-1.5
  0
LTYPE
  2
dashed_double-dotted
 70
   64
  3
---------    -    -    ---------
 72
   65
 73
    6
 40
11
 49
6
 49
-1.5
 49
0.25
 49
-1.5
 49
0.25
 49
-1.5
  0
LTYPE
  2
double-dashed_double-dotted
 70
   64
  3
-----   ---------   -   -   ----
 72
   65
 73
    8
 40
18.5
 49
6
 49
-1.5
 49
6
 49
-1.5
 49
0.25
 49
-1.5
 49
0.25
 49
-1.5
  0
LTYPE
  2
dashed_triplicate-dotted
 70
   64
  3
-------    -    -    -    ------
 72
   65
 73
    8
 40
12.75
 49
6
 49
-1.5
 49
0.25
 49
-1.5
 49
0.25
 49
-1.5
 49
0.25
 49
-1.5
  0
LTYPE
  2
double-dashed_triplicate-dotted
 70
   64
  3
-----  ---------  -  -  -  -----
 72
   65
 73
   10
 40
20.25
 49
6
 49
-1.5
 49
6
 49
-1.5
 49
0.25
 49
-1.5
 49
0.25
 49
-1.5
 49
0.25
 49
-1.5
  0
LTYPE
  2
undefined
 70
   64
  3
--------------------------------
 72
   65
 73
    0
 40
0
  0
ENDTAB
  0
TABLE
  2
STYLE
  5
3
100
AcDbSymbolTable
 70
     1
  0
STYLE
  5
10
100
AcDbSymbolTableRecord
100
AcDbTextStyleTableRecord
  2
STANDARD
 70
     0
 40
0.0
 41
1.0
 50
0.0
 71
     0
 42
0.2
  3
txt
  4
bigfont.shx
  0
STYLE
  5
26
100
AcDbSymbolTableRecord
100
AcDbTextStyleTableRecord
  2
TATEGAKI
 70
    68
 40
0.0
 41
1.0
 50
0.0
 71
     0
 42
1.0
  3
txt
  4
bigfont.shx
  0
ENDTAB
  0
TABLE
  2
LAYER
 70
    6
  0
LAYER
  2
_0-0_
 70
   64
 62
    7
  6
CONTINUOUS
  0
LAYER
  2
_0-1_
 70
   64
 62
    7
  6
CONTINUOUS
  0
LAYER
  2
_0-3_
 70
   64
 62
    7
  6
CONTINUOUS
  0
LAYER
  2
_0-e_
 70
   64
 62
    7
  6
CONTINUOUS
  0
LAYER
  2
_f-f_ADD_LINE
 70
   64
 62
    7
  6
CONTINUOUS
  0
LAYER
  2
ADD_LINE
 70
   64
 62
    7
  6
CONTINUOUS
  0
ENDTAB
  0
ENDSEC
  0
SECTION
  2
BLOCKS
  0
ENDSEC
  0
SECTION
  2
ENTITIES
  0
LINE
  8
_0-0_
  6
CONTINUOUS
 62
    7
 10
149.88957694463579
 20
120.09265062184539
 11
149.88957694463579
 21
149.09265062184539
  0
LINE
  8
_0-0_
  6
CONTINUOUS
 62
    7
 10
146.88957694463579
 20
152.09265062184539
 11
107.88957694463625
 21
152.09265062184539
  0
LINE
  8
_0-0_
  6
CONTINUOUS
 62
    7
 10
104.88957694463579
 20
149.09265062184539
 11
104.88957694463579
 21
120.09265062184539
  0
LINE
  8
_0-0_
  6
CONTINUOUS
 62
    7
 10
107.88957694463625
 20
117.09265062184539
 11
146.88957694463579
 21
117.09265062184539
  0
LINE
  8
_0-0_
  6
CONTINUOUS
 62
    7
 10
143.88957694463625
 20
123.72662062184526
 11
142.38957694463579
 21
122.86060062184532
  0
LINE
  8
_0-0_
  6
CONTINUOUS
 62
    7
 10
142.38957694463579
 20
122.86060062184532
 11
140.88957694463579
 21
123.72662062184526
  0
LINE
  8
_0-0_
  6
CONTINUOUS
 62
    7
 10
140.88957694463579
 20
123.72662062184526
 11
140.88957694463579
 21
125.45868062184508
  0
LINE
  8
_0-0_
  6
CONTINUOUS
 62
    7
 10
140.88957694463579
 20
125.45868062184508
 11
142.38957694463579
 21
126.32470062184547
  0
LINE
  8
_0-0_
  6
CONTINUOUS
 62
    7
 10
142.38957694463579
 20
126.32470062184547
 11
143.88957694463625
 21
125.45868062184508
  0
LINE
  8
_0-0_
  6
CONTINUOUS
 62
    7
 10
143.88957694463625
 20
125.45868062184508
 11
143.88957694463625
 21
123.72662062184526
  0
LINE
  8
_0-0_
  6
CONTINUOUS
 62
    7
 10
122.88957694463625
 20
117.09265062184539
 11
122.88957694463625
 21
133.59265062184539
  0
LINE
  8
_0-0_
  6
CONTINUOUS
 62
    7
 10
122.88957694463625
 20
133.59265062184539
 11
133.47632694463618
 21
133.59265062184539
  0
LINE
  8
_0-0_
  6
CONTINUOUS
 62
    7
 10
133.47632694463618
 20
133.59265062184539
 11
133.47632694463618
 21
152.09265062184539
  0
LINE
  8
_0-0_
  6
CONTINUOUS
 62
    7
 10
131.88957694463579
 20
152.09265062184539
 11
131.88957694463579
 21
135.59265062184539
  0
LINE
  8
_0-0_
  6
CONTINUOUS
 62
    7
 10
131.88957694463579
 20
135.59265062184539
 11
121.30281694463611
 21
135.59265062184539
  0
LINE
  8
_0-0_
  6
CONTINUOUS
 62
    7
 10
121.30281694463611
 20
135.59265062184539
 11
121.30281694463611
 21
117.09265062184539
  0
LINE
  8
_0-0_
  6
CONTINUOUS
 62
    7
 10
131.88957694463579
 20
117.09265062184539
 11
131.88957694463579
 21
133.59265062184539
  0
LINE
  8
_0-0_
  6
CONTINUOUS
 62
    7
 10
131.38957694463625
 20
133.59265062184539
 11
131.38957694463625
 21
135.59265062184539
  0
LINE
  8
_0-0_
  6
CONTINUOUS
 62
    7
 10
123.38957694463579
 20
135.59265062184539
 11
123.38957694463579
 21
133.59265062184539
  0
LINE
  8
_0-0_
  6
CONTINUOUS
 62
    7
 10
122.88957694463625
 20
135.59265062184539
 11
122.88957694463625
 21
152.09265062184539
  0
LINE
  8
_0-0_
  6
CONTINUOUS
 62
    7
 10
113.88957694463625
 20
145.45868062184508
 11
112.38957694463579
 21
146.32470062184547
  0
LINE
  8
_0-0_
  6
CONTINUOUS
 62
    7
 10
112.38957694463579
 20
146.32470062184547
 11
110.88957694463579
 21
145.45868062184508
  0
LINE
  8
_0-0_
  6
CONTINUOUS
 62
    7
 10
110.88957694463579
 20
145.45868062184508
 11
110.88957694463579
 21
143.72662062184526
  0
LINE
  8
_0-0_
  6
CONTINUOUS
 62
    7
 10
110.88957694463579
 20
143.72662062184526
 11
112.38957694463579
 21
142.86060062184532
  0
LINE
  8
_0-0_
  6
CONTINUOUS
 62
    7
 10
112.38957694463579
 20
142.86060062184532
 11
113.88957694463625
 21
143.72662062184526
  0
LINE
  8
_0-0_
  6
CONTINUOUS
 62
    7
 10
113.88957694463625
 20
143.72662062184526
 11
113.88957694463625
 21
145.45868062184508
  0
LINE
  8
_0-0_
  6
CONTINUOUS
 62
    7
 10
113.88957694463625
 20
125.45868062184508
 11
113.88957694463625
 21
123.72662062184526
  0
LINE
  8
_0-0_
  6
CONTINUOUS
 62
    7
 10
113.88957694463625
 20
123.72662062184526
 11
112.38957694463579
 21
122.86060062184532
  0
LINE
  8
_0-0_
  6
CONTINUOUS
 62
    7
 10
112.38957694463579
 20
122.86060062184532
 11
110.88957694463579
 21
123.72662062184526
  0
LINE
  8
_0-0_
  6
CONTINUOUS
 62
    7
 10
110.88957694463579
 20
123.72662062184526
 11
110.88957694463579
 21
125.45868062184508
  0
LINE
  8
_0-0_
  6
CONTINUOUS
 62
    7
 10
110.88957694463579
 20
125.45868062184508
 11
112.38957694463579
 21
126.32470062184547
  0
LINE
  8
_0-0_
  6
CONTINUOUS
 62
    7
 10
112.38957694463579
 20
126.32470062184547
 11
113.88957694463625
 21
125.45868062184508
  0
LINE
  8
_0-0_
  6
CONTINUOUS
 62
    7
 10
140.88957694463579
 20
143.72662062184526
 11
142.38957694463579
 21
142.86060062184532
  0
LINE
  8
_0-0_
  6
CONTINUOUS
 62
    7
 10
142.38957694463579
 20
142.86060062184532
 11
143.88957694463625
 21
143.72662062184526
  0
LINE
  8
_0-0_
  6
CONTINUOUS
 62
    7
 10
143.88957694463625
 20
143.72662062184526
 11
143.88957694463625
 21
145.45868062184508
  0
LINE
  8
_0-0_
  6
CONTINUOUS
 62
    7
 10
143.88957694463625
 20
145.45868062184508
 11
142.38957694463579
 21
146.32470062184547
  0
LINE
  8
_0-0_
  6
CONTINUOUS
 62
    7
 10
142.38957694463579
 20
146.32470062184547
 11
140.88957694463579
 21
145.45868062184508
  0
LINE
  8
_0-0_
  6
CONTINUOUS
 62
    7
 10
140.88957694463579
 20
145.45868062184508
 11
140.88957694463579
 21
143.72662062184526
  0
ARC
  8
_0-0_
  6
CONTINUOUS
 62
    7
 10
107.88957694463625
 20
120.09265062184539
 40
3.0000000000000004
 50
180
 51
270
  0
ARC
  8
_0-0_
  6
CONTINUOUS
 62
    7
 10
107.88957694463625
 20
149.09265062184539
 40
3.0000000000000004
 50
90
 51
180
  0
CIRCLE
  8
_0-0_
  6
CONTINUOUS
 62
    7
 10
112.38957694463579
 20
144.59265062184539
 40
4
  0
CIRCLE
  8
_0-0_
  6
CONTINUOUS
 62
    7
 10
112.38957694463579
 20
124.59265062184539
 40
4
  0
ARC
  8
_0-0_
  6
CONTINUOUS
 62
    7
 10
146.88957694463579
 20
149.09265062184539
 40
3.0000000000000004
 50
0
 51
90
  0
ARC
  8
_0-0_
  6
CONTINUOUS
 62
    7
 10
146.88957694463579
 20
120.09265062184539
 40
3.0000000000000004
 50
270
 51
0
  0
CIRCLE
  8
_0-0_
  6
CONTINUOUS
 62
    7
 10
142.38957694463579
 20
124.59265062184539
 40
4
  0
CIRCLE
  8
_0-0_
  6
CONTINUOUS
 62
    7
 10
142.38957694463579
 20
144.59265062184539
 40
4
  0
CIRCLE
  8
_0-0_
  6
CONTINUOUS
 62
    7
 10
112.38957694463579
 20
144.59265062184539
 40
3.5000000000000004
  0
CIRCLE
  8
_0-0_
  6
CONTINUOUS
 62
    7
 10
112.38957694463579
 20
124.59265062184539
 40
3.5000000000000004
  0
CIRCLE
  8
_0-0_
  6
CONTINUOUS
 62
    7
 10
142.38957694463579
 20
124.59265062184539
 40
3.5000000000000004
  0
CIRCLE
  8
_0-0_
  6
CONTINUOUS
 62
    7
 10
142.38957694463579
 20
144.59265062184539
 40
3.5000000000000004
  0
LINE
  8
_0-0_
  6
CONTINUOUS
 62
    7
 10
145.38957694463625
 20
98.801470621846136
 11
145.88957694463579
 21
98.301470621845681
  0
LINE
  8
_0-0_
  6
CONTINUOUS
 62
    7
 10
145.38957694463625
 20
98.801470621846136
 11
139.38957694463579
 21
98.801470621846136
  0
LINE
  8
_0-0_
  6
CONTINUOUS
 62
    7
 10
139.38957694463579
 20
98.801470621846136
 11
138.88957694463625
 21
98.301470621845681
  0
LINE
  8
_0-0_
  6
CONTINUOUS
 62
    7
 10
138.63957694463579
 20
93.301470621845681
 11
138.81277694463597
 21
93.001470621845954
  0
LINE
  8
_0-0_
  6
CONTINUOUS
 62
    7
 10
138.81277694463597
 20
93.001470621845954
 11
145.96636694463587
 21
93.001470621845954
  0
LINE
  8
_0-0_
  6
CONTINUOUS
 62
    7
 10
145.96636694463587
 20
93.001470621845954
 11
146.13957694463579
 21
93.301470621845681
  0
LINE
  8
_0-0_
  6
CONTINUOUS
 62
    7
 10
149.38957694463579
 20
93.301470621845681
 11
130.58957694463606
 21
93.301470621845681
  0
LINE
  8
_0-0_
  6
CONTINUOUS
 62
    7
 10
130.58957694463606
 20
93.301470621845681
 11
126.23996694463585
 21
94.450790621846124
  0
LINE
  8
_0-0_
  6
CONTINUOUS
 62
    7
 10
127.38957694463579
 20
94.147020621845684
 11
124.18957694463597
 21
93.301470621845681
  0
LINE
  8
_0-0_
  6
CONTINUOUS
 62
    7
 10
124.18957694463597
 20
93.301470621845681
 11
105.38957694463625
 21
93.301470621845681
  0
LINE
  8
_0-0_
  6
CONTINUOUS
 62
    7
 10
104.88957694463579
 20
93.801470621846136
 11
104.88957694463579
 21
97.301470621846136
  0
LINE
  8
_0-0_
  6
CONTINUOUS
 62
    7
 10
105.88957694463579
 20
98.301470621845681
 11
122.88957694463625
 21
98.301470621845681
  0
LINE
  8
_0-0_
  6
CONTINUOUS
 62
    7
 10
122.88957694463625
 20
98.301470621845681
 11
122.88957694463625
 21
98.801470621846136
  0
LINE
  8
_0-0_
  6
CONTINUOUS
 62
    7
 10
121.30281694463611
 20
98.301470621845681
 11
124.18957694463597
 21
93.301470621845681
  0
LINE
  8
_0-0_
  6
CONTINUOUS
 62
    7
 10
130.58957694463606
 20
93.301470621845681
 11
133.47632694463618
 21
98.301470621845681
  0
LINE
  8
_0-0_
  6
CONTINUOUS
 62
    7
 10
131.88957694463579
 20
98.301470621845681
 11
131.88957694463579
 21
98.801470621846136
  0
LINE
  8
_0-0_
  6
CONTINUOUS
 62
    7
 10
131.88957694463579
 20
98.301470621845681
 11
148.88957694463625
 21
98.301470621845681
  0
LINE
  8
_0-0_
  6
CONTINUOUS
 62
    7
 10
149.88957694463579
 20
97.301470621846136
 11
149.88957694463579
 21
93.801470621846136
  0
LINE
  8
_0-0_
  6
CONTINUOUS
 62
    7
 10
129.45112694463614
 20
102.80147062184614
 11
125.32801694463569
 21
102.80147062184614
  0
LINE
  8
_0-0_
  6
CONTINUOUS
 62
    7
 10
115.38957694463625
 20
98.801470621846136
 11
109.38957694463579
 21
98.801470621846136
  0
LINE
  8
_0-0_
  6
CONTINUOUS
 62
    7
 10
109.38957694463579
 20
98.801470621846136
 11
108.88957694463625
 21
98.301470621845681
  0
LINE
  8
_0-0_
  6
CONTINUOUS
 62
    7
 10
108.63957694463579
 20
93.301470621845681
 11
108.81277694463597
 21
93.001470621845954
  0
LINE
  8
_0-0_
  6
CONTINUOUS
 62
    7
 10
108.81277694463597
 20
93.001470621845954
 11
115.96636694463587
 21
93.001470621845954
  0
LINE
  8
_0-0_
  6
CONTINUOUS
 62
    7
 10
115.96636694463587
 20
93.001470621845954
 11
116.13957694463579
 21
93.301470621845681
  0
LINE
  8
_0-0_
  6
CONTINUOUS
 62
    7
 10
115.88957694463579
 20
98.301470621845681
 11
115.38957694463625
 21
98.801470621846136
  0
LINE
  8
_0-0_
  6
CONTINUOUS
 62
    7
 10
35.850301761008495
 20
93.301470621845681
 11
54.650301761008222
 21
93.301470621845681
  0
LINE
  8
_0-0_
  6
CONTINUOUS
 62
    7
 10
55.150301761008222
 20
93.801470621846136
 11
55.150301761008222
 21
97.301470621846136
  0
LINE
  8
_0-0_
  6
CONTINUOUS
 62
    7
 10
54.150301761008677
 20
98.301470621845681
 11
37.150301761008222
 21
98.301470621845681
  0
LINE
  8
_0-0_
  6
CONTINUOUS
 62
    7
 10
37.150301761008222
 20
98.301470621845681
 11
37.150301761008222
 21
98.801470621846136
  0
LINE
  8
_0-0_
  6
CONTINUOUS
 62
    7
 10
38.737051761008615
 20
98.301470621845681
 11
35.850301761008495
 21
93.301470621845681
  0
LINE
  8
_0-0_
  6
CONTINUOUS
 62
    7
 10
35.850301761008495
 20
93.301470621845681
 11
32.650301761008222
 21
94.147020621845684
  0
LINE
  8
_0-0_
  6
CONTINUOUS
 62
    7
 10
33.799901761008414
 20
94.450790621846124
 11
29.450301761008177
 21
93.301470621845681
  0
LINE
  8
_0-0_
  6
CONTINUOUS
 62
    7
 10
29.450301761008177
 20
93.301470621845681
 11
10.65030176100845
 21
93.301470621845681
  0
LINE
  8
_0-0_
  6
CONTINUOUS
 62
    7
 10
10.150301761007995
 20
93.801470621846136
 11
10.150301761007995
 21
97.301470621846136
  0
LINE
  8
_0-0_
  6
CONTINUOUS
 62
    7
 10
11.150301761007995
 20
98.301470621845681
 11
28.15030176100845
 21
98.301470621845681
  0
LINE
  8
_0-0_
  6
CONTINUOUS
 62
    7
 10
28.15030176100845
 20
98.301470621845681
 11
28.15030176100845
 21
98.801470621846136
  0
LINE
  8
_0-0_
  6
CONTINUOUS
 62
    7
 10
26.56354176100831
 20
98.301470621845681
 11
29.450301761008177
 21
93.301470621845681
  0
LINE
  8
_0-0_
  6
CONTINUOUS
 62
    7
 10
21.400301761007995
 20
93.301470621845681
 11
21.227091761008069
 21
93.001470621845954
  0
LINE
  8
_0-0_
  6
CONTINUOUS
 62
    7
 10
21.227091761008069
 20
93.001470621845954
 11
14.073501761008174
 21
93.001470621845954
  0
LINE
  8
_0-0_
  6
CONTINUOUS
 62
    7
 10
14.073501761008174
 20
93.001470621845954
 11
13.900301761007995
 21
93.301470621845681
  0
LINE
  8
_0-0_
  6
CONTINUOUS
 62
    7
 10
14.15030176100845
 20
98.301470621845681
 11
14.650301761007995
 21
98.801470621846136
  0
LINE
  8
_0-0_
  6
CONTINUOUS
 62
    7
 10
14.650301761007995
 20
98.801470621846136
 11
20.65030176100845
 21
98.801470621846136
  0
LINE
  8
_0-0_
  6
CONTINUOUS
 62
    7
 10
20.65030176100845
 20
98.801470621846136
 11
21.150301761007995
 21
98.301470621845681
  0
LINE
  8
_0-0_
  6
CONTINUOUS
 62
    7
 10
30.588741761007896
 20
102.80147062184614
 11
34.711851761008575
 21
102.80147062184614
  0
LINE
  8
_0-0_
  6
CONTINUOUS
 62
    7
 10
50.650301761008677
 20
98.801470621846136
 11
51.150301761008222
 21
98.301470621845681
  0
LINE
  8
_0-0_
  6
CONTINUOUS
 62
    7
 10
50.650301761008677
 20
98.801470621846136
 11
44.650301761008222
 21
98.801470621846136
  0
LINE
  8
_0-0_
  6
CONTINUOUS
 62
    7
 10
44.650301761008222
 20
98.801470621846136
 11
44.150301761008677
 21
98.301470621845681
  0
LINE
  8
_0-0_
  6
CONTINUOUS
 62
    7
 10
43.900301761008222
 20
93.301470621845681
 11
44.073501761008401
 21
93.001470621845954
  0
LINE
  8
_0-0_
  6
CONTINUOUS
 62
    7
 10
44.073501761008401
 20
93.001470621845954
 11
51.227091761008296
 21
93.001470621845954
  0
LINE
  8
_0-0_
  6
CONTINUOUS
 62
    7
 10
51.227091761008296
 20
93.001470621845954
 11
51.400301761008222
 21
93.301470621845681
  0
ARC
  8
_0-0_
  6
CONTINUOUS
 62
    7
 10
32.650301761008222
 20
98.801470621846136
 40
4.5
 50
117.26604000000002
 51
180.00000000000006
  0
CIRCLE
  8
_0-0_
  6
CONTINUOUS
 62
    7
 10
32.650301761008222
 20
98.801470621846136
 40
2.5
  0
ARC
  8
_0-0_
  6
CONTINUOUS
 62
    7
 10
11.150301761007995
 20
97.301470621846136
 40
1
 50
90
 51
180
  0
ARC
  8
_0-0_
  6
CONTINUOUS
 62
    7
 10
10.65030176100845
 20
93.801470621846136
 40
0.5
 50
180
 51
270
  0
ARC
  8
_0-0_
  6
CONTINUOUS
 62
    7
 10
32.650301761008222
 20
98.801470621846136
 40
4.5
 50
282.54349000000002
 51
62.733955000000059
  0
ARC
  8
_0-0_
  6
CONTINUOUS
 62
    7
 10
32.650301761008222
 20
98.801470621846136
 40
4.5
 50
0
 51
62.733955000000009
  0
ARC
  8
_0-0_
  6
CONTINUOUS
 62
    7
 10
54.150301761008677
 20
97.301470621846136
 40
1
 50
0
 51
90
  0
ARC
  8
_0-0_
  6
CONTINUOUS
 62
    7
 10
54.650301761008222
 20
93.801470621846136
 40
0.5
 50
270
 51
0
  0
ARC
  8
_0-0_
  6
CONTINUOUS
 62
    7
 10
127.38957694463579
 20
98.801470621846136
 40
4.5
 50
0
 51
62.733955000000009
  0
CIRCLE
  8
_0-0_
  6
CONTINUOUS
 62
    7
 10
127.38957694463579
 20
98.801470621846136
 40
2.5
  0
ARC
  8
_0-0_
  6
CONTINUOUS
 62
    7
 10
148.88957694463625
 20
97.301470621846136
 40
1
 50
0
 51
90
  0
ARC
  8
_0-0_
  6
CONTINUOUS
 62
    7
 10
149.38957694463579
 20
93.801470621846136
 40
0.5
 50
270
 51
0
  0
ARC
  8
_0-0_
  6
CONTINUOUS
 62
    7
 10
127.38957694463579
 20
98.801470621846136
 40
4.5
 50
117.26604000000002
 51
257.45650000000006
  0
ARC
  8
_0-0_
  6
CONTINUOUS
 62
    7
 10
127.38957694463579
 20
98.801470621846136
 40
4.5
 50
117.26604000000002
 51
180.00000000000006
  0
ARC
  8
_0-0_
  6
CONTINUOUS
 62
    7
 10
105.88957694463579
 20
97.301470621846136
 40
1
 50
90
 51
180
  0
ARC
  8
_0-0_
  6
CONTINUOUS
 62
    7
 10
105.38957694463625
 20
93.801470621846136
 40
0.5
 50
180
 51
270
  0
LINE
  8
_0-0_
  6
CONTINUOUS
 62
    7
 10
145.38957694463625
 20
34.096037928577175
 11
145.88957694463579
 21
33.59603792857672
  0
LINE
  8
_0-0_
  6
CONTINUOUS
 62
    7
 10
145.38957694463625
 20
34.096037928577175
 11
139.38957694463579
 21
34.096037928577175
  0
LINE
  8
_0-0_
  6
CONTINUOUS
 62
    7
 10
139.38957694463579
 20
34.096037928577175
 11
138.88957694463625
 21
33.59603792857672
  0
LINE
  8
_0-0_
  6
CONTINUOUS
 62
    7
 10
138.63957694463579
 20
28.59603792857672
 11
138.81277694463597
 21
28.296037928576993
  0
LINE
  8
_0-0_
  6
CONTINUOUS
 62
    7
 10
138.81277694463597
 20
28.296037928576993
 11
145.96636694463587
 21
28.296037928576993
  0
LINE
  8
_0-0_
  6
CONTINUOUS
 62
    7
 10
145.96636694463587
 20
28.296037928576993
 11
146.13957694463579
 21
28.59603792857672
  0
LINE
  8
_0-0_
  6
CONTINUOUS
 62
    7
 10
149.38957694463579
 20
28.59603792857672
 11
130.58957694463606
 21
28.59603792857672
  0
LINE
  8
_0-0_
  6
CONTINUOUS
 62
    7
 10
130.58957694463606
 20
28.59603792857672
 11
126.23996694463585
 21
29.745357928577164
  0
LINE
  8
_0-0_
  6
CONTINUOUS
 62
    7
 10
127.38957694463579
 20
29.441587928576723
 11
124.18957694463597
 21
28.59603792857672
  0
LINE
  8
_0-0_
  6
CONTINUOUS
 62
    7
 10
124.18957694463597
 20
28.59603792857672
 11
105.38957694463625
 21
28.59603792857672
  0
LINE
  8
_0-0_
  6
CONTINUOUS
 62
    7
 10
104.88957694463579
 20
29.096037928577175
 11
104.88957694463579
 21
32.596037928577175
  0
LINE
  8
_0-0_
  6
CONTINUOUS
 62
    7
 10
105.88957694463579
 20
33.59603792857672
 11
122.88957694463625
 21
33.59603792857672
  0
LINE
  8
_0-0_
  6
CONTINUOUS
 62
    7
 10
122.88957694463625
 20
33.59603792857672
 11
122.88957694463625
 21
34.096037928577175
  0
LINE
  8
_0-0_
  6
CONTINUOUS
 62
    7
 10
121.30281694463611
 20
33.59603792857672
 11
124.18957694463597
 21
28.59603792857672
  0
LINE
  8
_0-0_
  6
CONTINUOUS
 62
    7
 10
130.58957694463606
 20
28.59603792857672
 11
133.47632694463618
 21
33.59603792857672
  0
LINE
  8
_0-0_
  6
CONTINUOUS
 62
    7
 10
131.88957694463579
 20
33.59603792857672
 11
131.88957694463579
 21
34.096037928577175
  0
LINE
  8
_0-0_
  6
CONTINUOUS
 62
    7
 10
131.88957694463579
 20
33.59603792857672
 11
148.88957694463625
 21
33.59603792857672
  0
LINE
  8
_0-0_
  6
CONTINUOUS
 62
    7
 10
149.88957694463579
 20
32.596037928577175
 11
149.88957694463579
 21
29.096037928577175
  0
LINE
  8
_0-0_
  6
CONTINUOUS
 62
    7
 10
129.45112694463614
 20
38.096037928577175
 11
125.32801694463569
 21
38.096037928577175
  0
LINE
  8
_0-0_
  6
CONTINUOUS
 62
    7
 10
115.38957694463625
 20
34.096037928577175
 11
109.38957694463579
 21
34.096037928577175
  0
LINE
  8
_0-0_
  6
CONTINUOUS
 62
    7
 10
109.38957694463579
 20
34.096037928577175
 11
108.88957694463625
 21
33.59603792857672
  0
LINE
  8
_0-0_
  6
CONTINUOUS
 62
    7
 10
108.63957694463579
 20
28.59603792857672
 11
108.81277694463597
 21
28.296037928576993
  0
LINE
  8
_0-0_
  6
CONTINUOUS
 62
    7
 10
108.81277694463597
 20
28.296037928576993
 11
115.96636694463587
 21
28.296037928576993
  0
LINE
  8
_0-0_
  6
CONTINUOUS
 62
    7
 10
115.96636694463587
 20
28.296037928576993
 11
116.13957694463579
 21
28.59603792857672
  0
LINE
  8
_0-0_
  6
CONTINUOUS
 62
    7
 10
115.88957694463579
 20
33.59603792857672
 11
115.38957694463625
 21
34.096037928577175
  0
LINE
  8
_0-0_
  6
CONTINUOUS
 62
    7
 10
35.850301761008495
 20
28.59603792857672
 11
54.650301761008222
 21
28.59603792857672
  0
LINE
  8
_0-0_
  6
CONTINUOUS
 62
    7
 10
55.150301761008222
 20
29.096037928577175
 11
55.150301761008222
 21
32.596037928577175
  0
LINE
  8
_0-0_
  6
CONTINUOUS
 62
    7
 10
54.150301761008677
 20
33.59603792857672
 11
37.150301761008222
 21
33.59603792857672
  0
LINE
  8
_0-0_
  6
CONTINUOUS
 62
    7
 10
37.150301761008222
 20
33.59603792857672
 11
37.150301761008222
 21
34.096037928577175
  0
LINE
  8
_0-0_
  6
CONTINUOUS
 62
    7
 10
38.737051761008615
 20
33.59603792857672
 11
35.850301761008495
 21
28.59603792857672
  0
LINE
  8
_0-0_
  6
CONTINUOUS
 62
    7
 10
35.850301761008495
 20
28.59603792857672
 11
32.650301761008222
 21
29.441587928576723
  0
LINE
  8
_0-0_
  6
CONTINUOUS
 62
    7
 10
33.799901761008414
 20
29.745357928577164
 11
29.450301761008177
 21
28.59603792857672
  0
LINE
  8
_0-0_
  6
CONTINUOUS
 62
    7
 10
29.450301761008177
 20
28.59603792857672
 11
10.65030176100845
 21
28.59603792857672
  0
LINE
  8
_0-0_
  6
CONTINUOUS
 62
    7
 10
10.150301761007995
 20
29.096037928577175
 11
10.150301761007995
 21
32.596037928577175
  0
LINE
  8
_0-0_
  6
CONTINUOUS
 62
    7
 10
11.150301761007995
 20
33.59603792857672
 11
28.15030176100845
 21
33.59603792857672
  0
LINE
  8
_0-0_
  6
CONTINUOUS
 62
    7
 10
28.15030176100845
 20
33.59603792857672
 11
28.15030176100845
 21
34.096037928577175
  0
LINE
  8
_0-0_
  6
CONTINUOUS
 62
    7
 10
26.56354176100831
 20
33.59603792857672
 11
29.450301761008177
 21
28.59603792857672
  0
LINE
  8
_0-0_
  6
CONTINUOUS
 62
    7
 10
21.400301761007995
 20
28.59603792857672
 11
21.227091761008069
 21
28.296037928576993
  0
LINE
  8
_0-0_
  6
CONTINUOUS
 62
    7
 10
21.227091761008069
 20
28.296037928576993
 11
14.073501761008174
 21
28.296037928576993
  0
LINE
  8
_0-0_
  6
CONTINUOUS
 62
    7
 10
14.073501761008174
 20
28.296037928576993
 11
13.900301761007995
 21
28.59603792857672
  0
LINE
  8
_0-0_
  6
CONTINUOUS
 62
    7
 10
14.15030176100845
 20
33.59603792857672
 11
14.650301761007995
 21
34.096037928577175
  0
LINE
  8
_0-0_
  6
CONTINUOUS
 62
    7
 10
14.650301761007995
 20
34.096037928577175
 11
20.65030176100845
 21
34.096037928577175
  0
LINE
  8
_0-0_
  6
CONTINUOUS
 62
    7
 10
20.65030176100845
 20
34.096037928577175
 11
21.150301761007995
 21
33.59603792857672
  0
LINE
  8
_0-0_
  6
CONTINUOUS
 62
    7
 10
30.588741761007896
 20
38.096037928577175
 11
34.711851761008575
 21
38.096037928577175
  0
LINE
  8
_0-0_
  6
CONTINUOUS
 62
    7
 10
50.650301761008677
 20
34.096037928577175
 11
51.150301761008222
 21
33.59603792857672
  0
LINE
  8
_0-0_
  6
CONTINUOUS
 62
    7
 10
50.650301761008677
 20
34.096037928577175
 11
44.650301761008222
 21
34.096037928577175
  0
LINE
  8
_0-0_
  6
CONTINUOUS
 62
    7
 10
44.650301761008222
 20
34.096037928577175
 11
44.150301761008677
 21
33.59603792857672
  0
LINE
  8
_0-0_
  6
CONTINUOUS
 62
    7
 10
43.900301761008222
 20
28.59603792857672
 11
44.073501761008401
 21
28.296037928576993
  0
LINE
  8
_0-0_
  6
CONTINUOUS
 62
    7
 10
44.073501761008401
 20
28.296037928576993
 11
51.227091761008296
 21
28.296037928576993
  0
LINE
  8
_0-0_
  6
CONTINUOUS
 62
    7
 10
51.227091761008296
 20
28.296037928576993
 11
51.400301761008222
 21
28.59603792857672
  0
ARC
  8
_0-0_
  6
CONTINUOUS
 62
    7
 10
32.650301761008222
 20
34.096037928577175
 40
4.5
 50
117.26604000000002
 51
180.00000000000006
  0
CIRCLE
  8
_0-0_
  6
CONTINUOUS
 62
    7
 10
32.650301761008222
 20
34.096037928577175
 40
2.5
  0
ARC
  8
_0-0_
  6
CONTINUOUS
 62
    7
 10
11.150301761007995
 20
32.596037928577175
 40
1
 50
90
 51
180
  0
ARC
  8
_0-0_
  6
CONTINUOUS
 62
    7
 10
10.65030176100845
 20
29.096037928577175
 40
0.5
 50
180
 51
270
  0
ARC
  8
_0-0_
  6
CONTINUOUS
 62
    7
 10
32.650301761008222
 20
34.096037928577175
 40
4.5
 50
282.54349000000002
 51
62.733955000000059
  0
ARC
  8
_0-0_
  6
CONTINUOUS
 62
    7
 10
32.650301761008222
 20
34.096037928577175
 40
4.5
 50
0
 51
62.733955000000009
  0
ARC
  8
_0-0_
  6
CONTINUOUS
 62
    7
 10
54.150301761008677
 20
32.596037928577175
 40
1
 50
0
 51
90
  0
ARC
  8
_0-0_
  6
CONTINUOUS
 62
    7
 10
54.650301761008222
 20
29.096037928577175
 40
0.5
 50
270
 51
0
  0
ARC
  8
_0-0_
  6
CONTINUOUS
 62
    7
 10
127.38957694463579
 20
34.096037928577175
 40
4.5
 50
0
 51
62.733955000000009
  0
CIRCLE
  8
_0-0_
  6
CONTINUOUS
 62
    7
 10
127.38957694463579
 20
34.096037928577175
 40
2.5
  0
ARC
  8
_0-0_
  6
CONTINUOUS
 62
    7
 10
148.88957694463625
 20
32.596037928577175
 40
1
 50
0
 51
90
  0
ARC
  8
_0-0_
  6
CONTINUOUS
 62
    7
 10
149.38957694463579
 20
29.096037928577175
 40
0.5
 50
270
 51
0
  0
ARC
  8
_0-0_
  6
CONTINUOUS
 62
    7
 10
127.38957694463579
 20
34.096037928577175
 40
4.5
 50
117.26604000000002
 51
257.45650000000006
  0
ARC
  8
_0-0_
  6
CONTINUOUS
 62
    7
 10
127.38957694463579
 20
34.096037928577175
 40
4.5
 50
117.26604000000002
 51
180.00000000000006
  0
ARC
  8
_0-0_
  6
CONTINUOUS
 62
    7
 10
105.88957694463579
 20
32.596037928577175
 40
1
 50
90
 51
180
  0
ARC
  8
_0-0_
  6
CONTINUOUS
 62
    7
 10
105.38957694463625
 20
29.096037928577175
 40
0.5
 50
180
 51
270
  0
LINE
  8
_0-0_
  6
CONTINUOUS
 62
    7
 10
37.150291761008248
 20
117.09265062184539
 11
37.150291761008248
 21
133.59265062184539
  0
LINE
  8
_0-0_
  6
CONTINUOUS
 62
    7
 10
37.150291761008248
 20
133.59265062184539
 11
26.563531761008335
 21
133.59265062184539
  0
LINE
  8
_0-0_
  6
CONTINUOUS
 62
    7
 10
26.563531761008335
 20
133.59265062184539
 11
26.563531761008335
 21
152.09265062184539
  0
LINE
  8
_0-0_
  6
CONTINUOUS
 62
    7
 10
28.150291761008475
 20
152.09265062184539
 11
28.150291761008475
 21
135.59265062184539
  0
LINE
  8
_0-0_
  6
CONTINUOUS
 62
    7
 10
28.150291761008475
 20
135.59265062184539
 11
38.737041761008641
 21
135.59265062184539
  0
LINE
  8
_0-0_
  6
CONTINUOUS
 62
    7
 10
38.737041761008641
 20
135.59265062184539
 11
38.737041761008641
 21
117.09265062184539
  0
LINE
  8
_0-0_
  6
CONTINUOUS
 62
    7
 10
28.150291761008475
 20
117.09265062184539
 11
28.150291761008475
 21
133.59265062184539
  0
LINE
  8
_0-0_
  6
CONTINUOUS
 62
    7
 10
28.65029176100802
 20
133.59265062184539
 11
28.65029176100802
 21
135.59265062184539
  0
LINE
  8
_0-0_
  6
CONTINUOUS
 62
    7
 10
36.650291761008702
 20
135.59265062184539
 11
36.650291761008702
 21
133.59265062184539
  0
LINE
  8
_0-0_
  6
CONTINUOUS
 62
    7
 10
37.150291761008248
 20
135.59265062184539
 11
37.150291761008248
 21
152.09265062184539
  0
LINE
  8
_0-0_
  6
CONTINUOUS
 62
    7
 10
52.150291761008248
 20
152.09265062184539
 11
13.150291761008475
 21
152.09265062184539
  0
LINE
  8
_0-0_
  6
CONTINUOUS
 62
    7
 10
10.15029176100802
 20
149.09265062184539
 11
10.15029176100802
 21
120.09265062184539
  0
LINE
  8
_0-0_
  6
CONTINUOUS
 62
    7
 10
13.150291761008475
 20
117.09265062184539
 11
52.150291761008248
 21
117.09265062184539
  0
LINE
  8
_0-0_
  6
CONTINUOUS
 62
    7
 10
55.150291761008248
 20
120.09265062184539
 11
55.150291761008248
 21
149.09265062184539
  0
LINE
  8
_0-0_
  6
CONTINUOUS
 62
    7
 10
49.150291761008702
 20
145.45868062184508
 11
47.650291761008248
 21
146.32470062184547
  0
LINE
  8
_0-0_
  6
CONTINUOUS
 62
    7
 10
47.650291761008248
 20
146.32470062184547
 11
46.150291761008248
 21
145.45868062184508
  0
LINE
  8
_0-0_
  6
CONTINUOUS
 62
    7
 10
46.150291761008248
 20
145.45868062184508
 11
46.150291761008248
 21
143.72662062184526
  0
LINE
  8
_0-0_
  6
CONTINUOUS
 62
    7
 10
46.150291761008248
 20
143.72662062184526
 11
47.650291761008248
 21
142.86060062184532
  0
LINE
  8
_0-0_
  6
CONTINUOUS
 62
    7
 10
47.650291761008248
 20
142.86060062184532
 11
49.150291761008702
 21
143.72662062184526
  0
LINE
  8
_0-0_
  6
CONTINUOUS
 62
    7
 10
49.150291761008702
 20
143.72662062184526
 11
49.150291761008702
 21
145.45868062184508
  0
LINE
  8
_0-0_
  6
CONTINUOUS
 62
    7
 10
49.150291761008702
 20
125.45868062184508
 11
47.650291761008248
 21
126.32470062184547
  0
LINE
  8
_0-0_
  6
CONTINUOUS
 62
    7
 10
47.650291761008248
 20
126.32470062184547
 11
46.150291761008248
 21
125.45868062184508
  0
LINE
  8
_0-0_
  6
CONTINUOUS
 62
    7
 10
46.150291761008248
 20
125.45868062184508
 11
46.150291761008248
 21
123.72662062184526
  0
LINE
  8
_0-0_
  6
CONTINUOUS
 62
    7
 10
46.150291761008248
 20
123.72662062184526
 11
47.650291761008248
 21
122.86060062184532
  0
LINE
  8
_0-0_
  6
CONTINUOUS
 62
    7
 10
47.650291761008248
 20
122.86060062184532
 11
49.150291761008702
 21
123.72662062184526
  0
LINE
  8
_0-0_
  6
CONTINUOUS
 62
    7
 10
49.150291761008702
 20
123.72662062184526
 11
49.150291761008702
 21
125.45868062184508
  0
LINE
  8
_0-0_
  6
CONTINUOUS
 62
    7
 10
19.150291761008475
 20
123.72662062184526
 11
17.65029176100802
 21
122.86060062184532
  0
LINE
  8
_0-0_
  6
CONTINUOUS
 62
    7
 10
17.65029176100802
 20
122.86060062184532
 11
16.15029176100802
 21
123.72662062184526
  0
LINE
  8
_0-0_
  6
CONTINUOUS
 62
    7
 10
16.15029176100802
 20
123.72662062184526
 11
16.15029176100802
 21
125.45868062184508
  0
LINE
  8
_0-0_
  6
CONTINUOUS
 62
    7
 10
16.15029176100802
 20
125.45868062184508
 11
17.65029176100802
 21
126.32470062184547
  0
LINE
  8
_0-0_
  6
CONTINUOUS
 62
    7
 10
17.65029176100802
 20
126.32470062184547
 11
19.150291761008475
 21
125.45868062184508
  0
LINE
  8
_0-0_
  6
CONTINUOUS
 62
    7
 10
19.150291761008475
 20
125.45868062184508
 11
19.150291761008475
 21
123.72662062184526
  0
LINE
  8
_0-0_
  6
CONTINUOUS
 62
    7
 10
19.150291761008475
 20
143.72662062184526
 11
17.65029176100802
 21
142.86060062184532
  0
LINE
  8
_0-0_
  6
CONTINUOUS
 62
    7
 10
17.65029176100802
 20
142.86060062184532
 11
16.15029176100802
 21
143.72662062184526
  0
LINE
  8
_0-0_
  6
CONTINUOUS
 62
    7
 10
16.15029176100802
 20
143.72662062184526
 11
16.15029176100802
 21
145.45868062184508
  0
LINE
  8
_0-0_
  6
CONTINUOUS
 62
    7
 10
16.15029176100802
 20
145.45868062184508
 11
17.65029176100802
 21
146.32470062184547
  0
LINE
  8
_0-0_
  6
CONTINUOUS
 62
    7
 10
17.65029176100802
 20
146.32470062184547
 11
19.150291761008475
 21
145.45868062184508
  0
LINE
  8
_0-0_
  6
CONTINUOUS
 62
    7
 10
19.150291761008475
 20
145.45868062184508
 11
19.150291761008475
 21
143.72662062184526
  0
ARC
  8
_0-0_
  6
CONTINUOUS
 62
    7
 10
52.150291761008248
 20
120.09265062184539
 40
3.0000000000000004
 50
270
 51
0
  0
ARC
  8
_0-0_
  6
CONTINUOUS
 62
    7
 10
52.150291761008248
 20
149.09265062184539
 40
3.0000000000000004
 50
0
 51
90
  0
CIRCLE
  8
_0-0_
  6
CONTINUOUS
 62
    7
 10
47.650291761008248
 20
144.59265062184539
 40
4
  0
CIRCLE
  8
_0-0_
  6
CONTINUOUS
 62
    7
 10
47.650291761008248
 20
124.59265062184539
 40
4
  0
ARC
  8
_0-0_
  6
CONTINUOUS
 62
    7
 10
13.150291761008475
 20
149.09265062184539
 40
3.0000000000000004
 50
90
 51
180
  0
ARC
  8
_0-0_
  6
CONTINUOUS
 62
    7
 10
13.150291761008475
 20
120.09265062184539
 40
3.0000000000000004
 50
180
 51
270
  0
CIRCLE
  8
_0-0_
  6
CONTINUOUS
 62
    7
 10
17.65029176100802
 20
124.59265062184539
 40
4
  0
CIRCLE
  8
_0-0_
  6
CONTINUOUS
 62
    7
 10
17.65029176100802
 20
144.59265062184539
 40
4
  0
CIRCLE
  8
_0-0_
  6
CONTINUOUS
 62
    7
 10
47.650291761008248
 20
144.59265062184539
 40
3.5000000000000004
  0
CIRCLE
  8
_0-0_
  6
CONTINUOUS
 62
    7
 10
47.650291761008248
 20
124.59265062184539
 40
3.5000000000000004
  0
CIRCLE
  8
_0-0_
  6
CONTINUOUS
 62
    7
 10
17.65029176100802
 20
124.59265062184539
 40
3.5000000000000004
  0
CIRCLE
  8
_0-0_
  6
CONTINUOUS
 62
    7
 10
17.65029176100802
 20
144.59265062184539
 40
3.5000000000000004
  0
LINE
  8
_0-0_
  6
CONTINUOUS
 62
    7
 10
14.495240761008063
 20
23.934637928576706
 11
15.368904761008253
 21
23.616647928576924
  0
LINE
  8
_0-0_
  6
CONTINUOUS
 62
    7
 10
16.052944761008348
 20
23.496037928576754
 11
19.247637761008264
 21
23.496037928576754
  0
LINE
  8
_0-0_
  6
CONTINUOUS
 62
    7
 10
19.931677761008359
 20
23.616647928576924
 11
20.805341761008094
 21
23.934637928576706
  0
ARC
  8
_0-0_
  6
CONTINUOUS
 62
    7
 10
16.052944761008348
 20
25.496037928576754
 40
2
 50
249.99999999999997
 51
270
  0
ARC
  8
_0-0_
  6
CONTINUOUS
 62
    7
 10
19.247637761008264
 20
25.496037928576754
 40
2
 50
270
 51
290
  0
ARC
  8
_0-0_
  6
CONTINUOUS
 62
    7
 10
15.350291761008066
 20
26.283867928576967
 40
2.5
 50
168.17822799457861
 51
250.00000000000003
  0
LINE
  8
_0-0_
  6
CONTINUOUS
 62
    7
 10
14.078753854215847
 20
26.796037928576936
 11
12.903317733540689
 21
26.796037928576936
  0
ARC
  8
_0-0_
  6
CONTINUOUS
 62
    7
 10
19.950291761007975
 20
26.283867928576967
 40
2.5
 50
290
 51
11.821772005421483
  0
LINE
  8
_0-0_
  6
CONTINUOUS
 62
    7
 10
22.397265788475352
 20
26.796037928576936
 11
21.22182866780031
 21
26.796037928576936
  0
LINE
  8
_0-0_
  6
CONTINUOUS
 62
    7
 10
20.900292854215877
 20
27.996037928576754
 11
21.22182866780031
 21
26.796037928576936
  0
LINE
  8
_0-0_
  6
CONTINUOUS
 62
    7
 10
14.078753854215847
 20
26.796037928576936
 11
14.40028966780028
 21
27.996037928576754
  0
LINE
  8
_0-0_
  6
CONTINUOUS
 62
    7
 10
20.900292854215877
 20
27.996037928576754
 11
14.40028966780028
 21
27.996037928576754
  0
LINE
  8
_0-0_
  6
CONTINUOUS
 62
    7
 10
44.495240761008063
 20
23.934637928576706
 11
45.368904761008253
 21
23.616647928576924
  0
LINE
  8
_0-0_
  6
CONTINUOUS
 62
    7
 10
46.052944761008348
 20
23.496037928576754
 11
49.247637761008264
 21
23.496037928576754
  0
LINE
  8
_0-0_
  6
CONTINUOUS
 62
    7
 10
49.931677761008359
 20
23.616647928576924
 11
50.805341761008094
 21
23.934637928576706
  0
ARC
  8
_0-0_
  6
CONTINUOUS
 62
    7
 10
46.052944761008348
 20
25.496037928576754
 40
2
 50
249.99999999999997
 51
270
  0
ARC
  8
_0-0_
  6
CONTINUOUS
 62
    7
 10
49.247637761008264
 20
25.496037928576754
 40
2
 50
270
 51
290
  0
ARC
  8
_0-0_
  6
CONTINUOUS
 62
    7
 10
45.350291761008066
 20
26.283867928576967
 40
2.5
 50
168.17822799457861
 51
250.00000000000003
  0
LINE
  8
_0-0_
  6
CONTINUOUS
 62
    7
 10
44.078753854215847
 20
26.796037928576936
 11
42.903317733540689
 21
26.796037928576936
  0
ARC
  8
_0-0_
  6
CONTINUOUS
 62
    7
 10
49.950291761007975
 20
26.283867928576967
 40
2.5
 50
290
 51
11.821772005421483
  0
LINE
  8
_0-0_
  6
CONTINUOUS
 62
    7
 10
52.397265788475352
 20
26.796037928576936
 11
51.22182866780031
 21
26.796037928576936
  0
LINE
  8
_0-0_
  6
CONTINUOUS
 62
    7
 10
50.900292854215877
 20
27.996037928576754
 11
51.22182866780031
 21
26.796037928576936
  0
LINE
  8
_0-0_
  6
CONTINUOUS
 62
    7
 10
44.078753854215847
 20
26.796037928576936
 11
44.40028966780028
 21
27.996037928576754
  0
LINE
  8
_0-0_
  6
CONTINUOUS
 62
    7
 10
50.900292854215877
 20
27.996037928576754
 11
44.40028966780028
 21
27.996037928576754
  0
LINE
  8
_0-0_
  6
CONTINUOUS
 62
    7
 10
109.23451594100806
 20
23.934637928576706
 11
110.10817994100825
 21
23.616647928576924
  0
LINE
  8
_0-0_
  6
CONTINUOUS
 62
    7
 10
110.79221994100834
 20
23.496037928576754
 11
113.98691294100826
 21
23.496037928576754
  0
LINE
  8
_0-0_
  6
CONTINUOUS
 62
    7
 10
114.67095294100835
 20
23.616647928576924
 11
115.54461694100809
 21
23.934637928576706
  0
ARC
  8
_0-0_
  6
CONTINUOUS
 62
    7
 10
110.79221994100834
 20
25.496037928576754
 40
2
 50
249.99999999999997
 51
270
  0
ARC
  8
_0-0_
  6
CONTINUOUS
 62
    7
 10
113.98691294100826
 20
25.496037928576754
 40
2
 50
270
 51
290
  0
ARC
  8
_0-0_
  6
CONTINUOUS
 62
    7
 10
110.08956694100806
 20
26.283867928576967
 40
2.5
 50
168.17822799457861
 51
250.00000000000003
  0
LINE
  8
_0-0_
  6
CONTINUOUS
 62
    7
 10
108.81802903421584
 20
26.796037928576936
 11
107.64259291354068
 21
26.796037928576936
  0
ARC
  8
_0-0_
  6
CONTINUOUS
 62
    7
 10
114.68956694100797
 20
26.283867928576967
 40
2.5
 50
290
 51
11.821772005421483
  0
LINE
  8
_0-0_
  6
CONTINUOUS
 62
    7
 10
117.13654096847534
 20
26.796037928576936
 11
115.96110384780025
 21
26.796037928576936
  0
LINE
  8
_0-0_
  6
CONTINUOUS
 62
    7
 10
115.63956803421593
 20
27.996037928576754
 11
115.96110384780025
 21
26.796037928576936
  0
LINE
  8
_0-0_
  6
CONTINUOUS
 62
    7
 10
108.81802903421584
 20
26.796037928576936
 11
109.13956484780027
 21
27.996037928576754
  0
LINE
  8
_0-0_
  6
CONTINUOUS
 62
    7
 10
115.63956803421593
 20
27.996037928576754
 11
109.13956484780027
 21
27.996037928576754
  0
LINE
  8
_0-0_
  6
CONTINUOUS
 62
    7
 10
139.23451594100806
 20
23.934637928576706
 11
140.10817994100825
 21
23.616647928576924
  0
LINE
  8
_0-0_
  6
CONTINUOUS
 62
    7
 10
140.79221994100834
 20
23.496037928576754
 11
143.98691294100826
 21
23.496037928576754
  0
LINE
  8
_0-0_
  6
CONTINUOUS
 62
    7
 10
144.67095294100835
 20
23.616647928576924
 11
145.54461694100809
 21
23.934637928576706
  0
ARC
  8
_0-0_
  6
CONTINUOUS
 62
    7
 10
140.79221994100834
 20
25.496037928576754
 40
2
 50
249.99999999999997
 51
270
  0
ARC
  8
_0-0_
  6
CONTINUOUS
 62
    7
 10
143.98691294100826
 20
25.496037928576754
 40
2
 50
270
 51
290
  0
ARC
  8
_0-0_
  6
CONTINUOUS
 62
    7
 10
140.08956694100806
 20
26.283867928576967
 40
2.5
 50
168.17822799457861
 51
250.00000000000003
  0
LINE
  8
_0-0_
  6
CONTINUOUS
 62
    7
 10
138.81802903421584
 20
26.796037928576936
 11
137.64259291354068
 21
26.796037928576936
  0
ARC
  8
_0-0_
  6
CONTINUOUS
 62
    7
 10
144.68956694100797
 20
26.283867928576967
 40
2.5
 50
290
 51
11.821772005421483
  0
LINE
  8
_0-0_
  6
CONTINUOUS
 62
    7
 10
147.13654096847534
 20
26.796037928576936
 11
145.96110384780025
 21
26.796037928576936
  0
LINE
  8
_0-0_
  6
CONTINUOUS
 62
    7
 10
145.63956803421593
 20
27.996037928576754
 11
145.96110384780025
 21
26.796037928576936
  0
LINE
  8
_0-0_
  6
CONTINUOUS
 62
    7
 10
138.81802903421584
 20
26.796037928576936
 11
139.13956484780027
 21
27.996037928576754
  0
LINE
  8
_0-0_
  6
CONTINUOUS
 62
    7
 10
145.63956803421593
 20
27.996037928576754
 11
139.13956484780027
 21
27.996037928576754
  0
LINE
  8
_0-0_
  6
CONTINUOUS
 62
    7
 10
192.32477709043565
 20
117.09265062184539
 11
192.32477709043565
 21
152.09265062184539
  0
ARC
  8
_0-0_
  6
CONTINUOUS
 62
    7
 10
188.32477709043565
 20
118.09265062184539
 40
1
 50
180
 51
270
  0
LINE
  8
_0-0_
  6
CONTINUOUS
 62
    7
 10
183.82477709043565
 20
117.09265062184539
 11
192.32477709043565
 21
117.09265062184539
  0
ARC
  8
_0-0_
  6
CONTINUOUS
 62
    7
 10
183.82477709043565
 20
118.09265062184539
 40
1
 50
180
 51
270
  0
LINE
  8
_0-0_
  6
CONTINUOUS
 62
    7
 10
187.32477709043565
 20
151.09265062184539
 11
187.32477709043565
 21
118.09265062184539
  0
ARC
  8
_0-0_
  6
CONTINUOUS
 62
    7
 10
188.32477709043565
 20
151.09265062184539
 40
1
 50
90
 51
180
  0
LINE
  8
_0-0_
  6
CONTINUOUS
 62
    7
 10
183.82477709043565
 20
152.09265062184539
 11
192.32477709043565
 21
152.09265062184539
  0
ARC
  8
_0-0_
  6
CONTINUOUS
 62
    7
 10
183.82477709043565
 20
151.09265062184539
 40
1
 50
90
 51
180
  0
LINE
  8
_0-0_
  6
CONTINUOUS
 62
    7
 10
182.82477709043565
 20
151.09265062184539
 11
182.82477709043565
 21
135.59265062184539
  0
LINE
  8
_0-0_
  6
CONTINUOUS
 62
    7
 10
182.82477709043565
 20
133.59265062184539
 11
182.82477709043565
 21
118.09265062184539
  0
LINE
  8
_0-0_
  6
CONTINUOUS
 62
    7
 10
182.82477709043565
 20
133.59265062184539
 11
187.32477709043565
 21
133.59265062184539
  0
LINE
  8
_0-0_
  6
CONTINUOUS
 62
    7
 10
182.82477709043565
 20
135.59265062184539
 11
187.32477709043565
 21
135.59265062184539
  0
LINE
  8
_0-0_
  6
CONTINUOUS
 62
    7
 10
182.82477709043565
 20
135.59265062184539
 11
182.82477709043565
 21
133.59265062184539
  0
LINE
  8
_0-0_
  6
CONTINUOUS
 62
    7
 10
186.82477709043519
 20
127.5926606254734
 11
187.32477709043565
 21
128.09266062547294
  0
LINE
  8
_0-0_
  6
CONTINUOUS
 62
    7
 10
186.82477709043519
 20
127.5926606254734
 11
186.82477709043519
 21
121.59266062547294
  0
LINE
  8
_0-0_
  6
CONTINUOUS
 62
    7
 10
186.82477709043519
 20
121.59266062547294
 11
187.32477709043565
 21
121.0926606254734
  0
LINE
  8
_0-0_
  6
CONTINUOUS
 62
    7
 10
186.82477709043519
 20
147.5926606254734
 11
187.32477709043565
 21
148.09266062547294
  0
LINE
  8
_0-0_
  6
CONTINUOUS
 62
    7
 10
186.82477709043519
 20
147.5926606254734
 11
186.82477709043519
 21
141.59266062547294
  0
LINE
  8
_0-0_
  6
CONTINUOUS
 62
    7
 10
186.82477709043519
 20
141.59266062547294
 11
187.32477709043565
 21
141.0926606254734
  0
LINE
  8
_0-0_
  6
CONTINUOUS
 62
    7
 10
232.64154533151657
 20
117.09265062184539
 11
232.64154533151657
 21
152.09265062184539
  0
ARC
  8
_0-0_
  6
CONTINUOUS
 62
    7
 10
228.64154533151657
 20
118.09265062184539
 40
1
 50
180
 51
270
  0
LINE
  8
_0-0_
  6
CONTINUOUS
 62
    7
 10
224.14154533151657
 20
117.09265062184539
 11
232.64154533151657
 21
117.09265062184539
  0
ARC
  8
_0-0_
  6
CONTINUOUS
 62
    7
 10
224.14154533151657
 20
118.09265062184539
 40
1
 50
180
 51
270
  0
LINE
  8
_0-0_
  6
CONTINUOUS
 62
    7
 10
227.64154533151657
 20
151.09265062184539
 11
227.64154533151657
 21
118.09265062184539
  0
ARC
  8
_0-0_
  6
CONTINUOUS
 62
    7
 10
228.64154533151657
 20
151.09265062184539
 40
1
 50
90
 51
180
  0
LINE
  8
_0-0_
  6
CONTINUOUS
 62
    7
 10
224.14154533151657
 20
152.09265062184539
 11
232.64154533151657
 21
152.09265062184539
  0
ARC
  8
_0-0_
  6
CONTINUOUS
 62
    7
 10
224.14154533151657
 20
151.09265062184539
 40
1
 50
90
 51
180
  0
LINE
  8
_0-0_
  6
CONTINUOUS
 62
    7
 10
223.14154533151657
 20
151.09265062184539
 11
223.14154533151657
 21
135.59265062184539
  0
LINE
  8
_0-0_
  6
CONTINUOUS
 62
    7
 10
223.14154533151657
 20
133.59265062184539
 11
223.14154533151657
 21
118.09265062184539
  0
LINE
  8
_0-0_
  6
CONTINUOUS
 62
    7
 10
223.14154533151657
 20
133.59265062184539
 11
227.64154533151657
 21
133.59265062184539
  0
LINE
  8
_0-0_
  6
CONTINUOUS
 62
    7
 10
223.14154533151657
 20
135.59265062184539
 11
227.64154533151657
 21
135.59265062184539
  0
LINE
  8
_0-0_
  6
CONTINUOUS
 62
    7
 10
223.14154533151657
 20
135.59265062184539
 11
223.14154533151657
 21
133.59265062184539
  0
LINE
  8
_0-0_
  6
CONTINUOUS
 62
    7
 10
227.14154533151611
 20
127.5926606254734
 11
227.64154533151657
 21
128.09266062547294
  0
LINE
  8
_0-0_
  6
CONTINUOUS
 62
    7
 10
227.14154533151611
 20
127.5926606254734
 11
227.14154533151611
 21
121.59266062547294
  0
LINE
  8
_0-0_
  6
CONTINUOUS
 62
    7
 10
227.14154533151611
 20
121.59266062547294
 11
227.64154533151657
 21
121.0926606254734
  0
LINE
  8
_0-0_
  6
CONTINUOUS
 62
    7
 10
227.14154533151611
 20
147.5926606254734
 11
227.64154533151657
 21
148.09266062547294
  0
LINE
  8
_0-0_
  6
CONTINUOUS
 62
    7
 10
227.14154533151611
 20
147.5926606254734
 11
227.14154533151611
 21
141.59266062547294
  0
LINE
  8
_0-0_
  6
CONTINUOUS
 62
    7
 10
227.14154533151611
 20
141.59266062547294
 11
227.64154533151657
 21
141.0926606254734
  0
LINE
  8
_0-0_
  6
CONTINUOUS
 62
    7
 10
233.24154533151653
 20
119.59265062184539
 11
233.24154533151653
 21
149.59265062184539
  0
LINE
  8
_0-0_
  6
CONTINUOUS
 62
    7
 10
234.44154533151652
 20
119.59265062184539
 11
234.44154533151652
 21
149.59265062184539
  0
LINE
  8
_0-0_
  6
CONTINUOUS
 62
    7
 10
233.24154533151653
 20
149.59265062184539
 11
237.74154533151653
 21
149.59265062184539
  0
LINE
  8
_0-0_
  6
CONTINUOUS
 62
    7
 10
233.24154533151653
 20
119.59265062184539
 11
237.74154533151653
 21
119.59265062184539
  0
LINE
  8
_0-0_
  6
CONTINUOUS
 62
    7
 10
237.74154533151653
 20
119.59265062184539
 11
237.74154533151653
 21
149.59265062184539
  0
LINE
  8
_0-3_
  6
PHANTOM1
 62
  152
 10
62.650291761008248
 20
13.59603792857672
 11
32.650291761008248
 21
13.59603792857672
  0
LINE
  8
_0-1_
  6
CENTER2
 62
  152
 10
112.38957694463579
 20
120.59265062184539
 11
112.38957694463579
 21
128.59265062184539
  0
LINE
  8
_0-1_
  6
CONTINUOUS
 62
  152
 10
111.38957694463625
 20
130.89265062184512
 11
111.38957694463625
 21
138.29265062184521
  0
LINE
  8
_0-1_
  6
CONTINUOUS
 62
  152
 10
111.08957694463606
 20
138.59265062184539
 11
108.68957694463597
 21
138.59265062184539
  0
LINE
  8
_0-1_
  6
CONTINUOUS
 62
  152
 10
108.38957694463579
 20
138.29265062184521
 11
108.38957694463579
 21
130.89265062184512
  0
LINE
  8
_0-1_
  6
CONTINUOUS
 62
  152
 10
108.68957694463597
 20
130.59265062184539
 11
111.08957694463606
 21
130.59265062184539
  0
LINE
  8
_0-1_
  6
CONTINUOUS
 62
  152
 10
110.33102694463605
 20
132.98258062184522
 11
110.33102694463605
 21
133.5026806218454
  0
LINE
  8
_0-1_
  6
CONTINUOUS
 62
  152
 10
109.59536694463577
 20
133.50015062184519
 11
109.59536694463577
 21
132.96916062184545
  0
LINE
  8
_0-1_
  6
CONTINUOUS
 62
  152
 10
109.76168694463604
 20
134.89409062184558
 11
110.10334694463609
 21
134.89409062184558
  0
LINE
  8
_0-1_
  6
CONTINUOUS
 62
  152
 10
110.10334694463609
 20
134.89409062184558
 11
110.10334694463609
 21
135.72854062184541
  0
LINE
  8
_0-1_
  6
CONTINUOUS
 62
  152
 10
110.10334694463609
 20
135.72854062184541
 11
110.57678694463584
 21
135.72854062184541
  0
LINE
  8
_0-1_
  6
CONTINUOUS
 62
  152
 10
110.57678694463584
 20
135.72854062184541
 11
110.57678694463584
 21
134.80612062184508
  0
LINE
  8
_0-1_
  6
CONTINUOUS
 62
  152
 10
110.57678694463584
 20
134.80612062184508
 11
110.94074694463598
 21
134.80612062184508
  0
LINE
  8
_0-1_
  6
CONTINUOUS
 62
  152
 10
110.94074694463598
 20
134.80612062184508
 11
110.94074694463598
 21
136.23584062184517
  0
LINE
  8
_0-1_
  6
CONTINUOUS
 62
  152
 10
110.94074694463598
 20
136.23584062184517
 11
108.89918694463586
 21
136.23584062184517
  0
LINE
  8
_0-1_
  6
CONTINUOUS
 62
  152
 10
108.89918694463586
 20
136.23584062184517
 11
108.89918694463586
 21
134.80612062184508
  0
LINE
  8
_0-1_
  6
CONTINUOUS
 62
  152
 10
108.89918694463586
 20
134.80612062184508
 11
109.26313694463579
 21
134.80612062184508
  0
LINE
  8
_0-1_
  6
CONTINUOUS
 62
  152
 10
109.26313694463579
 20
134.80612062184508
 11
109.26313694463579
 21
135.72854062184541
  0
LINE
  8
_0-1_
  6
CONTINUOUS
 62
  152
 10
109.26313694463579
 20
135.72854062184541
 11
109.76168694463604
 21
135.72854062184541
  0
LINE
  8
_0-1_
  6
CONTINUOUS
 62
  152
 10
109.76168694463604
 20
135.72854062184541
 11
109.76168694463604
 21
134.89409062184558
  0
LINE
  8
_0-1_
  6
CONTINUOUS
 62
  152
 10
109.26313694463579
 20
136.62864062184525
 11
109.26313694463579
 21
137.54887062184542
  0
LINE
  8
_0-1_
  6
CONTINUOUS
 62
  152
 10
109.26313694463579
 20
137.54887062184542
 11
110.94074694463598
 21
137.54887062184542
  0
LINE
  8
_0-1_
  6
CONTINUOUS
 62
  152
 10
110.94074694463598
 20
137.54887062184542
 11
110.94074694463598
 21
138.05798062184539
  0
LINE
  8
_0-1_
  6
CONTINUOUS
 62
  152
 10
110.94074694463598
 20
138.05798062184539
 11
108.89918694463586
 21
138.05798062184539
  0
LINE
  8
_0-1_
  6
CONTINUOUS
 62
  152
 10
108.89918694463586
 20
138.05798062184539
 11
108.89918694463586
 21
136.62864062184525
  0
LINE
  8
_0-1_
  6
CONTINUOUS
 62
  152
 10
108.89918694463586
 20
136.62864062184525
 11
109.26313694463579
 21
136.62864062184525
  0
LINE
  8
_0-1_
  6
CENTER2
 62
  152
 10
112.38957694463579
 20
140.59265062184539
 11
112.38957694463579
 21
148.59265062184539
  0
LINE
  8
_0-1_
  6
CONTINUOUS
 62
  152
 10
107.88957694463625
 20
151.09265062184539
 11
122.88957694463625
 21
151.09265062184539
  0
LINE
  8
_0-1_
  6
CONTINUOUS
 62
  152
 10
125.32801694463569
 20
152.09265062184539
 11
125.32801694463569
 21
135.59265062184539
  0
LINE
  8
_0-1_
  6
CONTINUOUS
 62
  152
 10
125.32801694463569
 20
133.59265062184539
 11
125.32801694463569
 21
117.09265062184539
  0
LINE
  8
_0-1_
  6
CENTER2
 62
  152
 10
127.38957694463579
 20
117.09265062184539
 11
127.38957694463579
 21
152.09265062184539
  0
LINE
  8
_0-1_
  6
CONTINUOUS
 62
  152
 10
129.45112694463614
 20
152.09265062184539
 11
129.45112694463614
 21
135.59265062184539
  0
LINE
  8
_0-1_
  6
CONTINUOUS
 62
  152
 10
129.45112694463614
 20
133.59265062184539
 11
129.45112694463614
 21
117.09265062184539
  0
LINE
  8
_0-1_
  6
CONTINUOUS
 62
  152
 10
131.88957694463579
 20
118.09265062184539
 11
146.88957694463579
 21
118.09265062184539
  0
LINE
  8
_0-1_
  6
CONTINUOUS
 62
  152
 10
148.88957694463625
 20
120.09265062184539
 11
148.88957694463625
 21
149.09265062184539
  0
LINE
  8
_0-1_
  6
CONTINUOUS
 62
  152
 10
146.88957694463579
 20
151.09265062184539
 11
133.47632694463618
 21
151.09265062184539
  0
LINE
  8
_0-1_
  6
CENTER2
 62
  152
 10
142.38957694463579
 20
148.59265062184539
 11
142.38957694463579
 21
140.59265062184539
  0
LINE
  8
_0-1_
  6
CONTINUOUS
 62
  152
 10
143.68957694463597
 20
138.59265062184539
 11
146.08957694463606
 21
138.59265062184539
  0
LINE
  8
_0-1_
  6
CONTINUOUS
 62
  152
 10
146.38957694463625
 20
138.29265062184521
 11
146.38957694463625
 21
130.89265062184512
  0
LINE
  8
_0-1_
  6
CONTINUOUS
 62
  152
 10
146.08957694463606
 20
130.59265062184539
 11
143.68957694463597
 21
130.59265062184539
  0
LINE
  8
_0-1_
  6
CONTINUOUS
 62
  152
 10
143.38957694463579
 20
130.89265062184512
 11
143.38957694463579
 21
138.29265062184521
  0
LINE
  8
_0-1_
  6
CONTINUOUS
 62
  152
 10
144.44811694463579
 20
136.20272062184512
 11
144.44811694463579
 21
135.68262062184539
  0
LINE
  8
_0-1_
  6
CONTINUOUS
 62
  152
 10
145.18377694463607
 20
135.68515062184514
 11
145.18377694463607
 21
136.21614062184534
  0
LINE
  8
_0-1_
  6
CONTINUOUS
 62
  152
 10
145.0174569446358
 20
134.29122062184541
 11
144.6757969446362
 21
134.29122062184541
  0
LINE
  8
_0-1_
  6
CONTINUOUS
 62
  152
 10
144.6757969446362
 20
134.29122062184541
 11
144.6757969446362
 21
133.45676062184538
  0
LINE
  8
_0-1_
  6
CONTINUOUS
 62
  152
 10
144.6757969446362
 20
133.45676062184538
 11
144.20235694463599
 21
133.45676062184538
  0
LINE
  8
_0-1_
  6
CONTINUOUS
 62
  152
 10
144.20235694463599
 20
133.45676062184538
 11
144.20235694463599
 21
134.37918062184525
  0
LINE
  8
_0-1_
  6
CONTINUOUS
 62
  152
 10
144.20235694463599
 20
134.37918062184525
 11
143.83839694463586
 21
134.37918062184525
  0
LINE
  8
_0-1_
  6
CONTINUOUS
 62
  152
 10
143.83839694463586
 20
134.37918062184525
 11
143.83839694463586
 21
132.94946062184516
  0
LINE
  8
_0-1_
  6
CONTINUOUS
 62
  152
 10
143.83839694463586
 20
132.94946062184516
 11
145.87995694463598
 21
132.94946062184516
  0
LINE
  8
_0-1_
  6
CONTINUOUS
 62
  152
 10
145.87995694463598
 20
132.94946062184516
 11
145.87995694463598
 21
134.37918062184525
  0
LINE
  8
_0-1_
  6
CONTINUOUS
 62
  152
 10
145.87995694463598
 20
134.37918062184525
 11
145.51600694463605
 21
134.37918062184525
  0
LINE
  8
_0-1_
  6
CONTINUOUS
 62
  152
 10
145.51600694463605
 20
134.37918062184525
 11
145.51600694463605
 21
133.45676062184538
  0
LINE
  8
_0-1_
  6
CONTINUOUS
 62
  152
 10
145.51600694463605
 20
133.45676062184538
 11
145.0174569446358
 21
133.45676062184538
  0
LINE
  8
_0-1_
  6
CONTINUOUS
 62
  152
 10
145.0174569446358
 20
133.45676062184538
 11
145.0174569446358
 21
134.29122062184541
  0
LINE
  8
_0-1_
  6
CONTINUOUS
 62
  152
 10
145.51600694463605
 20
132.55667062184529
 11
145.87995694463598
 21
132.55667062184529
  0
LINE
  8
_0-1_
  6
CONTINUOUS
 62
  152
 10
145.87995694463598
 20
132.55667062184529
 11
145.87995694463598
 21
131.1273206218454
  0
LINE
  8
_0-1_
  6
CONTINUOUS
 62
  152
 10
145.87995694463598
 20
131.1273206218454
 11
143.83839694463586
 21
131.1273206218454
  0
LINE
  8
_0-1_
  6
CONTINUOUS
 62
  152
 10
143.83839694463586
 20
131.1273206218454
 11
143.83839694463586
 21
131.63643062184536
  0
LINE
  8
_0-1_
  6
CONTINUOUS
 62
  152
 10
143.83839694463586
 20
131.63643062184536
 11
145.51600694463605
 21
131.63643062184536
  0
LINE
  8
_0-1_
  6
CONTINUOUS
 62
  152
 10
145.51600694463605
 20
131.63643062184536
 11
145.51600694463605
 21
132.55667062184529
  0
LINE
  8
_0-1_
  6
CENTER2
 62
  152
 10
142.38957694463579
 20
128.59265062184539
 11
142.38957694463579
 21
120.59265062184539
  0
LINE
  8
_0-1_
  6
CENTER2
 62
  152
 10
138.38957694463579
 20
124.59265062184539
 11
146.38957694463625
 21
124.59265062184539
  0
LINE
  8
_0-1_
  6
CENTER2
 62
  152
 10
146.38957694463625
 20
144.59265062184539
 11
138.38957694463579
 21
144.59265062184539
  0
LINE
  8
_0-1_
  6
CENTER2
 62
  152
 10
116.38957694463625
 20
144.59265062184539
 11
108.38957694463579
 21
144.59265062184539
  0
LINE
  8
_0-1_
  6
CONTINUOUS
 62
  152
 10
105.88957694463579
 20
149.09265062184539
 11
105.88957694463579
 21
120.09265062184539
  0
LINE
  8
_0-1_
  6
CONTINUOUS
 62
  152
 10
107.88957694463625
 20
118.09265062184539
 11
121.30281694463611
 21
118.09265062184539
  0
LINE
  8
_0-1_
  6
CENTER2
 62
  152
 10
116.38957694463625
 20
124.59265062184539
 11
108.38957694463579
 21
124.59265062184539
  0
ARC
  8
_0-1_
  6
CONTINUOUS
 62
  152
 10
107.88957694463625
 20
149.09265062184539
 40
2
 50
90
 51
180
  0
ARC
  8
_0-1_
  6
CONTINUOUS
 62
  152
 10
107.88957694463625
 20
120.09265062184539
 40
2
 50
180
 51
270
  0
ARC
  8
_0-1_
  6
CONTINUOUS
 62
  152
 10
109.38731694463604
 20
131.90082062184518
 40
0.1658629
 50
108.78093000000001
 51
251.21905999999998
  0
ARC
  8
_0-1_
  6
CONTINUOUS
 62
  152
 10
109.38731694463604
 20
133.69011062184535
 40
0.1658629
 50
108.78093000000001
 51
251.21905999999998
  0
ARC
  8
_0-1_
  6
CONTINUOUS
 62
  152
 10
110.38511694463614
 20
131.78889062184516
 40
0.5721789
 50
289.11811999999998
 51
343.77089000000001
  0
ARC
  8
_0-1_
  6
CONTINUOUS
 62
  152
 10
110.38511694463614
 20
132.01275062184521
 40
0.5721789
 50
16.229102999999999
 51
70.881879000000012
  0
ARC
  8
_0-1_
  6
CONTINUOUS
 62
  152
 10
109.8656169446358
 20
131.90082062184518
 40
1.1029028999999999
 50
345.73070000000007
 51
14.26929200000003
  0
ARC
  8
_0-1_
  6
CONTINUOUS
 62
  152
 10
110.26072694463619
 20
132.63703062184521
 40
0.9263072999999999
 50
269.28076999999996
 51
285.35525000000018
  0
ARC
  8
_0-1_
  6
CONTINUOUS
 62
  152
 10
110.45261694463625
 20
131.90082062184518
 40
0.1658629
 50
288.78093000000001
 51
71.219064999999986
  0
ARC
  8
_0-1_
  6
CONTINUOUS
 62
  152
 10
110.26072694463619
 20
131.16461062184516
 40
0.9263072999999999
 50
74.644740999999996
 51
90.719223999999997
  0
ARC
  8
_0-1_
  6
CONTINUOUS
 62
  152
 10
109.5792069446361
 20
131.16461062184516
 40
0.9263072999999999
 50
89.280775000000006
 51
105.35525
  0
ARC
  8
_0-1_
  6
CONTINUOUS
 62
  152
 10
109.5792069446361
 20
132.63703062184521
 40
0.9263072999999999
 50
254.64474000000007
 51
270.71922000000001
  0
ARC
  8
_0-1_
  6
CONTINUOUS
 62
  152
 10
109.91996694463614
 20
133.55680062184518
 40
2.3989862999999998
 50
254.21600000000007
 51
285.78399000000007
  0
ARC
  8
_0-1_
  6
CONTINUOUS
 62
  152
 10
109.45480694463595
 20
132.01275062184521
 40
0.5721789
 50
109.11812
 51
163.77089000000001
  0
ARC
  8
_0-1_
  6
CONTINUOUS
 62
  152
 10
109.45480694463595
 20
131.78889062184516
 40
0.5721789
 50
196.22910000000002
 51
250.88186999999999
  0
ARC
  8
_0-1_
  6
CONTINUOUS
 62
  152
 10
109.97430694463583
 20
131.90082062184518
 40
1.1029028999999999
 50
165.73070000000004
 51
194.26929000000004
  0
ARC
  8
_0-1_
  6
CONTINUOUS
 62
  152
 10
109.91996694463614
 20
137.79397062184552
 40
6.0927388999999996
 50
266.78919000000002
 51
273.21079999999995
  0
ARC
  8
_0-1_
  6
CONTINUOUS
 62
  152
 10
109.91996694463614
 20
126.00767062184531
 40
6.0927388999999996
 50
86.789190000000005
 51
93.210808999999998
  0
ARC
  8
_0-1_
  6
CONTINUOUS
 62
  152
 10
109.91996694463614
 20
130.24484062184519
 40
2.3989862999999998
 50
74.216001999999989
 51
105.78399000000002
  0
ARC
  8
_0-1_
  6
CONTINUOUS
 62
  152
 10
110.38511694463614
 20
133.80204062184538
 40
0.5721789
 50
16.229102999999999
 51
70.881879000000012
  0
ARC
  8
_0-1_
  6
CONTINUOUS
 62
  152
 10
109.8656169446358
 20
133.69011062184535
 40
1.1029028999999999
 50
345.73070000000007
 51
14.26929200000003
  0
ARC
  8
_0-1_
  6
CONTINUOUS
 62
  152
 10
109.91996694463614
 20
135.34609062184535
 40
2.3989862999999998
 50
279.86631999999997
 51
285.78399000000002
  0
ARC
  8
_0-1_
  6
CONTINUOUS
 62
  152
 10
110.38511694463614
 20
133.57818062184532
 40
0.5721789
 50
289.11811999999998
 51
343.77089000000001
  0
ARC
  8
_0-1_
  6
CONTINUOUS
 62
  152
 10
110.26072694463619
 20
134.42632062184538
 40
0.9263072999999999
 50
274.35280999999998
 51
285.35524999999984
  0
ARC
  8
_0-1_
  6
CONTINUOUS
 62
  152
 10
110.26072694463619
 20
132.95390062184532
 40
0.9263072999999999
 50
74.644740999999996
 51
90.719223999999997
  0
ARC
  8
_0-1_
  6
CONTINUOUS
 62
  152
 10
110.45261694463625
 20
133.69011062184535
 40
0.1658629
 50
288.78093000000001
 51
71.219064999999986
  0
ARC
  8
_0-1_
  6
CONTINUOUS
 62
  152
 10
109.5792069446361
 20
132.95390062184532
 40
0.9263072999999999
 50
89.280775000000006
 51
105.35525
  0
ARC
  8
_0-1_
  6
CONTINUOUS
 62
  152
 10
109.5792069446361
 20
134.42632062184538
 40
0.9263072999999999
 50
254.64474000000007
 51
271.00007000000005
  0
ARC
  8
_0-1_
  6
CONTINUOUS
 62
  152
 10
109.91996694463614
 20
135.34609062184535
 40
2.3989862999999998
 50
254.21600000000007
 51
262.22375000000005
  0
ARC
  8
_0-1_
  6
CONTINUOUS
 62
  152
 10
109.45480694463595
 20
133.57818062184532
 40
0.5721789
 50
196.22910000000002
 51
250.88186999999999
  0
ARC
  8
_0-1_
  6
CONTINUOUS
 62
  152
 10
109.97430694463583
 20
133.69011062184535
 40
1.1029028999999999
 50
165.73070000000004
 51
194.26929000000004
  0
ARC
  8
_0-1_
  6
CONTINUOUS
 62
  152
 10
109.45480694463595
 20
133.80204062184538
 40
0.5721789
 50
109.11812
 51
163.77089000000001
  0
ARC
  8
_0-1_
  6
CONTINUOUS
 62
  152
 10
109.91996694463614
 20
127.79696062184547
 40
6.0927388999999996
 50
86.789190000000005
 51
93.210808999999998
  0
ARC
  8
_0-1_
  6
CONTINUOUS
 62
  152
 10
109.91996694463614
 20
132.03413062184489
 40
2.3989862999999998
 50
74.216001999999989
 51
105.78399000000002
  0
ARC
  8
_0-1_
  6
CONTINUOUS
 62
  152
 10
108.68957694463597
 20
130.89265062184512
 40
0.2999999999999998
 50
180
 51
270
  0
ARC
  8
_0-1_
  6
CONTINUOUS
 62
  152
 10
111.08957694463606
 20
130.89265062184512
 40
0.2999999999999998
 50
270
 51
0
  0
ARC
  8
_0-1_
  6
CONTINUOUS
 62
  152
 10
111.08957694463606
 20
138.29265062184521
 40
0.2999999999999998
 50
0
 51
90
  0
ARC
  8
_0-1_
  6
CONTINUOUS
 62
  152
 10
108.68957694463597
 20
138.29265062184521
 40
0.2999999999999998
 50
90
 51
180
  0
ARC
  8
_0-1_
  6
CONTINUOUS
 62
  152
 10
146.88957694463579
 20
120.09265062184539
 40
2
 50
270
 51
0
  0
ARC
  8
_0-1_
  6
CONTINUOUS
 62
  152
 10
146.88957694463579
 20
149.09265062184539
 40
2
 50
0
 51
90
  0
ARC
  8
_0-1_
  6
CONTINUOUS
 62
  152
 10
145.39182694463625
 20
137.28448062184515
 40
0.1658629
 50
288.78093000000001
 51
71.219064999999986
  0
ARC
  8
_0-1_
  6
CONTINUOUS
 62
  152
 10
145.39182694463625
 20
135.49519062184544
 40
0.1658629
 50
288.78093000000001
 51
71.219064999999986
  0
ARC
  8
_0-1_
  6
CONTINUOUS
 62
  152
 10
144.39402694463615
 20
137.39642062184538
 40
0.5721789
 50
109.11812
 51
163.77089000000001
  0
ARC
  8
_0-1_
  6
CONTINUOUS
 62
  152
 10
144.39402694463615
 20
137.17255062184512
 40
0.5721789
 50
196.22910000000002
 51
250.88186999999999
  0
ARC
  8
_0-1_
  6
CONTINUOUS
 62
  152
 10
144.91352694463603
 20
137.28448062184515
 40
1.1029028999999999
 50
165.73070000000004
 51
194.26929000000004
  0
ARC
  8
_0-1_
  6
CONTINUOUS
 62
  152
 10
144.5184169446361
 20
136.54828062184487
 40
0.9263072999999999
 50
89.280775000000006
 51
105.35525
  0
ARC
  8
_0-1_
  6
CONTINUOUS
 62
  152
 10
144.32652694463604
 20
137.28448062184515
 40
0.1658629
 50
108.78093000000001
 51
251.21905999999998
  0
ARC
  8
_0-1_
  6
CONTINUOUS
 62
  152
 10
144.5184169446361
 20
138.02069062184518
 40
0.9263072999999999
 50
254.64474000000007
 51
270.71922000000001
  0
ARC
  8
_0-1_
  6
CONTINUOUS
 62
  152
 10
145.19993694463619
 20
138.02069062184518
 40
0.9263072999999999
 50
269.28076999999996
 51
285.35525000000018
  0
ARC
  8
_0-1_
  6
CONTINUOUS
 62
  152
 10
145.19993694463619
 20
136.54828062184487
 40
0.9263072999999999
 50
74.644740999999996
 51
90.719223999999997
  0
ARC
  8
_0-1_
  6
CONTINUOUS
 62
  152
 10
144.85917694463615
 20
135.62851062184535
 40
2.3989862999999998
 50
74.216001999999989
 51
105.78399000000002
  0
ARC
  8
_0-1_
  6
CONTINUOUS
 62
  152
 10
145.32433694463589
 20
137.17255062184512
 40
0.5721789
 50
289.11811999999998
 51
343.77089000000001
  0
ARC
  8
_0-1_
  6
CONTINUOUS
 62
  152
 10
145.32433694463589
 20
137.39642062184538
 40
0.5721789
 50
16.229102999999999
 51
70.881879000000012
  0
ARC
  8
_0-1_
  6
CONTINUOUS
 62
  152
 10
144.80483694463601
 20
137.28448062184515
 40
1.1029028999999999
 50
345.73070000000007
 51
14.26929200000003
  0
ARC
  8
_0-1_
  6
CONTINUOUS
 62
  152
 10
144.85917694463615
 20
131.39133062184527
 40
6.0927388999999996
 50
86.789190000000005
 51
93.210808999999998
  0
ARC
  8
_0-1_
  6
CONTINUOUS
 62
  152
 10
144.85917694463615
 20
143.17763062184548
 40
6.0927388999999996
 50
266.78919000000002
 51
273.21079999999995
  0
ARC
  8
_0-1_
  6
CONTINUOUS
 62
  152
 10
144.85917694463615
 20
138.94046062184515
 40
2.3989862999999998
 50
254.21600000000007
 51
285.78399000000007
  0
ARC
  8
_0-1_
  6
CONTINUOUS
 62
  152
 10
144.39402694463615
 20
135.38326062184541
 40
0.5721789
 50
196.22910000000002
 51
250.88186999999999
  0
ARC
  8
_0-1_
  6
CONTINUOUS
 62
  152
 10
144.91352694463603
 20
135.49519062184544
 40
1.1029028999999999
 50
165.73070000000004
 51
194.26929000000004
  0
ARC
  8
_0-1_
  6
CONTINUOUS
 62
  152
 10
144.85917694463615
 20
133.83921062184544
 40
2.3989862999999998
 50
99.866322000000039
 51
105.78399000000002
  0
ARC
  8
_0-1_
  6
CONTINUOUS
 62
  152
 10
144.39402694463615
 20
135.60712062184547
 40
0.5721789
 50
109.11812
 51
163.77089000000001
  0
ARC
  8
_0-1_
  6
CONTINUOUS
 62
  152
 10
144.5184169446361
 20
134.75898062184541
 40
0.9263072999999999
 50
94.352810000000019
 51
105.35525000000003
  0
ARC
  8
_0-1_
  6
CONTINUOUS
 62
  152
 10
144.5184169446361
 20
136.23140062184547
 40
0.9263072999999999
 50
254.64474000000007
 51
270.71922000000001
  0
ARC
  8
_0-1_
  6
CONTINUOUS
 62
  152
 10
144.32652694463604
 20
135.49519062184544
 40
0.1658629
 50
108.78093000000001
 51
251.21905999999998
  0
ARC
  8
_0-1_
  6
CONTINUOUS
 62
  152
 10
145.19993694463619
 20
136.23140062184547
 40
0.9263072999999999
 50
269.28076999999996
 51
285.35525000000018
  0
ARC
  8
_0-1_
  6
CONTINUOUS
 62
  152
 10
145.19993694463619
 20
134.75898062184541
 40
0.9263072999999999
 50
74.644740999999996
 51
91.000074999999995
  0
ARC
  8
_0-1_
  6
CONTINUOUS
 62
  152
 10
144.85917694463615
 20
133.83921062184544
 40
2.3989862999999998
 50
74.216001999999989
 51
82.223758000000032
  0
ARC
  8
_0-1_
  6
CONTINUOUS
 62
  152
 10
145.32433694463589
 20
135.60712062184547
 40
0.5721789
 50
16.229102999999999
 51
70.881879000000012
  0
ARC
  8
_0-1_
  6
CONTINUOUS
 62
  152
 10
144.80483694463601
 20
135.49519062184544
 40
1.1029028999999999
 50
345.73070000000007
 51
14.26929200000003
  0
ARC
  8
_0-1_
  6
CONTINUOUS
 62
  152
 10
145.32433694463589
 20
135.38326062184541
 40
0.5721789
 50
289.11811999999998
 51
343.77089000000001
  0
ARC
  8
_0-1_
  6
CONTINUOUS
 62
  152
 10
144.85917694463615
 20
141.38834062184532
 40
6.0927388999999996
 50
266.78919000000002
 51
273.21079999999995
  0
ARC
  8
_0-1_
  6
CONTINUOUS
 62
  152
 10
144.85917694463615
 20
137.15117062184498
 40
2.3989862999999998
 50
254.21600000000007
 51
285.78399000000007
  0
ARC
  8
_0-1_
  6
CONTINUOUS
 62
  152
 10
146.08957694463606
 20
138.29265062184521
 40
0.2999999999999998
 50
0
 51
90
  0
ARC
  8
_0-1_
  6
CONTINUOUS
 62
  152
 10
143.68957694463597
 20
138.29265062184521
 40
0.2999999999999998
 50
90
 51
180
  0
ARC
  8
_0-1_
  6
CONTINUOUS
 62
  152
 10
143.68957694463597
 20
130.89265062184512
 40
0.2999999999999998
 50
180
 51
270
  0
ARC
  8
_0-1_
  6
CONTINUOUS
 62
  152
 10
146.08957694463606
 20
130.89265062184512
 40
0.2999999999999998
 50
270
 51
0
  0
LINE
  8
_0-1_
  6
CENTER2
 62
  152
 10
51.900291761008475
 20
80.801460621845933
 11
43.400301761008222
 21
80.801460621845933
  0
LINE
  8
_0-1_
  6
CENTER2
 62
  152
 10
47.650291761008475
 20
76.551490621846085
 11
47.650291761008475
 21
85.051480621845883
  0
LINE
  8
_0-1_
  6
CENTER2
 62
  152
 10
35.150301761008222
 20
98.801470621846136
 11
30.150301761007995
 21
98.801470621846136
  0
LINE
  8
_0-1_
  6
CENTER2
 62
  152
 10
32.650301761008222
 20
96.301470621846136
 11
32.650301761008222
 21
101.30147062184614
  0
LINE
  8
_0-1_
  6
CENTER2
 62
  152
 10
17.650291761008248
 20
85.051480621845883
 11
17.650291761008248
 21
76.551490621846085
  0
LINE
  8
_0-1_
  6
CENTER2
 62
  152
 10
13.400301761007995
 20
80.801460621845933
 11
21.900291761008248
 21
80.801460621845933
  0
LINE
  8
_0-1_
  6
CENTER2
 62
  152
 10
108.13957694463579
 20
80.801460621845933
 11
116.63956694463604
 21
80.801460621845933
  0
LINE
  8
_0-1_
  6
CENTER2
 62
  152
 10
112.38956694463604
 20
76.551490621846085
 11
112.38956694463604
 21
85.051480621845883
  0
LINE
  8
_0-1_
  6
CENTER2
 62
  152
 10
124.88957694463579
 20
98.801470621846136
 11
129.88957694463579
 21
98.801470621846136
  0
LINE
  8
_0-1_
  6
CENTER2
 62
  152
 10
127.38957694463579
 20
96.301470621846136
 11
127.38957694463579
 21
101.30147062184614
  0
LINE
  8
_0-1_
  6
CENTER2
 62
  152
 10
142.38956694463604
 20
85.051480621845883
 11
142.38956694463604
 21
76.551490621846085
  0
LINE
  8
_0-1_
  6
CENTER2
 62
  152
 10
138.13957694463579
 20
80.801460621845933
 11
146.63956694463604
 21
80.801460621845933
  0
LINE
  8
_0-1_
  6
CENTER2
 62
  152
 10
35.150301761008222
 20
34.096037928577175
 11
30.150301761007995
 21
34.096037928577175
  0
LINE
  8
_0-1_
  6
CENTER2
 62
  152
 10
32.650301761008222
 20
31.596037928577175
 11
32.650301761008222
 21
36.596037928577175
  0
LINE
  8
_0-1_
  6
CENTER2
 62
  152
 10
17.650291761008248
 20
20.346047928576922
 11
17.650291761008248
 21
11.846057928577125
  0
LINE
  8
_0-1_
  6
CENTER2
 62
  152
 10
13.400301761007995
 20
16.096027928576973
 11
21.900291761008248
 21
16.096027928576973
  0
LINE
  8
_0-1_
  6
CENTER2
 62
  152
 10
124.88957694463579
 20
34.096037928577175
 11
129.88957694463579
 21
34.096037928577175
  0
LINE
  8
_0-1_
  6
CENTER2
 62
  152
 10
127.38957694463579
 20
31.596037928577175
 11
127.38957694463579
 21
36.596037928577175
  0
LINE
  8
_0-1_
  6
CENTER2
 62
  152
 10
142.38956694463604
 20
20.346047928576922
 11
142.38956694463604
 21
11.846057928577125
  0
LINE
  8
_0-1_
  6
CENTER2
 62
  152
 10
138.13957694463579
 20
16.096027928576973
 11
146.63956694463604
 21
16.096027928576973
  0
LINE
  8
_0-1_
  6
CENTER2
 62
  152
 10
47.650291761008248
 20
120.59265062184539
 11
47.650291761008248
 21
128.59265062184539
  0
LINE
  8
_0-1_
  6
CONTINUOUS
 62
  152
 10
48.650291761008248
 20
130.89265062184512
 11
48.650291761008248
 21
138.29265062184521
  0
LINE
  8
_0-1_
  6
CONTINUOUS
 62
  152
 10
48.95029176100843
 20
138.59265062184539
 11
51.350291761008521
 21
138.59265062184539
  0
LINE
  8
_0-1_
  6
CONTINUOUS
 62
  152
 10
51.650291761008702
 20
138.29265062184521
 11
51.650291761008702
 21
130.89265062184512
  0
LINE
  8
_0-1_
  6
CONTINUOUS
 62
  152
 10
51.350291761008521
 20
130.59265062184539
 11
48.95029176100843
 21
130.59265062184539
  0
LINE
  8
_0-1_
  6
CONTINUOUS
 62
  152
 10
49.099111761008317
 20
131.1273206218454
 11
49.099111761008317
 21
131.63643062184536
  0
LINE
  8
_0-1_
  6
CONTINUOUS
 62
  152
 10
49.099111761008317
 20
131.63643062184536
 11
50.776721761008503
 21
131.63643062184536
  0
LINE
  8
_0-1_
  6
CONTINUOUS
 62
  152
 10
50.776721761008503
 20
131.63643062184536
 11
50.776721761008503
 21
132.55667062184529
  0
LINE
  8
_0-1_
  6
CONTINUOUS
 62
  152
 10
50.776721761008503
 20
132.55667062184529
 11
51.140671761008434
 21
132.55667062184529
  0
LINE
  8
_0-1_
  6
CONTINUOUS
 62
  152
 10
51.140671761008434
 20
132.55667062184529
 11
51.140671761008434
 21
131.1273206218454
  0
LINE
  8
_0-1_
  6
CONTINUOUS
 62
  152
 10
51.140671761008434
 20
131.1273206218454
 11
49.099111761008317
 21
131.1273206218454
  0
LINE
  8
_0-1_
  6
CONTINUOUS
 62
  152
 10
49.099111761008317
 20
132.94946062184516
 11
49.099111761008317
 21
134.37918062184525
  0
LINE
  8
_0-1_
  6
CONTINUOUS
 62
  152
 10
49.099111761008317
 20
134.37918062184525
 11
49.46307176100845
 21
134.37918062184525
  0
LINE
  8
_0-1_
  6
CONTINUOUS
 62
  152
 10
49.46307176100845
 20
134.37918062184525
 11
49.46307176100845
 21
133.45676062184538
  0
LINE
  8
_0-1_
  6
CONTINUOUS
 62
  152
 10
49.46307176100845
 20
133.45676062184538
 11
49.93651176100866
 21
133.45676062184538
  0
LINE
  8
_0-1_
  6
CONTINUOUS
 62
  152
 10
49.93651176100866
 20
133.45676062184538
 11
49.93651176100866
 21
134.29122062184541
  0
LINE
  8
_0-1_
  6
CONTINUOUS
 62
  152
 10
49.93651176100866
 20
134.29122062184541
 11
50.278171761008252
 21
134.29122062184541
  0
LINE
  8
_0-1_
  6
CONTINUOUS
 62
  152
 10
50.278171761008252
 20
134.29122062184541
 11
50.278171761008252
 21
133.45676062184538
  0
LINE
  8
_0-1_
  6
CONTINUOUS
 62
  152
 10
50.278171761008252
 20
133.45676062184538
 11
50.776721761008503
 21
133.45676062184538
  0
LINE
  8
_0-1_
  6
CONTINUOUS
 62
  152
 10
50.776721761008503
 20
133.45676062184538
 11
50.776721761008503
 21
134.37918062184525
  0
LINE
  8
_0-1_
  6
CONTINUOUS
 62
  152
 10
50.776721761008503
 20
134.37918062184525
 11
51.140671761008434
 21
134.37918062184525
  0
LINE
  8
_0-1_
  6
CONTINUOUS
 62
  152
 10
51.140671761008434
 20
134.37918062184525
 11
51.140671761008434
 21
132.94946062184516
  0
LINE
  8
_0-1_
  6
CONTINUOUS
 62
  152
 10
51.140671761008434
 20
132.94946062184516
 11
49.099111761008317
 21
132.94946062184516
  0
LINE
  8
_0-1_
  6
CONTINUOUS
 62
  152
 10
49.708831761008241
 20
135.68262062184539
 11
49.708831761008241
 21
136.20272062184512
  0
LINE
  8
_0-1_
  6
CONTINUOUS
 62
  152
 10
50.444491761008521
 20
136.21614062184534
 11
50.444491761008521
 21
135.68515062184514
  0
LINE
  8
_0-1_
  6
CENTER2
 62
  152
 10
47.650291761008248
 20
140.59265062184539
 11
47.650291761008248
 21
148.59265062184539
  0
LINE
  8
_0-1_
  6
CONTINUOUS
 62
  152
 10
52.150291761008248
 20
151.09265062184539
 11
37.150291761008248
 21
151.09265062184539
  0
LINE
  8
_0-1_
  6
CONTINUOUS
 62
  152
 10
34.7118417610086
 20
152.09265062184539
 11
34.7118417610086
 21
135.59265062184539
  0
LINE
  8
_0-1_
  6
CONTINUOUS
 62
  152
 10
34.7118417610086
 20
133.59265062184539
 11
34.7118417610086
 21
117.09265062184539
  0
LINE
  8
_0-1_
  6
CENTER2
 62
  152
 10
32.650291761008248
 20
117.09265062184539
 11
32.650291761008248
 21
152.09265062184539
  0
LINE
  8
_0-1_
  6
CONTINUOUS
 62
  152
 10
30.588731761007921
 20
152.09265062184539
 11
30.588731761007921
 21
135.59265062184539
  0
LINE
  8
_0-1_
  6
CONTINUOUS
 62
  152
 10
30.588731761007921
 20
133.59265062184539
 11
30.588731761007921
 21
117.09265062184539
  0
LINE
  8
_0-1_
  6
CONTINUOUS
 62
  152
 10
28.150291761008475
 20
118.09265062184539
 11
13.150291761008475
 21
118.09265062184539
  0
LINE
  8
_0-1_
  6
CONTINUOUS
 62
  152
 10
11.15029176100802
 20
120.09265062184539
 11
11.15029176100802
 21
149.09265062184539
  0
LINE
  8
_0-1_
  6
CONTINUOUS
 62
  152
 10
13.150291761008475
 20
151.09265062184539
 11
26.563531761008335
 21
151.09265062184539
  0
LINE
  8
_0-1_
  6
CENTER2
 62
  152
 10
21.650291761008475
 20
144.59265062184539
 11
13.65029176100802
 21
144.59265062184539
  0
LINE
  8
_0-1_
  6
CONTINUOUS
 62
  152
 10
13.65029176100802
 20
138.29265062184521
 11
13.65029176100802
 21
130.89265062184512
  0
LINE
  8
_0-1_
  6
CONTINUOUS
 62
  152
 10
13.950291761008202
 20
130.59265062184539
 11
16.350291761008293
 21
130.59265062184539
  0
LINE
  8
_0-1_
  6
CONTINUOUS
 62
  152
 10
16.650291761008475
 20
130.89265062184512
 11
16.650291761008475
 21
138.29265062184521
  0
LINE
  8
_0-1_
  6
CONTINUOUS
 62
  152
 10
16.350291761008293
 20
138.59265062184539
 11
13.950291761008202
 21
138.59265062184539
  0
LINE
  8
_0-1_
  6
CONTINUOUS
 62
  152
 10
14.159901761008086
 20
138.05798062184539
 11
14.159901761008086
 21
136.62864062184525
  0
LINE
  8
_0-1_
  6
CONTINUOUS
 62
  152
 10
14.159901761008086
 20
136.62864062184525
 11
14.523851761008018
 21
136.62864062184525
  0
LINE
  8
_0-1_
  6
CONTINUOUS
 62
  152
 10
14.523851761008018
 20
136.62864062184525
 11
14.523851761008018
 21
137.54887062184542
  0
LINE
  8
_0-1_
  6
CONTINUOUS
 62
  152
 10
14.523851761008018
 20
137.54887062184542
 11
16.201461761008204
 21
137.54887062184542
  0
LINE
  8
_0-1_
  6
CONTINUOUS
 62
  152
 10
16.201461761008204
 20
137.54887062184542
 11
16.201461761008204
 21
138.05798062184539
  0
LINE
  8
_0-1_
  6
CONTINUOUS
 62
  152
 10
16.201461761008204
 20
138.05798062184539
 11
14.159901761008086
 21
138.05798062184539
  0
LINE
  8
_0-1_
  6
CONTINUOUS
 62
  152
 10
14.159901761008086
 20
136.23584062184517
 11
14.159901761008086
 21
134.80612062184508
  0
LINE
  8
_0-1_
  6
CONTINUOUS
 62
  152
 10
14.159901761008086
 20
134.80612062184508
 11
14.523851761008018
 21
134.80612062184508
  0
LINE
  8
_0-1_
  6
CONTINUOUS
 62
  152
 10
14.523851761008018
 20
134.80612062184508
 11
14.523851761008018
 21
135.72854062184541
  0
LINE
  8
_0-1_
  6
CONTINUOUS
 62
  152
 10
14.523851761008018
 20
135.72854062184541
 11
15.022401761008268
 21
135.72854062184541
  0
LINE
  8
_0-1_
  6
CONTINUOUS
 62
  152
 10
15.022401761008268
 20
135.72854062184541
 11
15.022401761008268
 21
134.89409062184558
  0
LINE
  8
_0-1_
  6
CONTINUOUS
 62
  152
 10
15.022401761008268
 20
134.89409062184558
 11
15.364061761008315
 21
134.89409062184558
  0
LINE
  8
_0-1_
  6
CONTINUOUS
 62
  152
 10
15.364061761008315
 20
134.89409062184558
 11
15.364061761008315
 21
135.72854062184541
  0
LINE
  8
_0-1_
  6
CONTINUOUS
 62
  152
 10
15.364061761008315
 20
135.72854062184541
 11
15.83750176100807
 21
135.72854062184541
  0
LINE
  8
_0-1_
  6
CONTINUOUS
 62
  152
 10
15.83750176100807
 20
135.72854062184541
 11
15.83750176100807
 21
134.80612062184508
  0
LINE
  8
_0-1_
  6
CONTINUOUS
 62
  152
 10
15.83750176100807
 20
134.80612062184508
 11
16.201461761008204
 21
134.80612062184508
  0
LINE
  8
_0-1_
  6
CONTINUOUS
 62
  152
 10
16.201461761008204
 20
134.80612062184508
 11
16.201461761008204
 21
136.23584062184517
  0
LINE
  8
_0-1_
  6
CONTINUOUS
 62
  152
 10
16.201461761008204
 20
136.23584062184517
 11
14.159901761008086
 21
136.23584062184517
  0
LINE
  8
_0-1_
  6
CONTINUOUS
 62
  152
 10
14.856081761007999
 20
133.50015062184519
 11
14.856081761007999
 21
132.96916062184545
  0
LINE
  8
_0-1_
  6
CONTINUOUS
 62
  152
 10
15.591741761008279
 20
132.98258062184522
 11
15.591741761008279
 21
133.5026806218454
  0
LINE
  8
_0-1_
  6
CENTER2
 62
  152
 10
17.65029176100802
 20
128.59265062184539
 11
17.65029176100802
 21
120.59265062184539
  0
LINE
  8
_0-1_
  6
CENTER2
 62
  152
 10
13.65029176100802
 20
124.59265062184539
 11
21.650291761008475
 21
124.59265062184539
  0
LINE
  8
_0-1_
  6
CENTER2
 62
  152
 10
17.65029176100802
 20
140.59265062184539
 11
17.65029176100802
 21
148.59265062184539
  0
LINE
  8
_0-1_
  6
CENTER2
 62
  152
 10
43.650291761008248
 20
144.59265062184539
 11
51.650291761008702
 21
144.59265062184539
  0
LINE
  8
_0-1_
  6
CONTINUOUS
 62
  152
 10
54.150291761008702
 20
149.09265062184539
 11
54.150291761008702
 21
120.09265062184539
  0
LINE
  8
_0-1_
  6
CONTINUOUS
 62
  152
 10
52.150291761008248
 20
118.09265062184539
 11
38.737041761008641
 21
118.09265062184539
  0
LINE
  8
_0-1_
  6
CENTER2
 62
  152
 10
43.650291761008248
 20
124.59265062184539
 11
51.650291761008702
 21
124.59265062184539
  0
ARC
  8
_0-1_
  6
CONTINUOUS
 62
  152
 10
52.150291761008248
 20
149.09265062184539
 40
2
 50
0
 51
90
  0
ARC
  8
_0-1_
  6
CONTINUOUS
 62
  152
 10
52.150291761008248
 20
120.09265062184539
 40
2
 50
270
 51
0
  0
ARC
  8
_0-1_
  6
CONTINUOUS
 62
  152
 10
13.150291761008475
 20
120.09265062184539
 40
2
 50
180
 51
270
  0
ARC
  8
_0-1_
  6
CONTINUOUS
 62
  152
 10
13.150291761008475
 20
149.09265062184539
 40
2
 50
90
 51
180
  0
ARC
  8
_0-1_
  6
CONTINUOUS
 62
  152
 10
50.652541761008706
 20
137.28448062184515
 40
0.1658629
 50
288.78093000000001
 51
71.219064999999986
  0
ARC
  8
_0-1_
  6
CONTINUOUS
 62
  152
 10
50.652541761008706
 20
135.49519062184544
 40
0.1658629
 50
288.78093000000001
 51
71.219064999999986
  0
ARC
  8
_0-1_
  6
CONTINUOUS
 62
  152
 10
49.654741761008609
 20
137.39642062184538
 40
0.5721789
 50
109.11812
 51
163.77089000000001
  0
ARC
  8
_0-1_
  6
CONTINUOUS
 62
  152
 10
49.654741761008609
 20
137.17255062184512
 40
0.5721789
 50
196.22910000000002
 51
250.88186999999999
  0
ARC
  8
_0-1_
  6
CONTINUOUS
 62
  152
 10
50.174241761008489
 20
137.28448062184515
 40
1.1029028999999999
 50
165.73070000000004
 51
194.26929000000004
  0
ARC
  8
_0-1_
  6
CONTINUOUS
 62
  152
 10
49.779131761008102
 20
136.54828062184487
 40
0.9263072999999999
 50
89.280775000000006
 51
105.35525
  0
ARC
  8
_0-1_
  6
CONTINUOUS
 62
  152
 10
49.587241761008499
 20
137.28448062184515
 40
0.1658629
 50
108.78093000000001
 51
251.21905999999998
  0
ARC
  8
_0-1_
  6
CONTINUOUS
 62
  152
 10
49.779131761008102
 20
138.02069062184518
 40
0.9263072999999999
 50
254.64474000000007
 51
270.71922000000001
  0
ARC
  8
_0-1_
  6
CONTINUOUS
 62
  152
 10
50.460651761008648
 20
138.02069062184518
 40
0.9263072999999999
 50
269.28076999999996
 51
285.35525000000018
  0
ARC
  8
_0-1_
  6
CONTINUOUS
 62
  152
 10
50.460651761008648
 20
136.54828062184487
 40
0.9263072999999999
 50
74.644740999999996
 51
90.719223999999997
  0
ARC
  8
_0-1_
  6
CONTINUOUS
 62
  152
 10
50.119891761008603
 20
135.62851062184535
 40
2.3989862999999998
 50
74.216001999999989
 51
105.78399000000002
  0
ARC
  8
_0-1_
  6
CONTINUOUS
 62
  152
 10
50.585051761008344
 20
137.17255062184512
 40
0.5721789
 50
289.11811999999998
 51
343.77089000000001
  0
ARC
  8
_0-1_
  6
CONTINUOUS
 62
  152
 10
50.585051761008344
 20
137.39642062184538
 40
0.5721789
 50
16.229102999999999
 51
70.881879000000012
  0
ARC
  8
_0-1_
  6
CONTINUOUS
 62
  152
 10
50.065551761008464
 20
137.28448062184515
 40
1.1029028999999999
 50
345.73070000000007
 51
14.26929200000003
  0
ARC
  8
_0-1_
  6
CONTINUOUS
 62
  152
 10
50.119891761008603
 20
131.39133062184527
 40
6.0927388999999996
 50
86.789190000000005
 51
93.210808999999998
  0
ARC
  8
_0-1_
  6
CONTINUOUS
 62
  152
 10
50.119891761008603
 20
143.17763062184548
 40
6.0927388999999996
 50
266.78919000000002
 51
273.21079999999995
  0
ARC
  8
_0-1_
  6
CONTINUOUS
 62
  152
 10
50.119891761008603
 20
138.94046062184515
 40
2.3989862999999998
 50
254.21600000000007
 51
285.78399000000007
  0
ARC
  8
_0-1_
  6
CONTINUOUS
 62
  152
 10
49.654741761008609
 20
135.38326062184541
 40
0.5721789
 50
196.22910000000002
 51
250.88186999999999
  0
ARC
  8
_0-1_
  6
CONTINUOUS
 62
  152
 10
50.174241761008489
 20
135.49519062184544
 40
1.1029028999999999
 50
165.73070000000004
 51
194.26929000000004
  0
ARC
  8
_0-1_
  6
CONTINUOUS
 62
  152
 10
50.119891761008603
 20
133.83921062184544
 40
2.3989862999999998
 50
99.866322000000039
 51
105.78399000000002
  0
ARC
  8
_0-1_
  6
CONTINUOUS
 62
  152
 10
49.654741761008609
 20
135.60712062184547
 40
0.5721789
 50
109.11812
 51
163.77089000000001
  0
ARC
  8
_0-1_
  6
CONTINUOUS
 62
  152
 10
49.779131761008102
 20
134.75898062184541
 40
0.9263072999999999
 50
94.352810000000019
 51
105.35525000000003
  0
ARC
  8
_0-1_
  6
CONTINUOUS
 62
  152
 10
49.779131761008102
 20
136.23140062184547
 40
0.9263072999999999
 50
254.64474000000007
 51
270.71922000000001
  0
ARC
  8
_0-1_
  6
CONTINUOUS
 62
  152
 10
49.587241761008499
 20
135.49519062184544
 40
0.1658629
 50
108.78093000000001
 51
251.21905999999998
  0
ARC
  8
_0-1_
  6
CONTINUOUS
 62
  152
 10
50.460651761008648
 20
136.23140062184547
 40
0.9263072999999999
 50
269.28076999999996
 51
285.35525000000018
  0
ARC
  8
_0-1_
  6
CONTINUOUS
 62
  152
 10
50.460651761008648
 20
134.75898062184541
 40
0.9263072999999999
 50
74.644740999999996
 51
91.000074999999995
  0
ARC
  8
_0-1_
  6
CONTINUOUS
 62
  152
 10
50.119891761008603
 20
133.83921062184544
 40
2.3989862999999998
 50
74.216001999999989
 51
82.223758000000032
  0
ARC
  8
_0-1_
  6
CONTINUOUS
 62
  152
 10
50.585051761008344
 20
135.60712062184547
 40
0.5721789
 50
16.229102999999999
 51
70.881879000000012
  0
ARC
  8
_0-1_
  6
CONTINUOUS
 62
  152
 10
50.065551761008464
 20
135.49519062184544
 40
1.1029028999999999
 50
345.73070000000007
 51
14.26929200000003
  0
ARC
  8
_0-1_
  6
CONTINUOUS
 62
  152
 10
50.585051761008344
 20
135.38326062184541
 40
0.5721789
 50
289.11811999999998
 51
343.77089000000001
  0
ARC
  8
_0-1_
  6
CONTINUOUS
 62
  152
 10
50.119891761008603
 20
141.38834062184532
 40
6.0927388999999996
 50
266.78919000000002
 51
273.21079999999995
  0
ARC
  8
_0-1_
  6
CONTINUOUS
 62
  152
 10
50.119891761008603
 20
137.15117062184498
 40
2.3989862999999998
 50
254.21600000000007
 51
285.78399000000007
  0
ARC
  8
_0-1_
  6
CONTINUOUS
 62
  152
 10
51.350291761008521
 20
138.29265062184521
 40
0.2999999999999998
 50
0
 51
90
  0
ARC
  8
_0-1_
  6
CONTINUOUS
 62
  152
 10
48.95029176100843
 20
138.29265062184521
 40
0.2999999999999998
 50
90
 51
180
  0
ARC
  8
_0-1_
  6
CONTINUOUS
 62
  152
 10
48.95029176100843
 20
130.89265062184512
 40
0.2999999999999998
 50
180
 51
270
  0
ARC
  8
_0-1_
  6
CONTINUOUS
 62
  152
 10
51.350291761008521
 20
130.89265062184512
 40
0.2999999999999998
 50
270
 51
0
  0
ARC
  8
_0-1_
  6
CONTINUOUS
 62
  152
 10
14.648031761008269
 20
131.90082062184518
 40
0.1658629
 50
108.78093000000001
 51
251.21905999999998
  0
ARC
  8
_0-1_
  6
CONTINUOUS
 62
  152
 10
14.648031761008269
 20
133.69011062184535
 40
0.1658629
 50
108.78093000000001
 51
251.21905999999998
  0
ARC
  8
_0-1_
  6
CONTINUOUS
 62
  152
 10
15.645831761008367
 20
131.78889062184516
 40
0.5721789
 50
289.11811999999998
 51
343.77089000000001
  0
ARC
  8
_0-1_
  6
CONTINUOUS
 62
  152
 10
15.645831761008367
 20
132.01275062184521
 40
0.5721789
 50
16.229102999999999
 51
70.881879000000012
  0
ARC
  8
_0-1_
  6
CONTINUOUS
 62
  152
 10
15.126331761008032
 20
131.90082062184518
 40
1.1029028999999999
 50
345.73070000000007
 51
14.26929200000003
  0
ARC
  8
_0-1_
  6
CONTINUOUS
 62
  152
 10
15.521441761008418
 20
132.63703062184521
 40
0.9263072999999999
 50
269.28076999999996
 51
285.35525000000018
  0
ARC
  8
_0-1_
  6
CONTINUOUS
 62
  152
 10
15.713331761008476
 20
131.90082062184518
 40
0.1658629
 50
288.78093000000001
 51
71.219064999999986
  0
ARC
  8
_0-1_
  6
CONTINUOUS
 62
  152
 10
15.521441761008418
 20
131.16461062184516
 40
0.9263072999999999
 50
74.644740999999996
 51
90.719223999999997
  0
ARC
  8
_0-1_
  6
CONTINUOUS
 62
  152
 10
14.839921761007872
 20
131.16461062184516
 40
0.9263072999999999
 50
89.280775000000006
 51
105.35525
  0
ARC
  8
_0-1_
  6
CONTINUOUS
 62
  152
 10
14.839921761007872
 20
132.63703062184521
 40
0.9263072999999999
 50
254.64474000000007
 51
270.71922000000001
  0
ARC
  8
_0-1_
  6
CONTINUOUS
 62
  152
 10
15.180681761008373
 20
133.55680062184518
 40
2.3989862999999998
 50
254.21600000000007
 51
285.78399000000007
  0
ARC
  8
_0-1_
  6
CONTINUOUS
 62
  152
 10
14.715521761008176
 20
132.01275062184521
 40
0.5721789
 50
109.11812
 51
163.77089000000001
  0
ARC
  8
_0-1_
  6
CONTINUOUS
 62
  152
 10
14.715521761008176
 20
131.78889062184516
 40
0.5721789
 50
196.22910000000002
 51
250.88186999999999
  0
ARC
  8
_0-1_
  6
CONTINUOUS
 62
  152
 10
15.235021761008511
 20
131.90082062184518
 40
1.1029028999999999
 50
165.73070000000004
 51
194.26929000000004
  0
ARC
  8
_0-1_
  6
CONTINUOUS
 62
  152
 10
15.180681761008373
 20
137.79397062184552
 40
6.0927388999999996
 50
266.78919000000002
 51
273.21079999999995
  0
ARC
  8
_0-1_
  6
CONTINUOUS
 62
  152
 10
15.180681761008373
 20
126.00767062184531
 40
6.0927388999999996
 50
86.789190000000005
 51
93.210808999999998
  0
ARC
  8
_0-1_
  6
CONTINUOUS
 62
  152
 10
15.180681761008373
 20
130.24484062184519
 40
2.3989862999999998
 50
74.216001999999989
 51
105.78399000000002
  0
ARC
  8
_0-1_
  6
CONTINUOUS
 62
  152
 10
15.645831761008367
 20
133.80204062184538
 40
0.5721789
 50
16.229102999999999
 51
70.881879000000012
  0
ARC
  8
_0-1_
  6
CONTINUOUS
 62
  152
 10
15.126331761008032
 20
133.69011062184535
 40
1.1029028999999999
 50
345.73070000000007
 51
14.26929200000003
  0
ARC
  8
_0-1_
  6
CONTINUOUS
 62
  152
 10
15.180681761008373
 20
135.34609062184535
 40
2.3989862999999998
 50
279.86631999999997
 51
285.78399000000002
  0
ARC
  8
_0-1_
  6
CONTINUOUS
 62
  152
 10
15.645831761008367
 20
133.57818062184532
 40
0.5721789
 50
289.11811999999998
 51
343.77089000000001
  0
ARC
  8
_0-1_
  6
CONTINUOUS
 62
  152
 10
15.521441761008418
 20
134.42632062184538
 40
0.9263072999999999
 50
274.35280999999998
 51
285.35524999999984
  0
ARC
  8
_0-1_
  6
CONTINUOUS
 62
  152
 10
15.521441761008418
 20
132.95390062184532
 40
0.9263072999999999
 50
74.644740999999996
 51
90.719223999999997
  0
ARC
  8
_0-1_
  6
CONTINUOUS
 62
  152
 10
15.713331761008476
 20
133.69011062184535
 40
0.1658629
 50
288.78093000000001
 51
71.219064999999986
  0
ARC
  8
_0-1_
  6
CONTINUOUS
 62
  152
 10
14.839921761007872
 20
132.95390062184532
 40
0.9263072999999999
 50
89.280775000000006
 51
105.35525
  0
ARC
  8
_0-1_
  6
CONTINUOUS
 62
  152
 10
14.839921761007872
 20
134.42632062184538
 40
0.9263072999999999
 50
254.64474000000007
 51
271.00007000000005
  0
ARC
  8
_0-1_
  6
CONTINUOUS
 62
  152
 10
15.180681761008373
 20
135.34609062184535
 40
2.3989862999999998
 50
254.21600000000007
 51
262.22375000000005
  0
ARC
  8
_0-1_
  6
CONTINUOUS
 62
  152
 10
14.715521761008176
 20
133.57818062184532
 40
0.5721789
 50
196.22910000000002
 51
250.88186999999999
  0
ARC
  8
_0-1_
  6
CONTINUOUS
 62
  152
 10
15.235021761008511
 20
133.69011062184535
 40
1.1029028999999999
 50
165.73070000000004
 51
194.26929000000004
  0
ARC
  8
_0-1_
  6
CONTINUOUS
 62
  152
 10
14.715521761008176
 20
133.80204062184538
 40
0.5721789
 50
109.11812
 51
163.77089000000001
  0
ARC
  8
_0-1_
  6
CONTINUOUS
 62
  152
 10
15.180681761008373
 20
127.79696062184547
 40
6.0927388999999996
 50
86.789190000000005
 51
93.210808999999998
  0
ARC
  8
_0-1_
  6
CONTINUOUS
 62
  152
 10
15.180681761008373
 20
132.03413062184489
 40
2.3989862999999998
 50
74.216001999999989
 51
105.78399000000002
  0
ARC
  8
_0-1_
  6
CONTINUOUS
 62
  152
 10
13.950291761008202
 20
130.89265062184512
 40
0.2999999999999998
 50
180
 51
270
  0
ARC
  8
_0-1_
  6
CONTINUOUS
 62
  152
 10
16.350291761008293
 20
130.89265062184512
 40
0.2999999999999998
 50
270
 51
0
  0
ARC
  8
_0-1_
  6
CONTINUOUS
 62
  152
 10
16.350291761008293
 20
138.29265062184521
 40
0.2999999999999998
 50
0
 51
90
  0
ARC
  8
_0-1_
  6
CONTINUOUS
 62
  152
 10
13.950291761008202
 20
138.29265062184521
 40
0.2999999999999998
 50
90
 51
180
  0
LINE
  8
_0-3_
  6
PHANTOM1
 62
  152
 10
80.01993435100826
 20
120.09265062184539
 11
80.01993435100826
 21
149.09265062184539
  0
LINE
  8
_0-3_
  6
PHANTOM1
 62
  152
 10
30.150291761008248
 20
3.5960379285767203
 11
5.1502917610082477
 21
3.5960379285767203
  0
LINE
  8
_0-3_
  6
PHANTOM1
 62
  152
 10
30.150291761008248
 20
28.59603792857672
 11
30.150291761008248
 21
3.5960379285767203
  0
LINE
  8
_0-3_
  6
PHANTOM1
 62
  152
 10
30.150291761008248
 20
28.59603792857672
 11
5.1502917610082477
 21
28.59603792857672
  0
LINE
  8
_0-3_
  6
PHANTOM1
 62
  152
 10
5.1502917610082477
 20
28.59603792857672
 11
5.1502917610082477
 21
3.5960379285767203
  0
LINE
  8
_0-3_
  6
PHANTOM1
 62
  152
 10
62.650291761008248
 20
28.59603792857672
 11
32.650291761008248
 21
28.59603792857672
  0
LINE
  8
_0-3_
  6
PHANTOM1
 62
  152
 10
62.650291761008248
 20
28.59603792857672
 11
62.650291761008248
 21
13.59603792857672
  0
LINE
  8
_0-3_
  6
PHANTOM1
 62
  152
 10
32.650291761008248
 20
28.59603792857672
 11
32.650291761008248
 21
13.59603792857672
  0
LINE
  8
_0-3_
  6
PHANTOM1
 62
  152
 10
5.1502917610082477
 20
108.59506973036207
 11
5.1502917610082477
 21
174.59667667181867
  0
LINE
  8
_0-3_
  6
PHANTOM1
 62
  152
 10
62.650291761008248
 20
108.59506973036207
 11
62.650291761008248
 21
174.59667667181867
  0
TEXT
  8
_0-e_
 62
    7
 10
9.8761926473475796
 20
158.04661260548897
 40
5
 41
1
 50
0
  1
H25W-L
  0
TEXT
  8
_0-e_
 62
    7
 10
106.30775788299928
 20
158.22530566564774
 40
5
 41
1
 50
0
  1
H25W-R
  0
LINE
  8
_0-3_
  6
PHANTOM1
 62
  152
 10
30.150291761008248
 20
108.59506973036207
 11
30.150291761008248
 21
117.09265062184539
  0
LINE
  8
_0-3_
  6
PHANTOM1
 62
  152
 10
30.150291761008248
 20
152.09265062184539
 11
30.150291761008248
 21
174.59667667181867
  0
LINE
  8
_0-3_
  6
PHANTOM1
 62
  152
 10
32.650291761008248
 20
108.59506973036207
 11
32.650291761008248
 21
117.09265062184539
  0
LINE
  8
_0-3_
  6
PHANTOM1
 62
  152
 10
32.650291761008248
 20
152.09265062184539
 11
32.650291761008248
 21
174.59667667181867
  0
LINE
  8
_0-3_
  6
PHANTOM1
 62
  152
 10
154.88957694100827
 20
108.59506973036207
 11
154.88957694100827
 21
174.59667667181867
  0
LINE
  8
_0-3_
  6
PHANTOM1
 62
  152
 10
129.88957694100827
 20
152.09265062184539
 11
129.88957694100827
 21
174.59667667181867
  0
LINE
  8
_0-3_
  6
PHANTOM1
 62
  152
 10
127.38957694100827
 20
152.09265062184539
 11
127.38957694100827
 21
174.59667667181867
  0
LINE
  8
_0-3_
  6
PHANTOM1
 62
  152
 10
97.389576941008272
 20
108.59506973036207
 11
97.389576941008272
 21
174.59667667181867
  0
LINE
  8
_0-3_
  6
PHANTOM1
 62
  152
 10
154.88957694100827
 20
28.59603792857672
 11
154.88957694100827
 21
3.5960379285767203
  0
LINE
  8
_0-3_
  6
PHANTOM1
 62
  152
 10
129.88957694100827
 20
28.59603792857672
 11
154.88957694100827
 21
28.59603792857672
  0
LINE
  8
_0-3_
  6
PHANTOM1
 62
  152
 10
129.88957694100827
 20
3.5960379285767203
 11
154.88957694100827
 21
3.5960379285767203
  0
LINE
  8
_0-3_
  6
PHANTOM1
 62
  152
 10
129.88957694100827
 20
28.59603792857672
 11
129.88957694100827
 21
3.5960379285767203
  0
LINE
  8
_0-3_
  6
PHANTOM1
 62
  152
 10
127.38957694100827
 20
28.59603792857672
 11
127.38957694100827
 21
13.59603792857672
  0
LINE
  8
_0-3_
  6
PHANTOM1
 62
  152
 10
97.389576941008272
 20
28.59603792857672
 11
127.38957694100827
 21
28.59603792857672
  0
LINE
  8
_0-3_
  6
PHANTOM1
 62
  152
 10
97.389576941008272
 20
28.59603792857672
 11
97.389576941008272
 21
13.59603792857672
  0
LINE
  8
_0-3_
  6
PHANTOM1
 62
  152
 10
97.389576941008272
 20
13.59603792857672
 11
127.38957694100827
 21
13.59603792857672
  0
LINE
  8
_0-3_
  6
PHANTOM1
 62
  152
 10
129.88957694100827
 20
108.59506973036207
 11
129.88957694100827
 21
117.09265062184539
  0
LINE
  8
_0-3_
  6
PHANTOM1
 62
  152
 10
127.38957694100827
 20
108.59506973036207
 11
127.38957694100827
 21
117.09265062184539
  0
LINE
  8
_0-1_
  6
CENTER2
 62
  152
 10
51.900291761008475
 20
21.09603792857672
 11
43.400301761008222
 21
21.09603792857672
  0
LINE
  8
_0-1_
  6
CENTER2
 62
  152
 10
47.650291761008475
 20
16.846067928576872
 11
47.650291761008475
 21
25.34605792857667
  0
LINE
  8
_0-1_
  6
CENTER2
 62
  152
 10
108.13957694463579
 20
21.09603792857672
 11
116.63956694463604
 21
21.09603792857672
  0
LINE
  8
_0-1_
  6
CENTER2
 62
  152
 10
112.38956694463604
 20
16.846067928576872
 11
112.38956694463604
 21
25.34605792857667
  0
LINE
  8
_0-1_
  6
CENTER2
 62
  152
 10
17.650291761008248
 20
35.622948126068366
 11
17.650291761008248
 21
22.66808113940607
  0
LINE
  8
_0-1_
  6
CENTER2
 62
  152
 10
47.650291761008248
 20
35.622948126068366
 11
47.650291761008248
 21
22.66808113940607
  0
LINE
  8
_0-1_
  6
CENTER2
 62
  152
 10
112.38956694100824
 20
35.622948126068366
 11
112.38956694100824
 21
22.66808113940607
  0
LINE
  8
_0-1_
  6
CENTER2
 62
  152
 10
142.38956694100824
 20
35.622948126068366
 11
142.38956694100824
 21
22.66808113940607
  0
LINE
  8
ADD_LINE
  6
DOT
 62
  152
 10
17.650291761008248
 20
28.59603792857672
 11
16.94318497984068
 21
27.888931147409266
  0
LINE
  8
ADD_LINE
  6
DOT
 62
  152
 10
18.357398542214014
 20
27.888931147409266
 11
17.650291761027347
 21
28.596037928595933
  0
LINE
  8
ADD_LINE
  6
DOT
 62
  152
 10
47.650291761008248
 20
28.59603792857672
 11
46.94318497984068
 21
27.888931147409266
  0
LINE
  8
ADD_LINE
  6
DOT
 62
  152
 10
48.357398542214014
 20
27.888931147409266
 11
47.650291761027347
 21
28.596037928595933
  0
LINE
  8
ADD_LINE
  6
DOT
 62
  152
 10
112.38956694100824
 20
28.59603792857672
 11
111.68246015984067
 21
27.888931147409266
  0
LINE
  8
ADD_LINE
  6
DOT
 62
  152
 10
113.09667372221401
 20
27.888931147409266
 11
112.38956694102734
 21
28.596037928595933
  0
LINE
  8
ADD_LINE
  6
DOT
 62
  152
 10
142.38956694100824
 20
28.59603792857672
 11
141.68246015984067
 21
27.888931147409266
  0
LINE
  8
ADD_LINE
  6
DOT
 62
  152
 10
143.09667372221401
 20
27.888931147409266
 11
142.38956694102734
 21
28.596037928595933
  0
LINE
  8
_0-1_
  6
CENTER2
 62
  152
 10
185.77077229097006
 20
124.59265062184539
 11
198.66048831212458
 21
124.59265062184539
  0
LINE
  8
_0-1_
  6
CENTER2
 62
  152
 10
185.77077229097006
 20
144.59265062184539
 11
198.66048831212458
 21
144.59265062184539
  0
LINE
  8
_0-1_
  6
CENTER2
 62
  152
 10
226.08754053205098
 20
124.59265062184539
 11
238.97725655320551
 21
124.59265062184539
  0
LINE
  8
_0-1_
  6
CENTER2
 62
  152
 10
226.08754053205098
 20
144.59265062184539
 11
238.97725655320551
 21
144.59265062184539
  0
LINE
  8
_0-3_
  6
PHANTOM1
 62
  152
 10
232.64154533100827
 20
108.59506973036207
 11
232.64154533100827
 21
174.59667667181867
  0
ENDSEC
  0
EOF
