  0
SECTION
  2
HEADER
  9
$ACADVER
  1
AC1009
  9
$INSBASE
 10
0
 20
0
 30
0
  9
$EXTMIN
 10
0
 20
0
  9
$EXTMAX
 10
1189
 20
841
  9
$LIMMIN
 10
0
 20
0
  9
$LIMMAX
 10
1189
 20
841
  9
$LTSCALE
 40
1
  0
ENDSEC
  0
SECTION
  2
TABLES
  0
TABLE
  2
LTYPE
 70
     9
  0
LTYPE
  2
CONTINUOUS
 70
    64
  3
実線
 72
    65
 73
     0
 40
0.0
  0
LTYPE
  2
DASHED1
 70
    64
  3
--  --  --  --  --  --  --  --  
 72
    65
 73
     2
 40
2.5
 49
1.25
 49
-1.25
  0
LTYPE
  2
DASHED2
 70
    64
  3
----    ----    ----    ----    
 72
    65
 73
     2
 40
5.0
 49
2.5
 49
-2.5
  0
LTYPE
  2
DASHED3
 70
    64
  3
------  ------  ------  ------  
 72
    65
 73
     2
 40
5.0
 49
3.75
 49
-1.25
  0
LTYPE
  2
CENTER1
 70
    64
  3
----- - ----- - ----- - ----- - 
 72
    65
 73
     4
 40
10.0
 49
6.25
 49
-1.25
 49
1.25
 49
-1.25
  0
LTYPE
  2
CENTER2
 70
    64
  3
----------  --  ----------  --  
 72
    65
 73
     4
 40
20.0
 49
12.5
 49
-2.5
 49
2.5
 49
-2.5
  0
LTYPE
  2
PHANTOM1
 70
    64
  3
--- - - --- - - --- - - --- - - 
 72
    65
 73
     6
 40
10.0
 49
3.25
 49
-1.25
 49
1.25
 49
-1.25
 49
1.25
 49
-1.25
  0
LTYPE
  2
PHANTOM2
 70
    64
  3
--------  -  -  --------  -  -  
 72
    65
 73
     6
 40
20.0
 49
10.0
 49
-2.5
 49
1.25
 49
-2.5
 49
1.25
 49
-2.5
  0
LTYPE
  2
DOT
 70
    64
  3
-   -   -   -   -   -   -   -   
 72
    65
 73
     2
 40
2.5
 49
0.625
 49
-1.875
  0
LTYPE
  2
DUMMY
 70
    64
  3
ダミー
 72
    65
 73
     0
 40
0.0
  0
LTYPE
  2
RAND1
 70
    64
  3
ランダム線1
 72
    65
 73
     4
 40
10.0
 49
1.0
 49
-2.0
 49
3.0
 49
-4.0
  0
LTYPE
  2
RAND2
 70
    64
  3
ランダム線2
 72
    65
 73
     4
 40
14.0
 49
2.0
 49
-3.0
 49
4.0
 49
-5.0
  0
LTYPE
  2
RAND3
 70
    64
  3
ランダム線3
 72
    65
 73
     4
 40
18.0
 49
3.0
 49
-4.0
 49
5.0
 49
-6.0
  0
LTYPE
  2
RAND4
 70
    64
  3
ランダム線4
 72
    65
 73
     4
 40
22.0
 49
4.0
 49
-5.0
 49
6.0
 49
-7.0
  0
LTYPE
  2
RAND5
 70
    64
  3
ランダム線5
 72
    65
 73
     4
 40
26.0
 49
5.0
 49
-6.0
 49
7.0
 49
-8.0
  0
LTYPE
  2
LONG1
 70
    64
  3
----------  --  ----------  --  
 72
    65
 73
     4
 40
40.0
 49
32.5
 49
-2.5
 49
2.5
 49
-2.5
  0
LTYPE
  2
LONG2
 70
    64
  3
--------  -  -  --------  -  -  
 72
    65
 73
     6
 40
40.0
 49
30.0
 49
-2.5
 49
1.25
 49
-2.5
 49
1.25
 49
-2.5
  0
LTYPE
  2
LONG3
 70
    64
  3
+++++++++++++++..+++++++++++++++
 72
    65
 73
     2
 40
40.0
 49
37.5
 49
-2.5
  0
LTYPE
  2
LONG4
 70
    64
  3
+++++++++++++++..+++++++++++++++
 72
    65
 73
     2
 40
80.0
 49
75.0
 49
-5.0
  0
LTYPE
  2
LONG5
 70
    64
  3
----------  --  ----------  --  
 72
    65
 73
     4
 40
60.0
 49
37.5
 49
-7.5
 49
7.5
 49
-7.5
  0
LTYPE
  2
dashed
 70
   64
  3
-------   -------------   ------
 72
   65
 73
    2
 40
7.5
 49
6
 49
-1.5
  0
LTYPE
  2
dashed_spaced
 70
   64
  3
----        --------        ----
 72
   65
 73
    2
 40
12
 49
6
 49
-6
  0
LTYPE
  2
long_dashed_dotted
 70
   64
  3
------------- --- --------------
 72
   65
 73
    4
 40
15.25
 49
12
 49
-1.5
 49
0.25
 49
-1.5
  0
LTYPE
  2
long_dashed_double-dotted
 70
   64
  3
----------- --- --- ------------
 72
   65
 73
    6
 40
17
 49
12
 49
-1.5
 49
0.25
 49
-1.5
 49
0.25
 49
-1.5
  0
LTYPE
  2
long_dashed_triplicate-dotted
 70
   64
  3
--------- --- --- --- ----------
 72
   65
 73
    8
 40
18.75
 49
12
 49
-1.5
 49
0.25
 49
-1.5
 49
0.25
 49
-1.5
 49
0.25
 49
-1.5
  0
LTYPE
  2
dotted
 70
   64
  3
   -       -       -       -    
 72
   65
 73
    2
 40
1.75
 49
0.25
 49
-1.5
  0
LTYPE
  2
chain
 70
   64
  3
-------------- -- --------------
 72
   65
 73
    4
 40
18.5
 49
12
 49
-1.5
 49
3.5
 49
-1.5
  0
LTYPE
  2
chain_double_dash
 70
   64
  3
------------ -- -- -------------
 72
   65
 73
    6
 40
23.5
 49
12
 49
-1.5
 49
3.5
 49
-1.5
 49
3.5
 49
-1.5
  0
LTYPE
  2
dashed_dotted
 70
   64
  3
-----------     -     ----------
 72
   65
 73
    4
 40
9.25
 49
6
 49
-1.5
 49
0.25
 49
-1.5
  0
LTYPE
  2
double-dashed_dotted
 70
   64
  3
------   -----------   -   -----
 72
   65
 73
    6
 40
16.75
 49
6
 49
-1.5
 49
6
 49
-1.5
 49
0.25
 49
-1.5
  0
LTYPE
  2
dashed_double-dotted
 70
   64
  3
---------    -    -    ---------
 72
   65
 73
    6
 40
11
 49
6
 49
-1.5
 49
0.25
 49
-1.5
 49
0.25
 49
-1.5
  0
LTYPE
  2
double-dashed_double-dotted
 70
   64
  3
-----   ---------   -   -   ----
 72
   65
 73
    8
 40
18.5
 49
6
 49
-1.5
 49
6
 49
-1.5
 49
0.25
 49
-1.5
 49
0.25
 49
-1.5
  0
LTYPE
  2
dashed_triplicate-dotted
 70
   64
  3
-------    -    -    -    ------
 72
   65
 73
    8
 40
12.75
 49
6
 49
-1.5
 49
0.25
 49
-1.5
 49
0.25
 49
-1.5
 49
0.25
 49
-1.5
  0
LTYPE
  2
double-dashed_triplicate-dotted
 70
   64
  3
-----  ---------  -  -  -  -----
 72
   65
 73
   10
 40
20.25
 49
6
 49
-1.5
 49
6
 49
-1.5
 49
0.25
 49
-1.5
 49
0.25
 49
-1.5
 49
0.25
 49
-1.5
  0
LTYPE
  2
undefined
 70
   64
  3
--------------------------------
 72
   65
 73
    0
 40
0
  0
LTYPE
  2
_
 70
   64
  3
                                
 72
   65
 73
    0
 40
0
  0
LTYPE
  2
__18
 70
   64
  3
                                
 72
   65
 73
    0
 40
0
  0
LTYPE
  2
__19
 70
   64
  3
                                
 72
   65
 73
    0
 40
0
  0
LTYPE
  2
__20
 70
   64
  3
                                
 72
   65
 73
    0
 40
0
  0
LTYPE
  2
__21
 70
   64
  3
                                
 72
   65
 73
    0
 40
0
  0
LTYPE
  2
__22
 70
   64
  3
                                
 72
   65
 73
    0
 40
0
  0
LTYPE
  2
__23
 70
   64
  3
                                
 72
   65
 73
    0
 40
0
  0
LTYPE
  2
__24
 70
   64
  3
                                
 72
   65
 73
    0
 40
0
  0
LTYPE
  2
__25
 70
   64
  3
                                
 72
   65
 73
    0
 40
0
  0
LTYPE
  2
__26
 70
   64
  3
                                
 72
   65
 73
    0
 40
0
  0
LTYPE
  2
__27
 70
   64
  3
                                
 72
   65
 73
    0
 40
0
  0
LTYPE
  2
__28
 70
   64
  3
                                
 72
   65
 73
    0
 40
0
  0
LTYPE
  2
__29
 70
   64
  3
                                
 72
   65
 73
    0
 40
0
  0
LTYPE
  2
__30
 70
   64
  3
                                
 72
   65
 73
    0
 40
0
  0
LTYPE
  2
__31
 70
   64
  3
                                
 72
   65
 73
    0
 40
0
  0
LTYPE
  2
__32
 70
   64
  3
                                
 72
   65
 73
    0
 40
0
  0
ENDTAB
  0
TABLE
  2
STYLE
  5
3
100
AcDbSymbolTable
 70
     1
  0
STYLE
  5
10
100
AcDbSymbolTableRecord
100
AcDbTextStyleTableRecord
  2
STANDARD
 70
     0
 40
0.0
 41
1.0
 50
0.0
 71
     0
 42
0.2
  3
txt
  4
bigfont.shx
  0
STYLE
  5
26
100
AcDbSymbolTableRecord
100
AcDbTextStyleTableRecord
  2
TATEGAKI
 70
    68
 40
0.0
 41
1.0
 50
0.0
 71
     0
 42
1.0
  3
txt
  4
bigfont.shx
  0
ENDTAB
  0
TABLE
  2
LAYER
 70
    4
  0
LAYER
  2
_0-0_
 70
   64
 62
    7
  6
CONTINUOUS
  0
LAYER
  2
_0-1_
 70
   64
 62
    7
  6
CONTINUOUS
  0
LAYER
  2
_0-f_
 70
   64
 62
    7
  6
CONTINUOUS
  0
LAYER
  2
ADD_LINE
 70
   64
 62
    7
  6
CONTINUOUS
  0
ENDTAB
  0
ENDSEC
  0
SECTION
  2
BLOCKS
  0
ENDSEC
  0
SECTION
  2
ENTITIES
  0
TEXT
  8
_0-f_
 62
    7
 10
2.037503942207195
 20
1.453844144836637
 40
4.2999999999999998
 41
0.744186046511628
 50
0
  1
GS44
  0
LINE
  8
_0-0_
  6
CONTINUOUS
 62
    7
 10
6.6701789057484575
 20
63.852955658731275
 11
6.6701789057484575
 21
14.852955658730878
  0
LINE
  8
_0-0_
  6
CONTINUOUS
 62
    7
 10
11.670178905748458
 20
9.8529556587308775
 11
93.670178905748458
 21
9.8529556587308775
  0
LINE
  8
_0-0_
  6
CONTINUOUS
 62
    7
 10
98.670178905748458
 20
14.852955658730878
 11
98.670178905748458
 21
63.852955658731275
  0
LINE
  8
_0-0_
  6
CONTINUOUS
 62
    7
 10
93.670178905748458
 20
68.852955658731275
 11
11.670178905748458
 21
68.852955658731275
  0
CIRCLE
  8
_0-0_
  6
CONTINUOUS
 62
    7
 10
22.670178905748458
 20
60.852955658731275
 40
3.0499999999999998
  0
CIRCLE
  8
_0-0_
  6
CONTINUOUS
 62
    7
 10
52.670178905748458
 20
60.852955658731275
 40
3.0499999999999998
  0
CIRCLE
  8
_0-0_
  6
CONTINUOUS
 62
    7
 10
82.670178905748458
 20
60.852955658731275
 40
3.0499999999999998
  0
CIRCLE
  8
_0-0_
  6
CONTINUOUS
 62
    7
 10
22.670178905748458
 20
25.352955658730423
 40
3.0499999999999998
  0
CIRCLE
  8
_0-0_
  6
CONTINUOUS
 62
    7
 10
52.670178905748458
 20
30.352955658730878
 40
3.0499999999999998
  0
CIRCLE
  8
_0-0_
  6
CONTINUOUS
 62
    7
 10
82.670178905748458
 20
25.352955658730423
 40
3.0499999999999998
  0
CIRCLE
  8
_0-0_
  6
CONTINUOUS
 62
    7
 10
52.670178905748458
 20
20.352955658730423
 40
3.0499999999999998
  0
ARC
  8
_0-0_
  6
CONTINUOUS
 62
    7
 10
11.670178905748458
 20
63.852955658731275
 40
5
 50
90
 51
180
  0
ARC
  8
_0-0_
  6
CONTINUOUS
 62
    7
 10
93.670178905748458
 20
63.852955658731275
 40
5
 50
0
 51
90.000000000000028
  0
ARC
  8
_0-0_
  6
CONTINUOUS
 62
    7
 10
93.670178905748458
 20
14.852955658730878
 40
5
 50
270
 51
0
  0
ARC
  8
_0-0_
  6
CONTINUOUS
 62
    7
 10
11.670178905748458
 20
14.852955658730878
 40
5
 50
180
 51
270
  0
LINE
  8
_0-0_
  6
CONTINUOUS
 62
    7
 10
98.670178905748458
 20
107.89433262949217
 11
98.670178905748458
 21
105.89433262949217
  0
LINE
  8
_0-0_
  6
CONTINUOUS
 62
    7
 10
6.6701789057484575
 20
107.89433262949274
 11
6.6701789057484575
 21
105.89433262949274
  0
LINE
  8
_0-0_
  6
CONTINUOUS
 62
    7
 10
98.670178905748458
 20
105.89433262949217
 11
6.6701789057484575
 21
105.89433262949274
  0
LINE
  8
_0-0_
  6
CONTINUOUS
 62
    7
 10
98.670178905748458
 20
107.89433262949217
 11
6.6701789057484575
 21
107.89433262949274
  0
LINE
  8
_0-1_
  6
CENTER1
 62
  152
 10
18.199791523479348
 20
60.852955658731275
 11
87.811687758014727
 21
60.852955658731275
  0
LINE
  8
_0-1_
  6
CENTER1
 62
  152
 10
82.670178905748458
 20
64.986156243936762
 11
82.670178905748458
 21
20.577788129281942
  0
LINE
  8
_0-1_
  6
CENTER1
 62
  152
 10
88.188505876015029
 20
25.352955658730423
 11
17.219887559817494
 21
25.352955658730423
  0
LINE
  8
_0-1_
  6
CENTER1
 62
  152
 10
22.670178905748458
 20
20.184972898749436
 11
22.670178905748458
 21
64.986156243936762
  0
LINE
  8
_0-1_
  6
CENTER1
 62
  152
 10
52.670178905748458
 20
64.986156243936762
 11
52.670178905748458
 21
57.192618024174749
  0
LINE
  8
_0-1_
  6
CENTER1
 62
  152
 10
52.670178905748458
 20
47.008974816378611
 11
52.670178905748458
 21
15.471190132360277
  0
LINE
  8
_0-1_
  6
CENTER1
 62
  152
 10
57.417979484306329
 20
20.352955658730423
 11
47.335721900639896
 21
20.352955658730423
  0
LINE
  8
_0-1_
  6
CENTER1
 62
  152
 10
47.335721900639896
 20
30.352955658730878
 11
57.417979484306329
 21
30.352955658730878
  0
LINE
  8
_0-1_
  6
CENTER1
 62
  152
 10
22.670178905736975
 20
110.63249096344168
 11
22.670178905736975
 21
102.00227400091705
  0
LINE
  8
_0-1_
  6
CENTER1
 62
  152
 10
52.670178905736975
 20
110.63249096344168
 11
52.670178905736975
 21
102.00227400091705
  0
LINE
  8
_0-1_
  6
CENTER1
 62
  152
 10
82.670178905736918
 20
110.63249096344168
 11
82.670178905736918
 21
102.00227400091705
  0
LINE
  8
_0-0_
  6
CONTINUOUS
 62
    7
 10
128.49961900574846
 20
9.8529556587308775
 11
128.49961900574846
 21
68.852955658731275
  0
LINE
  8
_0-0_
  6
CONTINUOUS
 62
    7
 10
126.49961900574846
 20
9.8529556587308775
 11
128.49961900574846
 21
9.8529556587308775
  0
LINE
  8
_0-0_
  6
CONTINUOUS
 62
    7
 10
126.49961900574846
 20
9.8529556587308775
 11
126.49961900574846
 21
68.852955658731275
  0
LINE
  8
_0-0_
  6
CONTINUOUS
 62
    7
 10
126.49961900574846
 20
68.852955658731275
 11
128.49961900574846
 21
68.852955658731275
  0
LINE
  8
_0-1_
  6
CENTER1
 62
  152
 10
119.21499183491591
 20
60.852955658731275
 11
135.80550788754323
 21
60.852955658731275
  0
LINE
  8
_0-0_
  6
CONTINUOUS
 62
    7
 10
123.49961900574846
 20
68.852955658731275
 11
126.49961900574846
 21
68.852955658731275
  0
LINE
  8
_0-0_
  6
CONTINUOUS
 62
    7
 10
123.49961900574846
 20
52.852955658731275
 11
123.49961900574846
 21
68.852955658731275
  0
LINE
  8
_0-0_
  6
CONTINUOUS
 62
    7
 10
123.49961900574846
 20
52.852955658731275
 11
126.49961900574846
 21
52.852955658731275
  0
LINE
  8
ADD_LINE
  6
DOT
 62
    9
 10
123.49961900574846
 20
60.852955658731275
 11
124.20672578693501
 21
61.560062439917942
  0
LINE
  8
ADD_LINE
  6
DOT
 62
    9
 10
123.49961900574846
 20
60.852955658731275
 11
124.20672578693501
 21
60.145848877544609
  0
LINE
  8
_0-0_
  6
CONTINUOUS
 62
  152
 10
118.09961891038103
 20
62.727955658731275
 11
123.49961900574846
 21
62.727955658731275
  0
LINE
  8
_0-0_
  6
CONTINUOUS
 62
  152
 10
118.09961891038103
 20
63.352955658731275
 11
123.49961900574846
 21
63.352955658731275
  0
LINE
  8
_0-0_
  6
CONTINUOUS
 62
  152
 10
118.09961891038103
 20
63.977955658731275
 11
123.49961900574846
 21
63.977955658731275
  0
LINE
  8
_0-0_
  6
CONTINUOUS
 62
  152
 10
118.09961891038103
 20
64.602955658731275
 11
123.49961900574846
 21
64.602955658731275
  0
LINE
  8
_0-0_
  6
CONTINUOUS
 62
  152
 10
118.09961891038103
 20
65.227955658731275
 11
123.49961900574846
 21
65.227955658731275
  0
LINE
  8
_0-0_
  6
CONTINUOUS
 62
  152
 10
123.49961900574846
 20
58.302955706414991
 11
135.49961900574846
 21
58.302955706414991
  0
LINE
  8
_0-0_
  6
CONTINUOUS
 62
  152
 10
123.49961900574846
 20
63.40295561104756
 11
135.49961900574846
 21
63.40295561104756
  0
LINE
  8
_0-0_
  6
CONTINUOUS
 62
   56
 10
118.09961891038103
 20
55.852955658731275
 11
123.49961900574846
 21
55.852955658731275
  0
LINE
  8
_0-0_
  6
CONTINUOUS
 62
   56
 10
118.09961891038103
 20
55.852955658731275
 11
117.49961900574846
 21
56.452955563363844
  0
LINE
  8
_0-0_
  6
CONTINUOUS
 62
   56
 10
117.49961900574846
 20
65.252955754098707
 11
117.49961900574846
 21
56.452955563363844
  0
LINE
  8
_0-0_
  6
CONTINUOUS
 62
   56
 10
118.09961891038103
 20
65.852955658731275
 11
123.49961900574846
 21
65.852955658731275
  0
LINE
  8
_0-0_
  6
CONTINUOUS
 62
   56
 10
117.49961900574846
 20
65.252955754098707
 11
118.09961891038103
 21
65.852955658731275
  0
LINE
  8
_0-0_
  6
CONTINUOUS
 62
   56
 10
118.09961891038103
 20
55.852955658731275
 11
118.09961891038103
 21
65.852955658731275
  0
LINE
  8
_0-0_
  6
CONTINUOUS
 62
   56
 10
135.04961919648332
 20
57.852955658731275
 11
123.49961900574846
 21
57.852955658731275
  0
LINE
  8
_0-0_
  6
CONTINUOUS
 62
   56
 10
135.04961919648332
 20
57.852955658731275
 11
135.49961900574846
 21
58.302955706414991
  0
LINE
  8
_0-0_
  6
CONTINUOUS
 62
   56
 10
135.49961900574846
 20
63.40295561104756
 11
135.49961900574846
 21
58.302955706414991
  0
LINE
  8
_0-0_
  6
CONTINUOUS
 62
   56
 10
135.04961919648332
 20
63.852955658731275
 11
123.49961900574846
 21
63.852955658731275
  0
LINE
  8
_0-0_
  6
CONTINUOUS
 62
   56
 10
135.49961900574846
 20
63.40295561104756
 11
135.04961919648332
 21
63.852955658731275
  0
LINE
  8
_0-0_
  6
CONTINUOUS
 62
   56
 10
135.04961919648332
 20
57.852955658731275
 11
135.04961919648332
 21
63.852955658731275
  0
LINE
  8
_0-0_
  6
CONTINUOUS
 62
    7
 10
129.55604113437465
 20
65.69288742076867
 11
131.18677474849613
 21
65.835558125234797
  0
LINE
  8
_0-0_
  6
CONTINUOUS
 62
    7
 10
132.09961900574848
 20
66.831752823326838
 11
132.09961900574848
 21
67.152955658731457
  0
LINE
  8
_0-0_
  6
CONTINUOUS
 62
    7
 10
132.72902852829969
 20
67.635918571876005
 11
133.4277145562184
 21
67.448706214932258
  0
LINE
  8
_0-0_
  6
CONTINUOUS
 62
    7
 10
133.73131773555923
 20
67.215743301787711
 11
135.09769521710172
 21
64.849108081438203
  0
LINE
  8
_0-0_
  6
CONTINUOUS
 62
    7
 10
135.49961900574857
 20
63.349108081438203
 11
135.49961900574857
 21
58.356803236024803
  0
LINE
  8
_0-0_
  6
CONTINUOUS
 62
    7
 10
135.09769521710172
 20
56.856803236024803
 11
133.73131773555923
 21
54.490168015675295
  0
LINE
  8
_0-0_
  6
CONTINUOUS
 62
    7
 10
133.4277145562184
 20
54.257205102530747
 11
132.72902852829969
 21
54.069992745587001
  0
LINE
  8
_0-0_
  6
CONTINUOUS
 62
    7
 10
132.09961900574848
 20
54.552955658731548
 11
132.09961900574848
 21
54.874158494136168
  0
LINE
  8
_0-0_
  6
CONTINUOUS
 62
    7
 10
131.18677474849613
 20
55.870353192228208
 11
129.55604113437465
 21
56.013023896694335
  0
LINE
  8
_0-0_
  6
CONTINUOUS
 62
    7
 10
129.09961900574848
 20
56.511121245740355
 11
129.09961900574848
 21
65.19479007172265
  0
ARC
  8
_0-0_
  6
CONTINUOUS
 62
    7
 10
129.59961900574848
 20
56.511121245740355
 40
0.5
 50
180
 51
265
  0
ARC
  8
_0-0_
  6
CONTINUOUS
 62
    7
 10
131.09961900574848
 20
54.874158494136168
 40
1
 50
0
 51
85.000000000000043
  0
ARC
  8
_0-0_
  6
CONTINUOUS
 62
    7
 10
132.59961900574848
 20
54.552955658731548
 40
0.5
 50
180
 51
228.59270234267069
  0
ARC
  8
_0-0_
  6
CONTINUOUS
 62
    7
 10
132.59961900574848
 20
54.552955658731548
 40
0.5
 50
228.59270234267069
 51
285
  0
ARC
  8
_0-0_
  6
CONTINUOUS
 62
    7
 10
133.29830503366696
 20
54.740168015675295
 40
0.5
 50
285
 51
330
  0
ARC
  8
_0-0_
  6
CONTINUOUS
 62
    7
 10
132.49961900574857
 20
58.356803236024803
 40
3
 50
329.99999999999994
 51
0
  0
ARC
  8
_0-0_
  6
CONTINUOUS
 62
    7
 10
129.59961900574848
 20
65.19479007172265
 40
0.5
 50
95
 51
180
  0
ARC
  8
_0-0_
  6
CONTINUOUS
 62
    7
 10
131.09961900574848
 20
66.831752823326838
 40
1
 50
274.99999999999994
 51
0
  0
ARC
  8
_0-0_
  6
CONTINUOUS
 62
    7
 10
132.59961900574848
 20
67.152955658731457
 40
0.5
 50
131.40729765732931
 51
180
  0
ARC
  8
_0-0_
  6
CONTINUOUS
 62
    7
 10
132.59961900574848
 20
67.152955658731457
 40
0.5
 50
75.000000000000014
 51
131.40729765732931
  0
ARC
  8
_0-0_
  6
CONTINUOUS
 62
    7
 10
133.29830503366696
 20
66.965743301787711
 40
0.5
 50
29.999999999999993
 51
74.999999999999972
  0
ARC
  8
_0-0_
  6
CONTINUOUS
 62
    7
 10
132.49961900574857
 20
63.349108081438203
 40
3
 50
0.0000000000000254
 51
30.000000000000068
  0
LINE
  8
_0-0_
  6
CENTER2
 62
  152
 10
128.49961900574846
 20
60.852955658731275
 11
135.49961900574857
 21
60.852955658731275
  0
LINE
  8
_0-1_
  6
CENTER1
 62
  152
 10
123.9518810189183
 20
30.352955658731275
 11
130.20970724929526
 21
30.352955658731275
  0
LINE
  8
_0-1_
  6
CENTER1
 62
  152
 10
123.9518810189183
 20
25.352955658731275
 11
130.20970724929526
 21
25.352955658731275
  0
LINE
  8
_0-1_
  6
CENTER1
 62
  152
 10
123.9518810189183
 20
20.352955658731275
 11
130.20970724929526
 21
20.352955658731275
  0
ENDSEC
  0
EOF
