  0
SECTION
  2
HEADER
  9
$ACADVER
  1
AC1009
  9
$INSBASE
 10
0
 20
0
 30
0
  9
$EXTMIN
 10
0
 20
0
  9
$EXTMAX
 10
1189
 20
841
  9
$LIMMIN
 10
0
 20
0
  9
$LIMMAX
 10
1189
 20
841
  9
$LTSCALE
 40
1
  0
ENDSEC
  0
SECTION
  2
TABLES
  0
TABLE
  2
LTYPE
 70
     9
  0
LTYPE
  2
CONTINUOUS
 70
    64
  3
実線
 72
    65
 73
     0
 40
0.0
  0
LTYPE
  2
DASHED1
 70
    64
  3
--  --  --  --  --  --  --  --  
 72
    65
 73
     2
 40
2.5
 49
1.25
 49
-1.25
  0
LTYPE
  2
DASHED2
 70
    64
  3
----    ----    ----    ----    
 72
    65
 73
     2
 40
5.0
 49
2.5
 49
-2.5
  0
LTYPE
  2
DASHED3
 70
    64
  3
------  ------  ------  ------  
 72
    65
 73
     2
 40
5.0
 49
3.75
 49
-1.25
  0
LTYPE
  2
CENTER1
 70
    64
  3
----- - ----- - ----- - ----- - 
 72
    65
 73
     4
 40
10.0
 49
6.25
 49
-1.25
 49
1.25
 49
-1.25
  0
LTYPE
  2
CENTER2
 70
    64
  3
----------  --  ----------  --  
 72
    65
 73
     4
 40
20.0
 49
12.5
 49
-2.5
 49
2.5
 49
-2.5
  0
LTYPE
  2
PHANTOM1
 70
    64
  3
--- - - --- - - --- - - --- - - 
 72
    65
 73
     6
 40
10.0
 49
3.25
 49
-1.25
 49
1.25
 49
-1.25
 49
1.25
 49
-1.25
  0
LTYPE
  2
PHANTOM2
 70
    64
  3
--------  -  -  --------  -  -  
 72
    65
 73
     6
 40
20.0
 49
10.0
 49
-2.5
 49
1.25
 49
-2.5
 49
1.25
 49
-2.5
  0
LTYPE
  2
DOT
 70
    64
  3
-   -   -   -   -   -   -   -   
 72
    65
 73
     2
 40
2.5
 49
0.625
 49
-1.875
  0
LTYPE
  2
DUMMY
 70
    64
  3
ダミー
 72
    65
 73
     0
 40
0.0
  0
LTYPE
  2
RAND1
 70
    64
  3
ランダム線1
 72
    65
 73
     4
 40
10.0
 49
1.0
 49
-2.0
 49
3.0
 49
-4.0
  0
LTYPE
  2
RAND2
 70
    64
  3
ランダム線2
 72
    65
 73
     4
 40
14.0
 49
2.0
 49
-3.0
 49
4.0
 49
-5.0
  0
LTYPE
  2
RAND3
 70
    64
  3
ランダム線3
 72
    65
 73
     4
 40
18.0
 49
3.0
 49
-4.0
 49
5.0
 49
-6.0
  0
LTYPE
  2
RAND4
 70
    64
  3
ランダム線4
 72
    65
 73
     4
 40
22.0
 49
4.0
 49
-5.0
 49
6.0
 49
-7.0
  0
LTYPE
  2
RAND5
 70
    64
  3
ランダム線5
 72
    65
 73
     4
 40
26.0
 49
5.0
 49
-6.0
 49
7.0
 49
-8.0
  0
LTYPE
  2
LONG1
 70
    64
  3
----------  --  ----------  --  
 72
    65
 73
     4
 40
40.0
 49
32.5
 49
-2.5
 49
2.5
 49
-2.5
  0
LTYPE
  2
LONG2
 70
    64
  3
--------  -  -  --------  -  -  
 72
    65
 73
     6
 40
40.0
 49
30.0
 49
-2.5
 49
1.25
 49
-2.5
 49
1.25
 49
-2.5
  0
LTYPE
  2
LONG3
 70
    64
  3
+++++++++++++++..+++++++++++++++
 72
    65
 73
     2
 40
40.0
 49
37.5
 49
-2.5
  0
LTYPE
  2
LONG4
 70
    64
  3
+++++++++++++++..+++++++++++++++
 72
    65
 73
     2
 40
80.0
 49
75.0
 49
-5.0
  0
LTYPE
  2
LONG5
 70
    64
  3
----------  --  ----------  --  
 72
    65
 73
     4
 40
60.0
 49
37.5
 49
-7.5
 49
7.5
 49
-7.5
  0
LTYPE
  2
dashed
 70
   64
  3
-------   -------------   ------
 72
   65
 73
    2
 40
7.5
 49
6
 49
-1.5
  0
LTYPE
  2
dashed_spaced
 70
   64
  3
----        --------        ----
 72
   65
 73
    2
 40
12
 49
6
 49
-6
  0
LTYPE
  2
long_dashed_dotted
 70
   64
  3
------------- --- --------------
 72
   65
 73
    4
 40
15.25
 49
12
 49
-1.5
 49
0.25
 49
-1.5
  0
LTYPE
  2
long_dashed_double-dotted
 70
   64
  3
----------- --- --- ------------
 72
   65
 73
    6
 40
17
 49
12
 49
-1.5
 49
0.25
 49
-1.5
 49
0.25
 49
-1.5
  0
LTYPE
  2
long_dashed_triplicate-dotted
 70
   64
  3
--------- --- --- --- ----------
 72
   65
 73
    8
 40
18.75
 49
12
 49
-1.5
 49
0.25
 49
-1.5
 49
0.25
 49
-1.5
 49
0.25
 49
-1.5
  0
LTYPE
  2
dotted
 70
   64
  3
   -       -       -       -    
 72
   65
 73
    2
 40
1.75
 49
0.25
 49
-1.5
  0
LTYPE
  2
chain
 70
   64
  3
-------------- -- --------------
 72
   65
 73
    4
 40
18.5
 49
12
 49
-1.5
 49
3.5
 49
-1.5
  0
LTYPE
  2
chain_double_dash
 70
   64
  3
------------ -- -- -------------
 72
   65
 73
    6
 40
23.5
 49
12
 49
-1.5
 49
3.5
 49
-1.5
 49
3.5
 49
-1.5
  0
LTYPE
  2
dashed_dotted
 70
   64
  3
-----------     -     ----------
 72
   65
 73
    4
 40
9.25
 49
6
 49
-1.5
 49
0.25
 49
-1.5
  0
LTYPE
  2
double-dashed_dotted
 70
   64
  3
------   -----------   -   -----
 72
   65
 73
    6
 40
16.75
 49
6
 49
-1.5
 49
6
 49
-1.5
 49
0.25
 49
-1.5
  0
LTYPE
  2
dashed_double-dotted
 70
   64
  3
---------    -    -    ---------
 72
   65
 73
    6
 40
11
 49
6
 49
-1.5
 49
0.25
 49
-1.5
 49
0.25
 49
-1.5
  0
LTYPE
  2
double-dashed_double-dotted
 70
   64
  3
-----   ---------   -   -   ----
 72
   65
 73
    8
 40
18.5
 49
6
 49
-1.5
 49
6
 49
-1.5
 49
0.25
 49
-1.5
 49
0.25
 49
-1.5
  0
LTYPE
  2
dashed_triplicate-dotted
 70
   64
  3
-------    -    -    -    ------
 72
   65
 73
    8
 40
12.75
 49
6
 49
-1.5
 49
0.25
 49
-1.5
 49
0.25
 49
-1.5
 49
0.25
 49
-1.5
  0
LTYPE
  2
double-dashed_triplicate-dotted
 70
   64
  3
-----  ---------  -  -  -  -----
 72
   65
 73
   10
 40
20.25
 49
6
 49
-1.5
 49
6
 49
-1.5
 49
0.25
 49
-1.5
 49
0.25
 49
-1.5
 49
0.25
 49
-1.5
  0
LTYPE
  2
undefined
 70
   64
  3
--------------------------------
 72
   65
 73
    0
 40
0
  0
LTYPE
  2
_
 70
   64
  3
                                
 72
   65
 73
    0
 40
0
  0
LTYPE
  2
__18
 70
   64
  3
                                
 72
   65
 73
    0
 40
0
  0
LTYPE
  2
__19
 70
   64
  3
                                
 72
   65
 73
    0
 40
0
  0
LTYPE
  2
__20
 70
   64
  3
                                
 72
   65
 73
    0
 40
0
  0
LTYPE
  2
__21
 70
   64
  3
                                
 72
   65
 73
    0
 40
0
  0
LTYPE
  2
__22
 70
   64
  3
                                
 72
   65
 73
    0
 40
0
  0
LTYPE
  2
__23
 70
   64
  3
                                
 72
   65
 73
    0
 40
0
  0
LTYPE
  2
__24
 70
   64
  3
                                
 72
   65
 73
    0
 40
0
  0
LTYPE
  2
__25
 70
   64
  3
                                
 72
   65
 73
    0
 40
0
  0
LTYPE
  2
__26
 70
   64
  3
                                
 72
   65
 73
    0
 40
0
  0
LTYPE
  2
__27
 70
   64
  3
                                
 72
   65
 73
    0
 40
0
  0
LTYPE
  2
__28
 70
   64
  3
                                
 72
   65
 73
    0
 40
0
  0
LTYPE
  2
__29
 70
   64
  3
                                
 72
   65
 73
    0
 40
0
  0
LTYPE
  2
__30
 70
   64
  3
                                
 72
   65
 73
    0
 40
0
  0
LTYPE
  2
__31
 70
   64
  3
                                
 72
   65
 73
    0
 40
0
  0
LTYPE
  2
__32
 70
   64
  3
                                
 72
   65
 73
    0
 40
0
  0
ENDTAB
  0
TABLE
  2
STYLE
  5
3
100
AcDbSymbolTable
 70
     1
  0
STYLE
  5
10
100
AcDbSymbolTableRecord
100
AcDbTextStyleTableRecord
  2
STANDARD
 70
     0
 40
0.0
 41
1.0
 50
0.0
 71
     0
 42
0.2
  3
txt
  4
bigfont.shx
  0
STYLE
  5
26
100
AcDbSymbolTableRecord
100
AcDbTextStyleTableRecord
  2
TATEGAKI
 70
    68
 40
0.0
 41
1.0
 50
0.0
 71
     0
 42
1.0
  3
txt
  4
bigfont.shx
  0
ENDTAB
  0
TABLE
  2
LAYER
 70
    3
  0
LAYER
  2
_0-0_
 70
   64
 62
    7
  6
CONTINUOUS
  0
LAYER
  2
_0-1_
 70
   64
 62
    7
  6
CONTINUOUS
  0
LAYER
  2
ADD_LINE
 70
   64
 62
    7
  6
CONTINUOUS
  0
ENDTAB
  0
ENDSEC
  0
SECTION
  2
BLOCKS
  0
ENDSEC
  0
SECTION
  2
ENTITIES
  0
LINE
  8
_0-0_
  6
CONTINUOUS
 62
    7
 10
93.170348395536905
 20
144.84011985618611
 11
93.170348395536905
 21
142.84011985618611
  0
LINE
  8
_0-0_
  6
CONTINUOUS
 62
    7
 10
93.170348395536905
 20
104.17770345262568
 11
93.170348395536905
 21
78.177703452625678
  0
LINE
  8
_0-0_
  6
CONTINUOUS
 62
    7
 10
88.170348395536905
 20
73.177703452625678
 11
44.549975842370031
 21
73.177703452625678
  0
LINE
  8
_0-0_
  6
CONTINUOUS
 62
    7
 10
43.255880616856075
 20
73.348074321181116
 11
30.788062718998617
 21
76.688816058291081
  0
LINE
  8
_0-0_
  6
CONTINUOUS
 62
    7
 10
30.788062718998617
 20
105.66659084696209
 11
43.255880616856984
 21
109.00733258407115
  0
LINE
  8
_0-0_
  6
CONTINUOUS
 62
    7
 10
44.549975842370031
 20
109.17770345262568
 11
88.170348395536905
 21
109.17770345262568
  0
ARC
  8
_0-0_
  6
CONTINUOUS
 62
    7
 10
34.670348395536848
 20
91.177703452625678
 40
14.999999999999972
 50
104.9999999999999
 51
255.00000000000011
  0
CIRCLE
  8
_0-0_
  6
CONTINUOUS
 62
    7
 10
34.670348395536848
 20
91.177703452625678
 40
3.0499999999999998
  0
CIRCLE
  8
_0-0_
  6
CONTINUOUS
 62
    7
 10
75.170348395536848
 20
81.177703452625678
 40
3.0499999999999998
  0
CIRCLE
  8
_0-0_
  6
CONTINUOUS
 62
    7
 10
75.170348395536848
 20
101.17770345262568
 40
3.0499999999999998
  0
ARC
  8
_0-0_
  6
CONTINUOUS
 62
    7
 10
88.170348395536905
 20
78.177703452625678
 40
5
 50
270
 51
0
  0
ARC
  8
_0-0_
  6
CONTINUOUS
 62
    7
 10
88.170348395536905
 20
104.17770345262568
 40
5
 50
0
 51
90
  0
ARC
  8
_0-0_
  6
CONTINUOUS
 62
    7
 10
44.549975842369122
 20
78.177703452625678
 40
5
 50
254.9999999999942
 51
270
  0
ARC
  8
_0-0_
  6
CONTINUOUS
 62
    7
 10
44.549975842370031
 20
104.17770345262568
 40
5
 50
90
 51
104.99999999999815
  0
LINE
  8
_0-0_
  6
CONTINUOUS
 62
    7
 10
93.170348395536905
 20
142.84011985618611
 11
19.670348395536848
 21
142.84011985618667
  0
LINE
  8
_0-0_
  6
CONTINUOUS
 62
    7
 10
93.170348395536905
 20
144.84011985618611
 11
19.670348395536848
 21
144.84011985618667
  0
LINE
  8
_0-0_
  6
CONTINUOUS
 62
    7
 10
19.670348395536848
 20
144.84011985618667
 11
19.670348395536848
 21
142.84011985618667
  0
LINE
  8
_0-0_
  6
CONTINUOUS
 62
    7
 10
30.788062718999072
 20
37.544300995420087
 11
43.255880616857439
 21
40.885042732529143
  0
LINE
  8
_0-0_
  6
CONTINUOUS
 62
    7
 10
44.549975842370031
 20
41.055413601083671
 11
88.170348395536905
 21
41.055413601083671
  0
LINE
  8
_0-0_
  6
CONTINUOUS
 62
    7
 10
93.170348395536905
 20
36.055413601083671
 11
93.170348395536905
 21
10.055413601083671
  0
LINE
  8
_0-0_
  6
CONTINUOUS
 62
    7
 10
88.170348395536905
 20
5.0554136010836714
 11
44.549975842370031
 21
5.0554136010836714
  0
LINE
  8
_0-0_
  6
CONTINUOUS
 62
    7
 10
43.25588061685653
 20
5.2257844696381994
 11
30.788062718999072
 21
8.5665262067490744
  0
LINE
  8
_0-0_
  6
CONTINUOUS
 62
    7
 10
75.170348395536848
 20
10.005413601084399
 11
81.170348395536848
 21
10.005413601084399
  0
LINE
  8
_0-0_
  6
CONTINUOUS
 62
    7
 10
81.170348395536848
 20
36.105413601084763
 11
75.170348395536848
 21
36.105413601084763
  0
LINE
  8
_0-0_
  6
CONTINUOUS
 62
    7
 10
75.170348395536848
 20
16.105413601082944
 11
81.170348395536848
 21
16.105413601082944
  0
LINE
  8
_0-0_
  6
CONTINUOUS
 62
    7
 10
81.170348395536848
 20
30.005413601084399
 11
75.170348395536848
 21
30.005413601084399
  0
ARC
  8
_0-0_
  6
CONTINUOUS
 62
    7
 10
88.170348395536905
 20
36.055413601083671
 40
5
 50
0
 51
90
  0
ARC
  8
_0-0_
  6
CONTINUOUS
 62
    7
 10
34.670348395536848
 20
23.055413601083671
 40
14.999999999999972
 50
104.9999999999999
 51
255.00000000000011
  0
CIRCLE
  8
_0-0_
  6
CONTINUOUS
 62
    7
 10
34.670348395536848
 20
23.055413601083671
 40
3.0499999999999998
  0
ARC
  8
_0-0_
  6
CONTINUOUS
 62
    7
 10
81.170348395536848
 20
13.055413601083671
 40
3.0499999999999998
 50
270
 51
90
  0
ARC
  8
_0-0_
  6
CONTINUOUS
 62
    7
 10
75.170348395536848
 20
13.055413601083671
 40
3.0499999999999998
 50
90
 51
270
  0
ARC
  8
_0-0_
  6
CONTINUOUS
 62
    7
 10
75.170348395536848
 20
33.055413601083671
 40
3.0499999999999998
 50
90
 51
270
  0
ARC
  8
_0-0_
  6
CONTINUOUS
 62
    7
 10
81.170348395536848
 20
33.055413601083671
 40
3.0499999999999998
 50
270
 51
90
  0
ARC
  8
_0-0_
  6
CONTINUOUS
 62
    7
 10
88.170348395536905
 20
10.055413601083671
 40
5
 50
270
 51
0
  0
ARC
  8
_0-0_
  6
CONTINUOUS
 62
    7
 10
44.549975842369577
 20
10.055413601083671
 40
5
 50
254.9999999999942
 51
270
  0
ARC
  8
_0-0_
  6
CONTINUOUS
 62
    7
 10
44.549975842370031
 20
36.055413601083671
 40
5
 50
90
 51
104.99999999999815
  0
TEXT
  8
_0-0_
 62
    7
 10
5.7089505511407879
 20
97.703991040394953
 40
5
 41
1
 50
0
  1
GS42
  0
TEXT
  8
_0-0_
 62
    7
 10
4.5119881050854929
 20
25.886244277075775
 40
5
 41
1
 50
0
  1
GS43
  0
LINE
  8
_0-1_
  6
CENTER1
 62
  152
 10
34.670348395536848
 20
76.177703452625678
 11
34.670348395536848
 21
106.17770345262568
  0
LINE
  8
_0-1_
  6
CENTER1
 62
  152
 10
78.220348395536575
 20
101.17770345262568
 11
72.120348395536666
 21
101.17770345262568
  0
LINE
  8
_0-1_
  6
CENTER1
 62
  152
 10
75.170348395536848
 20
104.22770345262541
 11
75.170348395536848
 21
78.127703452625497
  0
LINE
  8
_0-1_
  6
CENTER1
 62
  152
 10
78.220348395536575
 20
81.177703452625678
 11
72.120348395536666
 21
81.177703452625678
  0
LINE
  8
_0-1_
  6
CENTER1
 62
  152
 10
93.170348395536905
 20
91.177703452625678
 11
19.670348395536848
 21
91.177703452625678
  0
LINE
  8
_0-1_
  6
CENTER1
 62
  152
 10
34.670348395536848
 20
147.57827819013568
 11
34.670348395536848
 21
138.94806122761099
  0
LINE
  8
_0-1_
  6
CENTER1
 62
  152
 10
34.670348395536848
 20
8.0554136010836714
 11
34.670348395536848
 21
38.055413601083671
  0
LINE
  8
_0-1_
  6
CENTER1
 62
  152
 10
19.670348395536848
 20
23.055413601083671
 11
93.170348395536905
 21
23.055413601083671
  0
LINE
  8
_0-1_
  6
CENTER1
 62
  152
 10
84.220348395536632
 20
13.055413601083671
 11
72.120348395537121
 21
13.055413601083671
  0
LINE
  8
_0-1_
  6
CENTER1
 62
  152
 10
81.170348395536848
 20
10.005413601084399
 11
81.170348395536848
 21
36.105413601084763
  0
LINE
  8
_0-1_
  6
CENTER1
 62
  152
 10
75.170348395536848
 20
36.105413601084763
 11
75.170348395536848
 21
10.005413601084399
  0
LINE
  8
_0-1_
  6
CENTER1
 62
  152
 10
72.120348395537121
 20
33.055413601083671
 11
84.220348395536632
 21
33.055413601083671
  0
LINE
  8
_0-1_
  6
CENTER1
 62
  152
 10
75.170348395536848
 20
159.1874756109026
 11
75.170348395536848
 21
126.81953254623124
  0
LINE
  8
_0-1_
  6
CONTINUOUS
 62
    7
 10
67.170348395536848
 20
139.84011985618622
 11
67.170348395536848
 21
142.84011985618622
  0
LINE
  8
_0-1_
  6
CONTINUOUS
 62
    7
 10
83.170348395536848
 20
139.84011985618622
 11
67.170348395536848
 21
139.84011985618622
  0
LINE
  8
_0-1_
  6
CONTINUOUS
 62
    7
 10
83.170348395536848
 20
139.84011985618622
 11
83.170348395536848
 21
142.84011985618622
  0
LINE
  8
ADD_LINE
  6
DOT
 62
    9
 10
75.170348395536848
 20
139.84011985618622
 11
74.463241614350181
 21
140.54722663737277
  0
LINE
  8
ADD_LINE
  6
DOT
 62
    9
 10
75.170348395536848
 20
139.84011985618622
 11
75.877455176723515
 21
140.54722663737277
  0
LINE
  8
_0-1_
  6
CONTINUOUS
 62
  152
 10
73.295348395536848
 20
134.44011976081879
 11
73.295348395536848
 21
139.84011985618622
  0
LINE
  8
_0-1_
  6
CONTINUOUS
 62
  152
 10
72.670348395536848
 20
134.44011976081879
 11
72.670348395536848
 21
139.84011985618622
  0
LINE
  8
_0-1_
  6
CONTINUOUS
 62
  152
 10
72.045348395536848
 20
134.44011976081879
 11
72.045348395536848
 21
139.84011985618622
  0
LINE
  8
_0-1_
  6
CONTINUOUS
 62
  152
 10
71.420348395536848
 20
134.44011976081879
 11
71.420348395536848
 21
139.84011985618622
  0
LINE
  8
_0-1_
  6
CONTINUOUS
 62
  152
 10
70.795348395536848
 20
134.44011976081879
 11
70.795348395536848
 21
139.84011985618622
  0
LINE
  8
_0-1_
  6
CONTINUOUS
 62
  152
 10
77.720348347853133
 20
139.84011985618622
 11
77.720348347853133
 21
151.84011985618622
  0
LINE
  8
_0-1_
  6
CONTINUOUS
 62
  152
 10
72.620348443220564
 20
139.84011985618622
 11
72.620348443220564
 21
151.84011985618622
  0
LINE
  8
_0-1_
  6
CONTINUOUS
 62
   56
 10
80.170348395536848
 20
134.44011976081879
 11
80.170348395536848
 21
139.84011985618622
  0
LINE
  8
_0-1_
  6
CONTINUOUS
 62
   56
 10
80.170348395536848
 20
134.44011976081879
 11
79.57034849090428
 21
133.84011985618622
  0
LINE
  8
_0-1_
  6
CONTINUOUS
 62
   56
 10
70.770348300169417
 20
133.84011985618622
 11
79.57034849090428
 21
133.84011985618622
  0
LINE
  8
_0-1_
  6
CONTINUOUS
 62
   56
 10
70.170348395536848
 20
134.44011976081879
 11
70.170348395536848
 21
139.84011985618622
  0
LINE
  8
_0-1_
  6
CONTINUOUS
 62
   56
 10
70.770348300169417
 20
133.84011985618622
 11
70.170348395536848
 21
134.44011976081879
  0
LINE
  8
_0-1_
  6
CONTINUOUS
 62
   56
 10
80.170348395536848
 20
134.44011976081879
 11
70.170348395536848
 21
134.44011976081879
  0
LINE
  8
_0-1_
  6
CONTINUOUS
 62
   56
 10
78.170348395536848
 20
151.39012004692108
 11
78.170348395536848
 21
139.84011985618622
  0
LINE
  8
_0-1_
  6
CONTINUOUS
 62
   56
 10
78.170348395536848
 20
151.39012004692108
 11
77.720348347853133
 21
151.84011985618622
  0
LINE
  8
_0-1_
  6
CONTINUOUS
 62
   56
 10
72.620348443220564
 20
151.84011985618622
 11
77.720348347853133
 21
151.84011985618622
  0
LINE
  8
_0-1_
  6
CONTINUOUS
 62
   56
 10
72.170348395536848
 20
151.39012004692108
 11
72.170348395536848
 21
139.84011985618622
  0
LINE
  8
_0-1_
  6
CONTINUOUS
 62
   56
 10
72.620348443220564
 20
151.84011985618622
 11
72.170348395536848
 21
151.39012004692108
  0
LINE
  8
_0-1_
  6
CONTINUOUS
 62
   56
 10
78.170348395536848
 20
151.39012004692108
 11
72.170348395536848
 21
151.39012004692108
  0
LINE
  8
_0-1_
  6
CONTINUOUS
 62
    7
 10
70.330416633499453
 20
145.89654198481242
 11
70.187745929033326
 21
147.5272755989339
  0
LINE
  8
_0-1_
  6
CONTINUOUS
 62
    7
 10
69.191551230941286
 20
148.44011985618624
 11
68.870348395536666
 21
148.44011985618624
  0
LINE
  8
_0-1_
  6
CONTINUOUS
 62
    7
 10
68.387385482392119
 20
149.06952937873746
 11
68.574597839335866
 21
149.76821540665617
  0
LINE
  8
_0-1_
  6
CONTINUOUS
 62
    7
 10
68.807560752480413
 20
150.07181858599699
 11
71.174195972829921
 21
151.43819606753948
  0
LINE
  8
_0-1_
  6
CONTINUOUS
 62
    7
 10
72.674195972829921
 20
151.84011985618633
 11
77.666500818243321
 21
151.84011985618633
  0
LINE
  8
_0-1_
  6
CONTINUOUS
 62
    7
 10
79.166500818243321
 20
151.43819606753948
 11
81.533136038592829
 21
150.07181858599699
  0
LINE
  8
_0-1_
  6
CONTINUOUS
 62
    7
 10
81.766098951737376
 20
149.76821540665617
 11
81.953311308681123
 21
149.06952937873746
  0
LINE
  8
_0-1_
  6
CONTINUOUS
 62
    7
 10
81.470348395536575
 20
148.44011985618624
 11
81.149145560131956
 21
148.44011985618624
  0
LINE
  8
_0-1_
  6
CONTINUOUS
 62
    7
 10
80.152950862039916
 20
147.5272755989339
 11
80.010280157573789
 21
145.89654198481242
  0
LINE
  8
_0-1_
  6
CONTINUOUS
 62
    7
 10
79.512182808527768
 20
145.44011985618624
 11
70.828513982545473
 21
145.44011985618624
  0
ARC
  8
_0-1_
  6
CONTINUOUS
 62
    7
 10
79.512182808527768
 20
145.94011985618624
 40
0.5
 50
270
 51
355
  0
ARC
  8
_0-1_
  6
CONTINUOUS
 62
    7
 10
81.149145560131956
 20
147.44011985618624
 40
1
 50
90
 51
175.00000000000006
  0
ARC
  8
_0-1_
  6
CONTINUOUS
 62
    7
 10
81.470348395536575
 20
148.94011985618624
 40
0.5
 50
270
 51
318.59270234267069
  0
ARC
  8
_0-1_
  6
CONTINUOUS
 62
    7
 10
81.470348395536575
 20
148.94011985618624
 40
0.5
 50
318.59270234267069
 51
15.000000000000014
  0
ARC
  8
_0-1_
  6
CONTINUOUS
 62
    7
 10
81.283136038592829
 20
149.63880588410473
 40
0.5
 50
14.999999999999982
 51
59.999999999999986
  0
ARC
  8
_0-1_
  6
CONTINUOUS
 62
    7
 10
77.666500818243321
 20
148.84011985618633
 40
3
 50
59.999999999999929
 51
89.999999999999986
  0
ARC
  8
_0-1_
  6
CONTINUOUS
 62
    7
 10
70.828513982545473
 20
145.94011985618624
 40
0.5
 50
185
 51
270
  0
ARC
  8
_0-1_
  6
CONTINUOUS
 62
    7
 10
69.191551230941286
 20
147.44011985618624
 40
1
 50
4.9999999999999432
 51
90
  0
ARC
  8
_0-1_
  6
CONTINUOUS
 62
    7
 10
68.870348395536666
 20
148.94011985618624
 40
0.5
 50
221.40729765732931
 51
270
  0
ARC
  8
_0-1_
  6
CONTINUOUS
 62
    7
 10
68.870348395536666
 20
148.94011985618624
 40
0.5
 50
165.00000000000003
 51
221.40729765732931
  0
ARC
  8
_0-1_
  6
CONTINUOUS
 62
    7
 10
69.057560752480413
 20
149.63880588410473
 40
0.5
 50
119.99999999999999
 51
164.99999999999997
  0
ARC
  8
_0-1_
  6
CONTINUOUS
 62
    7
 10
72.674195972829921
 20
148.84011985618633
 40
3
 50
90.000000000000028
 51
120.00000000000007
  0
ENDSEC
  0
EOF
