  0
SECTION
  2
HEADER
  9
$ACADVER
  1
AC1009
  9
$INSBASE
 10
0
 20
0
 30
0
  9
$EXTMIN
 10
0
 20
0
  9
$EXTMAX
 10
1189
 20
841
  9
$LIMMIN
 10
0
 20
0
  9
$LIMMAX
 10
1189
 20
841
  9
$LTSCALE
 40
1
  0
ENDSEC
  0
SECTION
  2
TABLES
  0
TABLE
  2
LTYPE
 70
     9
  0
LTYPE
  2
CONTINUOUS
 70
    64
  3
実線
 72
    65
 73
     0
 40
0.0
  0
LTYPE
  2
DASHED1
 70
    64
  3
--  --  --  --  --  --  --  --  
 72
    65
 73
     2
 40
2.5
 49
1.25
 49
-1.25
  0
LTYPE
  2
DASHED2
 70
    64
  3
----    ----    ----    ----    
 72
    65
 73
     2
 40
5.0
 49
2.5
 49
-2.5
  0
LTYPE
  2
DASHED3
 70
    64
  3
------  ------  ------  ------  
 72
    65
 73
     2
 40
5.0
 49
3.75
 49
-1.25
  0
LTYPE
  2
CENTER1
 70
    64
  3
----- - ----- - ----- - ----- - 
 72
    65
 73
     4
 40
10.0
 49
6.25
 49
-1.25
 49
1.25
 49
-1.25
  0
LTYPE
  2
CENTER2
 70
    64
  3
----------  --  ----------  --  
 72
    65
 73
     4
 40
20.0
 49
12.5
 49
-2.5
 49
2.5
 49
-2.5
  0
LTYPE
  2
PHANTOM1
 70
    64
  3
--- - - --- - - --- - - --- - - 
 72
    65
 73
     6
 40
10.0
 49
3.25
 49
-1.25
 49
1.25
 49
-1.25
 49
1.25
 49
-1.25
  0
LTYPE
  2
PHANTOM2
 70
    64
  3
--------  -  -  --------  -  -  
 72
    65
 73
     6
 40
20.0
 49
10.0
 49
-2.5
 49
1.25
 49
-2.5
 49
1.25
 49
-2.5
  0
LTYPE
  2
DOT
 70
    64
  3
-   -   -   -   -   -   -   -   
 72
    65
 73
     2
 40
2.5
 49
0.625
 49
-1.875
  0
LTYPE
  2
DUMMY
 70
    64
  3
ダミー
 72
    65
 73
     0
 40
0.0
  0
LTYPE
  2
RAND1
 70
    64
  3
ランダム線1
 72
    65
 73
     4
 40
10.0
 49
1.0
 49
-2.0
 49
3.0
 49
-4.0
  0
LTYPE
  2
RAND2
 70
    64
  3
ランダム線2
 72
    65
 73
     4
 40
14.0
 49
2.0
 49
-3.0
 49
4.0
 49
-5.0
  0
LTYPE
  2
RAND3
 70
    64
  3
ランダム線3
 72
    65
 73
     4
 40
18.0
 49
3.0
 49
-4.0
 49
5.0
 49
-6.0
  0
LTYPE
  2
RAND4
 70
    64
  3
ランダム線4
 72
    65
 73
     4
 40
22.0
 49
4.0
 49
-5.0
 49
6.0
 49
-7.0
  0
LTYPE
  2
RAND5
 70
    64
  3
ランダム線5
 72
    65
 73
     4
 40
26.0
 49
5.0
 49
-6.0
 49
7.0
 49
-8.0
  0
LTYPE
  2
LONG1
 70
    64
  3
----------  --  ----------  --  
 72
    65
 73
     4
 40
40.0
 49
32.5
 49
-2.5
 49
2.5
 49
-2.5
  0
LTYPE
  2
LONG2
 70
    64
  3
--------  -  -  --------  -  -  
 72
    65
 73
     6
 40
40.0
 49
30.0
 49
-2.5
 49
1.25
 49
-2.5
 49
1.25
 49
-2.5
  0
LTYPE
  2
LONG3
 70
    64
  3
+++++++++++++++..+++++++++++++++
 72
    65
 73
     2
 40
40.0
 49
37.5
 49
-2.5
  0
LTYPE
  2
LONG4
 70
    64
  3
+++++++++++++++..+++++++++++++++
 72
    65
 73
     2
 40
80.0
 49
75.0
 49
-5.0
  0
LTYPE
  2
LONG5
 70
    64
  3
----------  --  ----------  --  
 72
    65
 73
     4
 40
60.0
 49
37.5
 49
-7.5
 49
7.5
 49
-7.5
  0
LTYPE
  2
dashed
 70
   64
  3
-------   -------------   ------
 72
   65
 73
    2
 40
7.5
 49
6
 49
-1.5
  0
LTYPE
  2
dashed_spaced
 70
   64
  3
----        --------        ----
 72
   65
 73
    2
 40
12
 49
6
 49
-6
  0
LTYPE
  2
long_dashed_dotted
 70
   64
  3
------------- --- --------------
 72
   65
 73
    4
 40
15.25
 49
12
 49
-1.5
 49
0.25
 49
-1.5
  0
LTYPE
  2
long_dashed_double-dotted
 70
   64
  3
----------- --- --- ------------
 72
   65
 73
    6
 40
17
 49
12
 49
-1.5
 49
0.25
 49
-1.5
 49
0.25
 49
-1.5
  0
LTYPE
  2
long_dashed_triplicate-dotted
 70
   64
  3
--------- --- --- --- ----------
 72
   65
 73
    8
 40
18.75
 49
12
 49
-1.5
 49
0.25
 49
-1.5
 49
0.25
 49
-1.5
 49
0.25
 49
-1.5
  0
LTYPE
  2
dotted
 70
   64
  3
   -       -       -       -    
 72
   65
 73
    2
 40
1.75
 49
0.25
 49
-1.5
  0
LTYPE
  2
chain
 70
   64
  3
-------------- -- --------------
 72
   65
 73
    4
 40
18.5
 49
12
 49
-1.5
 49
3.5
 49
-1.5
  0
LTYPE
  2
chain_double_dash
 70
   64
  3
------------ -- -- -------------
 72
   65
 73
    6
 40
23.5
 49
12
 49
-1.5
 49
3.5
 49
-1.5
 49
3.5
 49
-1.5
  0
LTYPE
  2
dashed_dotted
 70
   64
  3
-----------     -     ----------
 72
   65
 73
    4
 40
9.25
 49
6
 49
-1.5
 49
0.25
 49
-1.5
  0
LTYPE
  2
double-dashed_dotted
 70
   64
  3
------   -----------   -   -----
 72
   65
 73
    6
 40
16.75
 49
6
 49
-1.5
 49
6
 49
-1.5
 49
0.25
 49
-1.5
  0
LTYPE
  2
dashed_double-dotted
 70
   64
  3
---------    -    -    ---------
 72
   65
 73
    6
 40
11
 49
6
 49
-1.5
 49
0.25
 49
-1.5
 49
0.25
 49
-1.5
  0
LTYPE
  2
double-dashed_double-dotted
 70
   64
  3
-----   ---------   -   -   ----
 72
   65
 73
    8
 40
18.5
 49
6
 49
-1.5
 49
6
 49
-1.5
 49
0.25
 49
-1.5
 49
0.25
 49
-1.5
  0
LTYPE
  2
dashed_triplicate-dotted
 70
   64
  3
-------    -    -    -    ------
 72
   65
 73
    8
 40
12.75
 49
6
 49
-1.5
 49
0.25
 49
-1.5
 49
0.25
 49
-1.5
 49
0.25
 49
-1.5
  0
LTYPE
  2
double-dashed_triplicate-dotted
 70
   64
  3
-----  ---------  -  -  -  -----
 72
   65
 73
   10
 40
20.25
 49
6
 49
-1.5
 49
6
 49
-1.5
 49
0.25
 49
-1.5
 49
0.25
 49
-1.5
 49
0.25
 49
-1.5
  0
LTYPE
  2
undefined
 70
   64
  3
--------------------------------
 72
   65
 73
    0
 40
0
  0
LTYPE
  2
_
 70
   64
  3
                                
 72
   65
 73
    0
 40
0
  0
LTYPE
  2
__18
 70
   64
  3
                                
 72
   65
 73
    0
 40
0
  0
LTYPE
  2
__19
 70
   64
  3
                                
 72
   65
 73
    0
 40
0
  0
LTYPE
  2
__20
 70
   64
  3
                                
 72
   65
 73
    0
 40
0
  0
LTYPE
  2
__21
 70
   64
  3
                                
 72
   65
 73
    0
 40
0
  0
LTYPE
  2
__22
 70
   64
  3
                                
 72
   65
 73
    0
 40
0
  0
LTYPE
  2
__23
 70
   64
  3
                                
 72
   65
 73
    0
 40
0
  0
LTYPE
  2
__24
 70
   64
  3
                                
 72
   65
 73
    0
 40
0
  0
LTYPE
  2
__25
 70
   64
  3
                                
 72
   65
 73
    0
 40
0
  0
LTYPE
  2
__26
 70
   64
  3
                                
 72
   65
 73
    0
 40
0
  0
LTYPE
  2
__27
 70
   64
  3
                                
 72
   65
 73
    0
 40
0
  0
LTYPE
  2
__28
 70
   64
  3
                                
 72
   65
 73
    0
 40
0
  0
LTYPE
  2
__29
 70
   64
  3
                                
 72
   65
 73
    0
 40
0
  0
LTYPE
  2
__30
 70
   64
  3
                                
 72
   65
 73
    0
 40
0
  0
LTYPE
  2
__31
 70
   64
  3
                                
 72
   65
 73
    0
 40
0
  0
LTYPE
  2
__32
 70
   64
  3
                                
 72
   65
 73
    0
 40
0
  0
ENDTAB
  0
TABLE
  2
STYLE
  5
3
100
AcDbSymbolTable
 70
     1
  0
STYLE
  5
10
100
AcDbSymbolTableRecord
100
AcDbTextStyleTableRecord
  2
STANDARD
 70
     0
 40
0.0
 41
1.0
 50
0.0
 71
     0
 42
0.2
  3
txt
  4
bigfont.shx
  0
STYLE
  5
26
100
AcDbSymbolTableRecord
100
AcDbTextStyleTableRecord
  2
TATEGAKI
 70
    68
 40
0.0
 41
1.0
 50
0.0
 71
     0
 42
1.0
  3
txt
  4
bigfont.shx
  0
ENDTAB
  0
TABLE
  2
LAYER
 70
    4
  0
LAYER
  2
_0-0_
 70
   64
 62
    7
  6
CONTINUOUS
  0
LAYER
  2
_0-1_
 70
   64
 62
    7
  6
CONTINUOUS
  0
LAYER
  2
_0-f_
 70
   64
 62
    7
  6
CONTINUOUS
  0
LAYER
  2
ADD_LINE
 70
   64
 62
    7
  6
CONTINUOUS
  0
ENDTAB
  0
ENDSEC
  0
SECTION
  2
BLOCKS
  0
ENDSEC
  0
SECTION
  2
ENTITIES
  0
TEXT
  8
_0-f_
 62
    7
 10
1.4013027352347081
 20
1.4826514136099718
 40
4.2999999999999998
 41
0.744186046511628
 50
0
  1
GS41
  0
LINE
  8
_0-0_
  6
CONTINUOUS
 62
    7
 10
93.298835630602468
 20
11.657110663485923
 11
93.298835630602468
 21
31.657110663485923
  0
LINE
  8
_0-0_
  6
CONTINUOUS
 62
    7
 10
88.298835630602468
 20
36.657110663485923
 11
16.798835630602525
 21
36.657110663486378
  0
LINE
  8
_0-0_
  6
CONTINUOUS
 62
    7
 10
16.798835630602525
 20
6.6571106634863781
 11
88.298835630602468
 21
6.6571106634859234
  0
ARC
  8
_0-0_
  6
CONTINUOUS
 62
    7
 10
16.798835630602525
 20
21.657110663486378
 40
14.999999999999972
 50
90
 51
270
  0
CIRCLE
  8
_0-0_
  6
CONTINUOUS
 62
    7
 10
55.298835630602525
 20
21.657110663485923
 40
3.0499999999999998
  0
CIRCLE
  8
_0-0_
  6
CONTINUOUS
 62
    7
 10
85.298835630602468
 20
21.657110663485923
 40
3.0499999999999998
  0
CIRCLE
  8
_0-0_
  6
CONTINUOUS
 62
    7
 10
16.798835630602525
 20
21.657110663485923
 40
3.0499999999999998
  0
ARC
  8
_0-0_
  6
CONTINUOUS
 62
    7
 10
88.298835630602468
 20
31.657110663485923
 40
5
 50
0
 51
89.999999999999659
  0
ARC
  8
_0-0_
  6
CONTINUOUS
 62
    7
 10
88.298835630602468
 20
11.657110663485923
 40
5
 50
269.99999999999966
 51
0
  0
LINE
  8
_0-0_
  6
CONTINUOUS
 62
    7
 10
93.298835630602468
 20
58.745707173485926
 11
1.7988356306025253
 21
58.745707173486494
  0
LINE
  8
_0-0_
  6
CONTINUOUS
 62
    7
 10
93.298835630602468
 20
60.745707173485926
 11
1.7988356306025253
 21
60.745707173486494
  0
LINE
  8
_0-0_
  6
CONTINUOUS
 62
    7
 10
1.7988356306025253
 20
60.745707173486494
 11
1.7988356306025253
 21
58.745707173486494
  0
LINE
  8
_0-0_
  6
CONTINUOUS
 62
    7
 10
93.298835630602468
 20
60.745707173485926
 11
93.298835630602468
 21
58.745707173485926
  0
LINE
  8
_0-1_
  6
CENTER1
 62
  152
 10
1.7988356306025253
 20
21.657110663486378
 11
93.298835630602468
 21
21.657110663485923
  0
LINE
  8
_0-1_
  6
CENTER1
 62
  152
 10
16.798835630602525
 20
36.657110663486378
 11
16.798835630602525
 21
6.6571106634863781
  0
LINE
  8
_0-1_
  6
CENTER1
 62
  152
 10
16.798835630602525
 20
63.483865507435439
 11
16.798835630602525
 21
54.853648544910811
  0
LINE
  8
_0-1_
  6
CENTER1
 62
  152
 10
85.298835630602468
 20
15.461649320660229
 11
85.298835630602468
 21
28.174955861068611
  0
LINE
  8
_0-1_
  6
CENTER1
 62
  152
 10
55.298835630602525
 20
28.174955861068611
 11
55.298835630602525
 21
15.461649320660229
  0
LINE
  8
_0-1_
  6
CONTINUOUS
 62
    7
 10
77.298835630602525
 20
55.745707173485982
 11
77.298835630602525
 21
58.745707173485982
  0
LINE
  8
_0-1_
  6
CONTINUOUS
 62
    7
 10
93.298835630602468
 20
55.745707173485982
 11
77.298835630602525
 21
55.745707173485982
  0
LINE
  8
_0-1_
  6
CONTINUOUS
 62
    7
 10
93.298835630602468
 20
55.745707173485982
 11
93.298835630602468
 21
58.745707173485982
  0
LINE
  8
ADD_LINE
  6
DOT
 62
    9
 10
85.298835630602468
 20
55.745707173485982
 11
84.591728849415802
 21
56.452813954672536
  0
LINE
  8
ADD_LINE
  6
DOT
 62
    9
 10
85.298835630602468
 20
55.745707173485982
 11
86.005942411789135
 21
56.452813954672536
  0
LINE
  8
_0-1_
  6
CONTINUOUS
 62
  152
 10
83.423835630602468
 20
50.345707078118551
 11
83.423835630602468
 21
55.745707173485982
  0
LINE
  8
_0-1_
  6
CONTINUOUS
 62
  152
 10
82.798835630602468
 20
50.345707078118551
 11
82.798835630602468
 21
55.745707173485982
  0
LINE
  8
_0-1_
  6
CONTINUOUS
 62
  152
 10
82.173835630602525
 20
50.345707078118551
 11
82.173835630602525
 21
55.745707173485982
  0
LINE
  8
_0-1_
  6
CONTINUOUS
 62
  152
 10
81.548835630602525
 20
50.345707078118551
 11
81.548835630602525
 21
55.745707173485982
  0
LINE
  8
_0-1_
  6
CONTINUOUS
 62
  152
 10
80.923835630602525
 20
50.345707078118551
 11
80.923835630602525
 21
55.745707173485982
  0
LINE
  8
_0-1_
  6
CONTINUOUS
 62
  152
 10
87.848835582918753
 20
55.745707173485982
 11
87.848835582918753
 21
67.745707173485982
  0
LINE
  8
_0-1_
  6
CONTINUOUS
 62
  152
 10
82.748835678286184
 20
55.745707173485982
 11
82.748835678286184
 21
67.745707173485982
  0
LINE
  8
_0-1_
  6
CONTINUOUS
 62
   56
 10
90.298835630602468
 20
50.345707078118551
 11
90.298835630602468
 21
55.745707173485982
  0
LINE
  8
_0-1_
  6
CONTINUOUS
 62
   56
 10
90.298835630602468
 20
50.345707078118551
 11
89.6988357259699
 21
49.745707173485982
  0
LINE
  8
_0-1_
  6
CONTINUOUS
 62
   56
 10
80.898835535235094
 20
49.745707173485982
 11
89.6988357259699
 21
49.745707173485982
  0
LINE
  8
_0-1_
  6
CONTINUOUS
 62
   56
 10
80.298835630602525
 20
50.345707078118551
 11
80.298835630602525
 21
55.745707173485982
  0
LINE
  8
_0-1_
  6
CONTINUOUS
 62
   56
 10
80.898835535235094
 20
49.745707173485982
 11
80.298835630602525
 21
50.345707078118551
  0
LINE
  8
_0-1_
  6
CONTINUOUS
 62
   56
 10
90.298835630602468
 20
50.345707078118551
 11
80.298835630602525
 21
50.345707078118551
  0
LINE
  8
_0-1_
  6
CONTINUOUS
 62
   56
 10
88.298835630602468
 20
67.295707364220846
 11
88.298835630602468
 21
55.745707173485982
  0
LINE
  8
_0-1_
  6
CONTINUOUS
 62
   56
 10
88.298835630602468
 20
67.295707364220846
 11
87.848835582918753
 21
67.745707173485982
  0
LINE
  8
_0-1_
  6
CONTINUOUS
 62
   56
 10
82.748835678286184
 20
67.745707173485982
 11
87.848835582918753
 21
67.745707173485982
  0
LINE
  8
_0-1_
  6
CONTINUOUS
 62
   56
 10
82.298835630602525
 20
67.295707364220846
 11
82.298835630602525
 21
55.745707173485982
  0
LINE
  8
_0-1_
  6
CONTINUOUS
 62
   56
 10
82.748835678286184
 20
67.745707173485982
 11
82.298835630602525
 21
67.295707364220846
  0
LINE
  8
_0-1_
  6
CONTINUOUS
 62
   56
 10
88.298835630602468
 20
67.295707364220846
 11
82.298835630602525
 21
67.295707364220846
  0
LINE
  8
_0-1_
  6
CONTINUOUS
 62
    7
 10
80.45890386856513
 20
61.802129302112178
 11
80.316233164099003
 21
63.43286291623366
  0
LINE
  8
_0-1_
  6
CONTINUOUS
 62
    7
 10
79.320038466006963
 20
64.345707173486005
 11
78.998835630602343
 21
64.345707173486005
  0
LINE
  8
_0-1_
  6
CONTINUOUS
 62
    7
 10
78.515872717457796
 20
64.975116696037219
 11
78.703085074401542
 21
65.67380272395593
  0
LINE
  8
_0-1_
  6
CONTINUOUS
 62
    7
 10
78.93604798754609
 20
65.977405903296756
 11
81.302683207895598
 21
67.343783384839242
  0
LINE
  8
_0-1_
  6
CONTINUOUS
 62
    7
 10
82.802683207895541
 20
67.745707173486096
 11
87.794988053308941
 21
67.745707173486096
  0
LINE
  8
_0-1_
  6
CONTINUOUS
 62
    7
 10
89.294988053308941
 20
67.343783384839242
 11
91.661623273658449
 21
65.977405903296756
  0
LINE
  8
_0-1_
  6
CONTINUOUS
 62
    7
 10
91.894586186802997
 20
65.67380272395593
 11
92.081798543746743
 21
64.975116696037219
  0
LINE
  8
_0-1_
  6
CONTINUOUS
 62
    7
 10
91.598835630602196
 20
64.345707173486005
 11
91.277632795197576
 21
64.345707173486005
  0
LINE
  8
_0-1_
  6
CONTINUOUS
 62
    7
 10
90.281438097105536
 20
63.43286291623366
 11
90.138767392639409
 21
61.802129302112178
  0
LINE
  8
_0-1_
  6
CONTINUOUS
 62
    7
 10
89.640670043593389
 20
61.345707173486005
 11
80.95700121761115
 21
61.345707173486005
  0
ARC
  8
_0-1_
  6
CONTINUOUS
 62
    7
 10
89.640670043593389
 20
61.845707173486005
 40
0.5
 50
270
 51
355
  0
ARC
  8
_0-1_
  6
CONTINUOUS
 62
    7
 10
91.277632795197576
 20
63.345707173486005
 40
1
 50
90
 51
175.00000000000006
  0
ARC
  8
_0-1_
  6
CONTINUOUS
 62
    7
 10
91.598835630602196
 20
64.845707173486005
 40
0.5
 50
270
 51
318.59270234267069
  0
ARC
  8
_0-1_
  6
CONTINUOUS
 62
    7
 10
91.598835630602196
 20
64.845707173486005
 40
0.5
 50
318.59270234267069
 51
15.000000000000014
  0
ARC
  8
_0-1_
  6
CONTINUOUS
 62
    7
 10
91.411623273658449
 20
65.544393201404489
 40
0.5
 50
14.999999999999982
 51
59.999999999999986
  0
ARC
  8
_0-1_
  6
CONTINUOUS
 62
    7
 10
87.794988053308941
 20
64.745707173486096
 40
3
 50
59.999999999999929
 51
89.999999999999986
  0
ARC
  8
_0-1_
  6
CONTINUOUS
 62
    7
 10
80.95700121761115
 20
61.845707173486005
 40
0.5
 50
185
 51
270
  0
ARC
  8
_0-1_
  6
CONTINUOUS
 62
    7
 10
79.320038466006963
 20
63.345707173486005
 40
1
 50
4.9999999999999432
 51
90
  0
ARC
  8
_0-1_
  6
CONTINUOUS
 62
    7
 10
78.998835630602343
 20
64.845707173486005
 40
0.5
 50
221.40729765732931
 51
270
  0
ARC
  8
_0-1_
  6
CONTINUOUS
 62
    7
 10
78.998835630602343
 20
64.845707173486005
 40
0.5
 50
165.00000000000003
 51
221.40729765732931
  0
ARC
  8
_0-1_
  6
CONTINUOUS
 62
    7
 10
79.18604798754609
 20
65.544393201404489
 40
0.5
 50
119.99999999999999
 51
164.99999999999997
  0
ARC
  8
_0-1_
  6
CONTINUOUS
 62
    7
 10
82.802683207895541
 20
64.745707173486096
 40
3
 50
90.000000000000028
 51
120.00000000000007
  0
LINE
  8
_0-1_
  6
CENTER1
 62
  152
 10
85.298835630602468
 20
49.035755530433619
 11
85.298835630602468
 21
68.051596055280754
  0
LINE
  8
_0-1_
  6
CONTINUOUS
 62
    7
 10
47.298835630602525
 20
55.745707173486153
 11
47.298835630602525
 21
58.745707173486153
  0
LINE
  8
_0-1_
  6
CONTINUOUS
 62
    7
 10
63.298835630602525
 20
55.745707173486153
 11
47.298835630602525
 21
55.745707173486153
  0
LINE
  8
_0-1_
  6
CONTINUOUS
 62
    7
 10
63.298835630602525
 20
55.745707173486153
 11
63.298835630602525
 21
58.745707173486153
  0
LINE
  8
ADD_LINE
  6
DOT
 62
    9
 10
55.298835630602525
 20
55.745707173486153
 11
54.591728849415858
 21
56.452813954672706
  0
LINE
  8
ADD_LINE
  6
DOT
 62
    9
 10
55.298835630602525
 20
55.745707173486153
 11
56.005942411789192
 21
56.452813954672706
  0
LINE
  8
_0-1_
  6
CONTINUOUS
 62
  152
 10
53.423835630602525
 20
50.345707078118721
 11
53.423835630602525
 21
55.745707173486153
  0
LINE
  8
_0-1_
  6
CONTINUOUS
 62
  152
 10
52.798835630602525
 20
50.345707078118721
 11
52.798835630602525
 21
55.745707173486153
  0
LINE
  8
_0-1_
  6
CONTINUOUS
 62
  152
 10
52.173835630602525
 20
50.345707078118721
 11
52.173835630602525
 21
55.745707173486153
  0
LINE
  8
_0-1_
  6
CONTINUOUS
 62
  152
 10
51.548835630602525
 20
50.345707078118721
 11
51.548835630602525
 21
55.745707173486153
  0
LINE
  8
_0-1_
  6
CONTINUOUS
 62
  152
 10
50.923835630602525
 20
50.345707078118721
 11
50.923835630602525
 21
55.745707173486153
  0
LINE
  8
_0-1_
  6
CONTINUOUS
 62
  152
 10
57.848835582918809
 20
55.745707173486153
 11
57.848835582918809
 21
67.745707173486153
  0
LINE
  8
_0-1_
  6
CONTINUOUS
 62
  152
 10
52.748835678286241
 20
55.745707173486153
 11
52.748835678286241
 21
67.745707173486153
  0
LINE
  8
_0-1_
  6
CONTINUOUS
 62
   56
 10
60.298835630602525
 20
50.345707078118721
 11
60.298835630602525
 21
55.745707173486153
  0
LINE
  8
_0-1_
  6
CONTINUOUS
 62
   56
 10
60.298835630602525
 20
50.345707078118721
 11
59.698835725969957
 21
49.745707173486153
  0
LINE
  8
_0-1_
  6
CONTINUOUS
 62
   56
 10
50.898835535235094
 20
49.745707173486153
 11
59.698835725969957
 21
49.745707173486153
  0
LINE
  8
_0-1_
  6
CONTINUOUS
 62
   56
 10
50.298835630602525
 20
50.345707078118721
 11
50.298835630602525
 21
55.745707173486153
  0
LINE
  8
_0-1_
  6
CONTINUOUS
 62
   56
 10
50.898835535235094
 20
49.745707173486153
 11
50.298835630602525
 21
50.345707078118721
  0
LINE
  8
_0-1_
  6
CONTINUOUS
 62
   56
 10
60.298835630602525
 20
50.345707078118721
 11
50.298835630602525
 21
50.345707078118721
  0
LINE
  8
_0-1_
  6
CONTINUOUS
 62
   56
 10
58.298835630602525
 20
67.295707364221016
 11
58.298835630602525
 21
55.745707173486153
  0
LINE
  8
_0-1_
  6
CONTINUOUS
 62
   56
 10
58.298835630602525
 20
67.295707364221016
 11
57.848835582918809
 21
67.745707173486153
  0
LINE
  8
_0-1_
  6
CONTINUOUS
 62
   56
 10
52.748835678286241
 20
67.745707173486153
 11
57.848835582918809
 21
67.745707173486153
  0
LINE
  8
_0-1_
  6
CONTINUOUS
 62
   56
 10
52.298835630602525
 20
67.295707364221016
 11
52.298835630602525
 21
55.745707173486153
  0
LINE
  8
_0-1_
  6
CONTINUOUS
 62
   56
 10
52.748835678286241
 20
67.745707173486153
 11
52.298835630602525
 21
67.295707364221016
  0
LINE
  8
_0-1_
  6
CONTINUOUS
 62
   56
 10
58.298835630602525
 20
67.295707364221016
 11
52.298835630602525
 21
67.295707364221016
  0
LINE
  8
_0-1_
  6
CONTINUOUS
 62
    7
 10
50.45890386856513
 20
61.802129302112348
 11
50.316233164099003
 21
63.43286291623383
  0
LINE
  8
_0-1_
  6
CONTINUOUS
 62
    7
 10
49.320038466006963
 20
64.345707173486176
 11
48.998835630602343
 21
64.345707173486176
  0
LINE
  8
_0-1_
  6
CONTINUOUS
 62
    7
 10
48.515872717457796
 20
64.975116696037389
 11
48.703085074401542
 21
65.673802723956101
  0
LINE
  8
_0-1_
  6
CONTINUOUS
 62
    7
 10
48.93604798754609
 20
65.977405903296926
 11
51.302683207895598
 21
67.343783384839412
  0
LINE
  8
_0-1_
  6
CONTINUOUS
 62
    7
 10
52.802683207895598
 20
67.745707173486267
 11
57.794988053308998
 21
67.745707173486267
  0
LINE
  8
_0-1_
  6
CONTINUOUS
 62
    7
 10
59.294988053308998
 20
67.343783384839412
 11
61.661623273658506
 21
65.977405903296926
  0
LINE
  8
_0-1_
  6
CONTINUOUS
 62
    7
 10
61.894586186803053
 20
65.673802723956101
 11
62.0817985437468
 21
64.975116696037389
  0
LINE
  8
_0-1_
  6
CONTINUOUS
 62
    7
 10
61.598835630602252
 20
64.345707173486176
 11
61.277632795197633
 21
64.345707173486176
  0
LINE
  8
_0-1_
  6
CONTINUOUS
 62
    7
 10
60.281438097105593
 20
63.43286291623383
 11
60.138767392639465
 21
61.802129302112348
  0
LINE
  8
_0-1_
  6
CONTINUOUS
 62
    7
 10
59.640670043593445
 20
61.345707173486176
 11
50.95700121761115
 21
61.345707173486176
  0
ARC
  8
_0-1_
  6
CONTINUOUS
 62
    7
 10
59.640670043593445
 20
61.845707173486176
 40
0.5
 50
270
 51
355
  0
ARC
  8
_0-1_
  6
CONTINUOUS
 62
    7
 10
61.277632795197633
 20
63.345707173486176
 40
1
 50
90
 51
175.00000000000006
  0
ARC
  8
_0-1_
  6
CONTINUOUS
 62
    7
 10
61.598835630602252
 20
64.845707173486176
 40
0.5
 50
270
 51
318.59270234267069
  0
ARC
  8
_0-1_
  6
CONTINUOUS
 62
    7
 10
61.598835630602252
 20
64.845707173486176
 40
0.5
 50
318.59270234267069
 51
15.000000000000014
  0
ARC
  8
_0-1_
  6
CONTINUOUS
 62
    7
 10
61.411623273658506
 20
65.54439320140466
 40
0.5
 50
14.999999999999982
 51
59.999999999999986
  0
ARC
  8
_0-1_
  6
CONTINUOUS
 62
    7
 10
57.794988053308998
 20
64.745707173486267
 40
3
 50
59.999999999999929
 51
89.999999999999986
  0
ARC
  8
_0-1_
  6
CONTINUOUS
 62
    7
 10
50.95700121761115
 20
61.845707173486176
 40
0.5
 50
185
 51
270
  0
ARC
  8
_0-1_
  6
CONTINUOUS
 62
    7
 10
49.320038466006963
 20
63.345707173486176
 40
1
 50
4.9999999999999432
 51
90
  0
ARC
  8
_0-1_
  6
CONTINUOUS
 62
    7
 10
48.998835630602343
 20
64.845707173486176
 40
0.5
 50
221.40729765732931
 51
270
  0
ARC
  8
_0-1_
  6
CONTINUOUS
 62
    7
 10
48.998835630602343
 20
64.845707173486176
 40
0.5
 50
165.00000000000003
 51
221.40729765732931
  0
ARC
  8
_0-1_
  6
CONTINUOUS
 62
    7
 10
49.18604798754609
 20
65.54439320140466
 40
0.5
 50
119.99999999999999
 51
164.99999999999997
  0
ARC
  8
_0-1_
  6
CONTINUOUS
 62
    7
 10
52.802683207895598
 20
64.745707173486267
 40
3
 50
90.000000000000028
 51
120.00000000000007
  0
LINE
  8
_0-1_
  6
CENTER1
 62
  152
 10
55.298835630602525
 20
49.035755530433789
 11
55.298835630602525
 21
68.051596055280925
  0
ENDSEC
  0
EOF
