  0
SECTION
  2
HEADER
  9
$ACADVER
  1
AC1009
  9
$INSBASE
 10
0
 20
0
 30
0
  9
$EXTMIN
 10
0
 20
0
  9
$EXTMAX
 10
1189
 20
841
  9
$LIMMIN
 10
0
 20
0
  9
$LIMMAX
 10
1189
 20
841
  9
$LTSCALE
 40
1
  0
ENDSEC
  0
SECTION
  2
TABLES
  0
TABLE
  2
LTYPE
 70
     9
  0
LTYPE
  2
CONTINUOUS
 70
    64
  3
実線
 72
    65
 73
     0
 40
0.0
  0
LTYPE
  2
DASHED1
 70
    64
  3
--  --  --  --  --  --  --  --  
 72
    65
 73
     2
 40
2.5
 49
1.25
 49
-1.25
  0
LTYPE
  2
DASHED2
 70
    64
  3
----    ----    ----    ----    
 72
    65
 73
     2
 40
5.0
 49
2.5
 49
-2.5
  0
LTYPE
  2
DASHED3
 70
    64
  3
------  ------  ------  ------  
 72
    65
 73
     2
 40
5.0
 49
3.75
 49
-1.25
  0
LTYPE
  2
CENTER1
 70
    64
  3
----- - ----- - ----- - ----- - 
 72
    65
 73
     4
 40
10.0
 49
6.25
 49
-1.25
 49
1.25
 49
-1.25
  0
LTYPE
  2
CENTER2
 70
    64
  3
----------  --  ----------  --  
 72
    65
 73
     4
 40
20.0
 49
12.5
 49
-2.5
 49
2.5
 49
-2.5
  0
LTYPE
  2
PHANTOM1
 70
    64
  3
--- - - --- - - --- - - --- - - 
 72
    65
 73
     6
 40
10.0
 49
3.25
 49
-1.25
 49
1.25
 49
-1.25
 49
1.25
 49
-1.25
  0
LTYPE
  2
PHANTOM2
 70
    64
  3
--------  -  -  --------  -  -  
 72
    65
 73
     6
 40
20.0
 49
10.0
 49
-2.5
 49
1.25
 49
-2.5
 49
1.25
 49
-2.5
  0
LTYPE
  2
DOT
 70
    64
  3
-   -   -   -   -   -   -   -   
 72
    65
 73
     2
 40
2.5
 49
0.625
 49
-1.875
  0
LTYPE
  2
DUMMY
 70
    64
  3
ダミー
 72
    65
 73
     0
 40
0.0
  0
LTYPE
  2
RAND1
 70
    64
  3
ランダム線1
 72
    65
 73
     4
 40
10.0
 49
1.0
 49
-2.0
 49
3.0
 49
-4.0
  0
LTYPE
  2
RAND2
 70
    64
  3
ランダム線2
 72
    65
 73
     4
 40
14.0
 49
2.0
 49
-3.0
 49
4.0
 49
-5.0
  0
LTYPE
  2
RAND3
 70
    64
  3
ランダム線3
 72
    65
 73
     4
 40
18.0
 49
3.0
 49
-4.0
 49
5.0
 49
-6.0
  0
LTYPE
  2
RAND4
 70
    64
  3
ランダム線4
 72
    65
 73
     4
 40
22.0
 49
4.0
 49
-5.0
 49
6.0
 49
-7.0
  0
LTYPE
  2
RAND5
 70
    64
  3
ランダム線5
 72
    65
 73
     4
 40
26.0
 49
5.0
 49
-6.0
 49
7.0
 49
-8.0
  0
LTYPE
  2
LONG1
 70
    64
  3
----------  --  ----------  --  
 72
    65
 73
     4
 40
40.0
 49
32.5
 49
-2.5
 49
2.5
 49
-2.5
  0
LTYPE
  2
LONG2
 70
    64
  3
--------  -  -  --------  -  -  
 72
    65
 73
     6
 40
40.0
 49
30.0
 49
-2.5
 49
1.25
 49
-2.5
 49
1.25
 49
-2.5
  0
LTYPE
  2
LONG3
 70
    64
  3
+++++++++++++++..+++++++++++++++
 72
    65
 73
     2
 40
40.0
 49
37.5
 49
-2.5
  0
LTYPE
  2
LONG4
 70
    64
  3
+++++++++++++++..+++++++++++++++
 72
    65
 73
     2
 40
80.0
 49
75.0
 49
-5.0
  0
LTYPE
  2
LONG5
 70
    64
  3
----------  --  ----------  --  
 72
    65
 73
     4
 40
60.0
 49
37.5
 49
-7.5
 49
7.5
 49
-7.5
  0
LTYPE
  2
dashed
 70
   64
  3
-------   -------------   ------
 72
   65
 73
    2
 40
7.5
 49
6
 49
-1.5
  0
LTYPE
  2
dashed_spaced
 70
   64
  3
----        --------        ----
 72
   65
 73
    2
 40
12
 49
6
 49
-6
  0
LTYPE
  2
long_dashed_dotted
 70
   64
  3
------------- --- --------------
 72
   65
 73
    4
 40
15.25
 49
12
 49
-1.5
 49
0.25
 49
-1.5
  0
LTYPE
  2
long_dashed_double-dotted
 70
   64
  3
----------- --- --- ------------
 72
   65
 73
    6
 40
17
 49
12
 49
-1.5
 49
0.25
 49
-1.5
 49
0.25
 49
-1.5
  0
LTYPE
  2
long_dashed_triplicate-dotted
 70
   64
  3
--------- --- --- --- ----------
 72
   65
 73
    8
 40
18.75
 49
12
 49
-1.5
 49
0.25
 49
-1.5
 49
0.25
 49
-1.5
 49
0.25
 49
-1.5
  0
LTYPE
  2
dotted
 70
   64
  3
   -       -       -       -    
 72
   65
 73
    2
 40
1.75
 49
0.25
 49
-1.5
  0
LTYPE
  2
chain
 70
   64
  3
-------------- -- --------------
 72
   65
 73
    4
 40
18.5
 49
12
 49
-1.5
 49
3.5
 49
-1.5
  0
LTYPE
  2
chain_double_dash
 70
   64
  3
------------ -- -- -------------
 72
   65
 73
    6
 40
23.5
 49
12
 49
-1.5
 49
3.5
 49
-1.5
 49
3.5
 49
-1.5
  0
LTYPE
  2
dashed_dotted
 70
   64
  3
-----------     -     ----------
 72
   65
 73
    4
 40
9.25
 49
6
 49
-1.5
 49
0.25
 49
-1.5
  0
LTYPE
  2
double-dashed_dotted
 70
   64
  3
------   -----------   -   -----
 72
   65
 73
    6
 40
16.75
 49
6
 49
-1.5
 49
6
 49
-1.5
 49
0.25
 49
-1.5
  0
LTYPE
  2
dashed_double-dotted
 70
   64
  3
---------    -    -    ---------
 72
   65
 73
    6
 40
11
 49
6
 49
-1.5
 49
0.25
 49
-1.5
 49
0.25
 49
-1.5
  0
LTYPE
  2
double-dashed_double-dotted
 70
   64
  3
-----   ---------   -   -   ----
 72
   65
 73
    8
 40
18.5
 49
6
 49
-1.5
 49
6
 49
-1.5
 49
0.25
 49
-1.5
 49
0.25
 49
-1.5
  0
LTYPE
  2
dashed_triplicate-dotted
 70
   64
  3
-------    -    -    -    ------
 72
   65
 73
    8
 40
12.75
 49
6
 49
-1.5
 49
0.25
 49
-1.5
 49
0.25
 49
-1.5
 49
0.25
 49
-1.5
  0
LTYPE
  2
double-dashed_triplicate-dotted
 70
   64
  3
-----  ---------  -  -  -  -----
 72
   65
 73
   10
 40
20.25
 49
6
 49
-1.5
 49
6
 49
-1.5
 49
0.25
 49
-1.5
 49
0.25
 49
-1.5
 49
0.25
 49
-1.5
  0
LTYPE
  2
undefined
 70
   64
  3
--------------------------------
 72
   65
 73
    0
 40
0
  0
LTYPE
  2
_
 70
   64
  3
                                
 72
   65
 73
    0
 40
0
  0
LTYPE
  2
__18
 70
   64
  3
                                
 72
   65
 73
    0
 40
0
  0
LTYPE
  2
__19
 70
   64
  3
                                
 72
   65
 73
    0
 40
0
  0
LTYPE
  2
__20
 70
   64
  3
                                
 72
   65
 73
    0
 40
0
  0
LTYPE
  2
__21
 70
   64
  3
                                
 72
   65
 73
    0
 40
0
  0
LTYPE
  2
__22
 70
   64
  3
                                
 72
   65
 73
    0
 40
0
  0
LTYPE
  2
__23
 70
   64
  3
                                
 72
   65
 73
    0
 40
0
  0
LTYPE
  2
__24
 70
   64
  3
                                
 72
   65
 73
    0
 40
0
  0
LTYPE
  2
__25
 70
   64
  3
                                
 72
   65
 73
    0
 40
0
  0
LTYPE
  2
__26
 70
   64
  3
                                
 72
   65
 73
    0
 40
0
  0
LTYPE
  2
__27
 70
   64
  3
                                
 72
   65
 73
    0
 40
0
  0
LTYPE
  2
__28
 70
   64
  3
                                
 72
   65
 73
    0
 40
0
  0
LTYPE
  2
__29
 70
   64
  3
                                
 72
   65
 73
    0
 40
0
  0
LTYPE
  2
__30
 70
   64
  3
                                
 72
   65
 73
    0
 40
0
  0
LTYPE
  2
__31
 70
   64
  3
                                
 72
   65
 73
    0
 40
0
  0
LTYPE
  2
__32
 70
   64
  3
                                
 72
   65
 73
    0
 40
0
  0
ENDTAB
  0
TABLE
  2
STYLE
  5
3
100
AcDbSymbolTable
 70
     1
  0
STYLE
  5
10
100
AcDbSymbolTableRecord
100
AcDbTextStyleTableRecord
  2
STANDARD
 70
     0
 40
0.0
 41
1.0
 50
0.0
 71
     0
 42
0.2
  3
txt
  4
bigfont.shx
  0
STYLE
  5
26
100
AcDbSymbolTableRecord
100
AcDbTextStyleTableRecord
  2
TATEGAKI
 70
    68
 40
0.0
 41
1.0
 50
0.0
 71
     0
 42
1.0
  3
txt
  4
bigfont.shx
  0
ENDTAB
  0
TABLE
  2
LAYER
 70
    4
  0
LAYER
  2
_0-0_
 70
   64
 62
    7
  6
CONTINUOUS
  0
LAYER
  2
_0-1_
 70
   64
 62
    7
  6
CONTINUOUS
  0
LAYER
  2
_0-f_
 70
   64
 62
    7
  6
CONTINUOUS
  0
LAYER
  2
ADD_LINE
 70
   64
 62
    7
  6
CONTINUOUS
  0
ENDTAB
  0
ENDSEC
  0
SECTION
  2
BLOCKS
  0
ENDSEC
  0
SECTION
  2
ENTITIES
  0
TEXT
  8
_0-f_
 62
    7
 10
3.1961420574378963
 20
2.1012753040429288
 40
4.2999999999999998
 41
0.744186046511628
 50
0
  1
GS34
  0
LINE
  8
_0-0_
  6
CONTINUOUS
 62
    7
 10
3.5639604611956202
 20
13.918242598037352
 11
3.5639604611956202
 21
59.618242598037398
  0
LINE
  8
_0-0_
  6
CONTINUOUS
 62
    7
 10
8.5639604611956202
 20
64.618242598037341
 11
56.56396046119562
 21
64.618242598037341
  0
LINE
  8
_0-0_
  6
CONTINUOUS
 62
    7
 10
61.56396046119562
 20
59.618242598037398
 11
61.56396046119562
 21
13.918242598037295
  0
LINE
  8
_0-0_
  6
CONTINUOUS
 62
    7
 10
56.56396046119562
 20
8.9182425980372955
 11
8.5639604611956202
 21
8.9182425980372955
  0
LINE
  8
_0-0_
  6
CENTER1
 62
    7
 10
61.56396046119562
 20
47.21824259803725
 11
61.576483917985684
 21
47.21824259803725
  0
LINE
  8
_0-0_
  6
CENTER1
 62
    7
 10
61.576483917985684
 20
54.618242598037398
 11
61.56396046119562
 21
54.618242598037398
  0
CIRCLE
  8
_0-0_
  6
CONTINUOUS
 62
    7
 10
55.56396046119562
 20
20.418242598037295
 40
2.5499999999999998
  0
CIRCLE
  8
_0-0_
  6
CONTINUOUS
 62
    7
 10
32.56396046119562
 20
20.418242598037295
 40
2.5499999999999998
  0
CIRCLE
  8
_0-0_
  6
CONTINUOUS
 62
    7
 10
9.5639604611956202
 20
20.418242598037295
 40
2.5499999999999998
  0
CIRCLE
  8
_0-0_
  6
CONTINUOUS
 62
    7
 10
51.56396046119562
 20
47.21824259803725
 40
3.0499999999999998
  0
CIRCLE
  8
_0-0_
  6
CONTINUOUS
 62
    7
 10
51.56396046119562
 20
54.618242598037398
 40
3.0499999999999998
  0
CIRCLE
  8
_0-0_
  6
CONTINUOUS
 62
    7
 10
32.56396046119562
 20
47.21824259803725
 40
3.0499999999999998
  0
CIRCLE
  8
_0-0_
  6
CONTINUOUS
 62
    7
 10
32.56396046119562
 20
54.618242598037398
 40
3.0499999999999998
  0
CIRCLE
  8
_0-0_
  6
CONTINUOUS
 62
    7
 10
13.56396046119562
 20
47.218242598037307
 40
3.0499999999999998
  0
CIRCLE
  8
_0-0_
  6
CONTINUOUS
 62
    7
 10
13.56396046119562
 20
54.618242598037398
 40
3.0499999999999998
  0
ARC
  8
_0-0_
  6
CONTINUOUS
 62
    7
 10
56.56396046119562
 20
13.918242598037295
 40
5
 50
270
 51
0
  0
ARC
  8
_0-0_
  6
CONTINUOUS
 62
    7
 10
8.5639604611956202
 20
13.918242598037295
 40
5
 50
180
 51
270
  0
ARC
  8
_0-0_
  6
CONTINUOUS
 62
    7
 10
8.5639604611956202
 20
59.618242598037398
 40
5
 50
90
 51
180
  0
ARC
  8
_0-0_
  6
CONTINUOUS
 62
    7
 10
56.56396046119562
 20
59.618242598037398
 40
5
 50
0
 51
90
  0
LINE
  8
_0-0_
  6
CONTINUOUS
 62
    7
 10
3.5639604611956202
 20
110.50473800887562
 11
3.5639604611956202
 21
108.50473800887562
  0
LINE
  8
_0-0_
  6
CONTINUOUS
 62
    7
 10
61.56396046119562
 20
110.50473800887505
 11
61.56396046119562
 21
108.50473800887505
  0
LINE
  8
_0-0_
  6
CONTINUOUS
 62
    7
 10
61.56396046119562
 20
108.50473800887505
 11
3.5639604611956202
 21
108.50473800887562
  0
LINE
  8
_0-0_
  6
CONTINUOUS
 62
    7
 10
61.56396046119562
 20
110.50473800887505
 11
3.5639604611956202
 21
110.50473800887562
  0
LINE
  8
_0-1_
  6
CENTER1
 62
  152
 10
51.56396046119562
 20
64.618242598037341
 11
51.56396046119562
 21
36.806544381302047
  0
LINE
  8
_0-1_
  6
CENTER1
 62
  152
 10
55.56396046119562
 20
27.933896919024846
 11
55.56396046119562
 21
14.217827783222447
  0
LINE
  8
_0-1_
  6
CENTER1
 62
  152
 10
61.576483917985684
 20
20.418242598037295
 11
3.5639604611956202
 21
20.418242598037352
  0
LINE
  8
_0-1_
  6
CENTER1
 62
  152
 10
9.5639604611956202
 20
14.217827783222447
 11
9.5639604611956202
 21
27.933896919024903
  0
LINE
  8
_0-1_
  6
CENTER1
 62
  152
 10
13.56396046119562
 20
36.806544381302103
 11
13.56396046119562
 21
64.618242598037341
  0
LINE
  8
_0-1_
  6
CENTER1
 62
  152
 10
9.2626585864813933
 20
54.618242598037398
 11
56.165908700793352
 21
54.618242598037398
  0
LINE
  8
_0-1_
  6
CENTER1
 62
  152
 10
56.165908700793352
 20
47.21824259803725
 11
9.2626585864813933
 21
47.218242598037307
  0
LINE
  8
_0-1_
  6
CENTER1
 62
  152
 10
32.56396046119562
 20
64.618242598037341
 11
32.56396046119562
 21
14.217827783222447
  0
LINE
  8
_0-1_
  6
CENTER1
 62
  152
 10
13.56396046119562
 20
113.24289634282462
 11
13.56396046119562
 21
104.61267938029994
  0
LINE
  8
_0-1_
  6
CENTER1
 62
  152
 10
51.56396046119562
 20
113.24289634282462
 11
51.56396046119562
 21
104.61267938029994
  0
LINE
  8
_0-1_
  6
CENTER1
 62
  152
 10
32.56396046119562
 20
113.24289634282462
 11
32.56396046119562
 21
104.61267938029994
  0
LINE
  8
_0-0_
  6
CONTINUOUS
 62
    7
 10
88.577920901195625
 20
64.618242598037341
 11
88.577920901195625
 21
8.9182425980373523
  0
LINE
  8
_0-0_
  6
CONTINUOUS
 62
    7
 10
90.577920901195625
 20
64.618242598037341
 11
90.577920901195625
 21
8.9182425980373523
  0
LINE
  8
_0-0_
  6
CONTINUOUS
 62
    7
 10
88.577920901195625
 20
8.9182425980373523
 11
90.577920901195625
 21
8.9182425980373523
  0
LINE
  8
_0-0_
  6
CONTINUOUS
 62
    7
 10
88.577920901195625
 20
64.618242598037341
 11
90.577920901195625
 21
64.618242598037341
  0
LINE
  8
_0-0_
  6
CONTINUOUS
 62
    7
 10
86.577920901195625
 20
26.418242598037352
 11
88.577920901195625
 21
26.418242598037352
  0
LINE
  8
_0-0_
  6
CONTINUOUS
 62
    7
 10
86.577920901195625
 20
26.418242598037352
 11
86.577920901195625
 21
14.418242598037352
  0
LINE
  8
_0-0_
  6
CONTINUOUS
 62
    7
 10
86.577920901195625
 20
14.418242598037352
 11
88.577920901195625
 21
14.418242598037352
  0
LINE
  8
ADD_LINE
  6
DOT
 62
    9
 10
86.577920901195625
 20
20.418242598037352
 11
87.285027682382179
 21
21.125349379224019
  0
LINE
  8
ADD_LINE
  6
DOT
 62
    9
 10
86.577920901195625
 20
20.418242598037352
 11
87.285027682382179
 21
19.711135816850685
  0
LINE
  8
_0-0_
  6
CONTINUOUS
 62
  152
 10
82.077920901195625
 20
21.632528329352965
 11
86.577920901195625
 21
21.632528329352965
  0
LINE
  8
_0-0_
  6
CONTINUOUS
 62
  152
 10
82.077920901195625
 20
22.239671135406127
 11
86.577920901195625
 21
22.239671135406127
  0
LINE
  8
_0-0_
  6
CONTINUOUS
 62
  152
 10
82.077920901195625
 20
23.453956985931029
 11
86.577920901195625
 21
23.453956985931029
  0
LINE
  8
_0-0_
  6
CONTINUOUS
 62
  152
 10
82.077920901195625
 20
24.061099672774901
 11
86.577920901195625
 21
24.061099672774901
  0
LINE
  8
_0-0_
  6
CONTINUOUS
 62
  152
 10
82.077920901195625
 20
22.846814060668578
 11
86.577920901195625
 21
22.846814060668578
  0
LINE
  8
_0-0_
  6
CONTINUOUS
 62
   56
 10
82.077920901195625
 20
16.168242598037352
 11
86.577920901195625
 21
16.168242598037352
  0
LINE
  8
_0-0_
  6
CONTINUOUS
 62
   56
 10
82.077920901195625
 20
16.168242598037352
 11
81.577920901195625
 21
16.668242598037352
  0
LINE
  8
_0-0_
  6
CONTINUOUS
 62
   56
 10
81.577920901195625
 20
24.168242598037352
 11
81.577920901195625
 21
16.668242598037352
  0
LINE
  8
_0-0_
  6
CONTINUOUS
 62
   56
 10
82.077920901195625
 20
24.668242598037352
 11
86.577920901195625
 21
24.668242598037352
  0
LINE
  8
_0-0_
  6
CONTINUOUS
 62
   56
 10
81.577920901195625
 20
24.168242598037352
 11
82.077920901195625
 21
24.668242598037352
  0
LINE
  8
_0-0_
  6
CONTINUOUS
 62
   56
 10
82.077920901195625
 20
16.168242598037352
 11
82.077920901195625
 21
24.668242598037352
  0
LINE
  8
_0-0_
  6
CONTINUOUS
 62
  152
 10
86.577920901195625
 20
18.268242502669921
 11
94.577920901195625
 21
18.268242502669921
  0
LINE
  8
_0-0_
  6
CONTINUOUS
 62
  152
 10
86.577920901195625
 20
22.568242693404784
 11
94.577920901195625
 21
22.568242693404784
  0
LINE
  8
_0-0_
  6
CONTINUOUS
 62
   56
 10
94.227920519725899
 20
17.918242598037352
 11
86.577920901195625
 21
17.918242598037352
  0
LINE
  8
_0-0_
  6
CONTINUOUS
 62
   56
 10
94.577920901195625
 20
22.568242693404784
 11
94.577920901195625
 21
18.268242502669921
  0
LINE
  8
_0-0_
  6
CONTINUOUS
 62
   56
 10
94.227920519725899
 20
22.918242598037352
 11
86.577920901195625
 21
22.918242598037352
  0
LINE
  8
_0-0_
  6
CONTINUOUS
 62
   56
 10
94.227920519725899
 20
17.918242598037352
 11
94.577920901195625
 21
18.268242502669921
  0
LINE
  8
_0-0_
  6
CONTINUOUS
 62
   56
 10
94.577920901195625
 20
22.568242693404784
 11
94.227920519725899
 21
22.918242598037352
  0
LINE
  8
_0-0_
  6
CONTINUOUS
 62
   56
 10
94.227920519725899
 20
17.918242598037352
 11
94.227920519725899
 21
22.918242598037352
  0
LINE
  8
_0-0_
  6
CONTINUOUS
 62
    7
 10
95.23932090119564
 20
17.263191598037167
 11
95.557310901195422
 21
18.136855598037357
  0
LINE
  8
_0-0_
  6
CONTINUOUS
 62
    7
 10
95.677920901195591
 20
18.820895598037453
 11
95.677920901195591
 21
22.015588598037368
  0
LINE
  8
_0-0_
  6
CONTINUOUS
 62
    7
 10
95.557310901195422
 20
22.699628598037464
 11
95.23932090119564
 21
23.573292598037199
  0
ARC
  8
_0-0_
  6
CONTINUOUS
 62
    7
 10
93.677920901195591
 20
18.820895598037453
 40
2
 50
340
 51
0.0000000000000031
  0
ARC
  8
_0-0_
  6
CONTINUOUS
 62
    7
 10
93.677920901195591
 20
22.015588598037368
 40
2
 50
0
 51
20
  0
ARC
  8
_0-0_
  6
CONTINUOUS
 62
    7
 10
92.890090901195379
 20
18.11824259803717
 40
2.5
 50
258.17822799457855
 51
339.99999999999994
  0
LINE
  8
_0-0_
  6
CONTINUOUS
 62
    7
 10
92.377920901195409
 20
16.846704691244952
 11
92.377920901195409
 21
15.671268570569794
  0
ARC
  8
_0-0_
  6
CONTINUOUS
 62
    7
 10
92.890090901195379
 20
22.718242598037079
 40
2.5
 50
20.000000000000028
 51
101.82177200542145
  0
LINE
  8
_0-0_
  6
CONTINUOUS
 62
    7
 10
92.377920901195409
 20
25.165216625504456
 11
92.377920901195409
 21
23.989779504829357
  0
LINE
  8
_0-0_
  6
CONTINUOUS
 62
    7
 10
91.177920901195591
 20
23.668243691245038
 11
92.377920901195409
 21
23.989779504829357
  0
LINE
  8
_0-0_
  6
CONTINUOUS
 62
    7
 10
92.377920901195409
 20
16.846704691244952
 11
91.177920901195591
 21
17.168240504829384
  0
LINE
  8
_0-0_
  6
CONTINUOUS
 62
    7
 10
91.177920901195591
 20
23.668243691245038
 11
91.177920901195591
 21
17.168240504829384
  0
LINE
  8
ADD_LINE
  6
DOT
 62
    9
 10
90.577920901195625
 20
20.418242598037352
 11
91.285027682363079
 21
19.711135816869785
  0
LINE
  8
ADD_LINE
  6
DOT
 62
    9
 10
91.285027682363079
 20
21.125349379243119
 11
90.577920901176412
 21
20.418242598056452
  0
LINE
  8
_0-1_
  6
CENTER1
 62
  152
 10
85.466225940345907
 20
54.618242598037341
 11
93.3248914389589
 21
54.618242598037341
  0
LINE
  8
_0-1_
  6
CENTER1
 62
  152
 10
85.466225940345907
 20
47.218242598037364
 11
93.3248914389589
 21
47.218242598037364
  0
LINE
  8
_0-1_
  6
CENTER1
 62
  152
 10
81.011664594614899
 20
20.418242598037352
 11
96.249657122213364
 21
20.418242598037352
  0
ENDSEC
  0
EOF
