  0
SECTION
  2
HEADER
  9
$ACADVER
  1
AC1009
  9
$INSBASE
 10
0
 20
0
 30
0
  9
$EXTMIN
 10
0
 20
0
  9
$EXTMAX
 10
1189
 20
841
  9
$LIMMIN
 10
0
 20
0
  9
$LIMMAX
 10
1189
 20
841
  9
$LTSCALE
 40
1
  0
ENDSEC
  0
SECTION
  2
TABLES
  0
TABLE
  2
LTYPE
 70
     9
  0
LTYPE
  2
CONTINUOUS
 70
    64
  3
実線
 72
    65
 73
     0
 40
0.0
  0
LTYPE
  2
DASHED1
 70
    64
  3
--  --  --  --  --  --  --  --  
 72
    65
 73
     2
 40
2.5
 49
1.25
 49
-1.25
  0
LTYPE
  2
DASHED2
 70
    64
  3
----    ----    ----    ----    
 72
    65
 73
     2
 40
5.0
 49
2.5
 49
-2.5
  0
LTYPE
  2
DASHED3
 70
    64
  3
------  ------  ------  ------  
 72
    65
 73
     2
 40
5.0
 49
3.75
 49
-1.25
  0
LTYPE
  2
CENTER1
 70
    64
  3
----- - ----- - ----- - ----- - 
 72
    65
 73
     4
 40
10.0
 49
6.25
 49
-1.25
 49
1.25
 49
-1.25
  0
LTYPE
  2
CENTER2
 70
    64
  3
----------  --  ----------  --  
 72
    65
 73
     4
 40
20.0
 49
12.5
 49
-2.5
 49
2.5
 49
-2.5
  0
LTYPE
  2
PHANTOM1
 70
    64
  3
--- - - --- - - --- - - --- - - 
 72
    65
 73
     6
 40
10.0
 49
3.25
 49
-1.25
 49
1.25
 49
-1.25
 49
1.25
 49
-1.25
  0
LTYPE
  2
PHANTOM2
 70
    64
  3
--------  -  -  --------  -  -  
 72
    65
 73
     6
 40
20.0
 49
10.0
 49
-2.5
 49
1.25
 49
-2.5
 49
1.25
 49
-2.5
  0
LTYPE
  2
DOT
 70
    64
  3
-   -   -   -   -   -   -   -   
 72
    65
 73
     2
 40
2.5
 49
0.625
 49
-1.875
  0
LTYPE
  2
DUMMY
 70
    64
  3
ダミー
 72
    65
 73
     0
 40
0.0
  0
LTYPE
  2
RAND1
 70
    64
  3
ランダム線1
 72
    65
 73
     4
 40
10.0
 49
1.0
 49
-2.0
 49
3.0
 49
-4.0
  0
LTYPE
  2
RAND2
 70
    64
  3
ランダム線2
 72
    65
 73
     4
 40
14.0
 49
2.0
 49
-3.0
 49
4.0
 49
-5.0
  0
LTYPE
  2
RAND3
 70
    64
  3
ランダム線3
 72
    65
 73
     4
 40
18.0
 49
3.0
 49
-4.0
 49
5.0
 49
-6.0
  0
LTYPE
  2
RAND4
 70
    64
  3
ランダム線4
 72
    65
 73
     4
 40
22.0
 49
4.0
 49
-5.0
 49
6.0
 49
-7.0
  0
LTYPE
  2
RAND5
 70
    64
  3
ランダム線5
 72
    65
 73
     4
 40
26.0
 49
5.0
 49
-6.0
 49
7.0
 49
-8.0
  0
LTYPE
  2
LONG1
 70
    64
  3
----------  --  ----------  --  
 72
    65
 73
     4
 40
40.0
 49
32.5
 49
-2.5
 49
2.5
 49
-2.5
  0
LTYPE
  2
LONG2
 70
    64
  3
--------  -  -  --------  -  -  
 72
    65
 73
     6
 40
40.0
 49
30.0
 49
-2.5
 49
1.25
 49
-2.5
 49
1.25
 49
-2.5
  0
LTYPE
  2
LONG3
 70
    64
  3
+++++++++++++++..+++++++++++++++
 72
    65
 73
     2
 40
40.0
 49
37.5
 49
-2.5
  0
LTYPE
  2
LONG4
 70
    64
  3
+++++++++++++++..+++++++++++++++
 72
    65
 73
     2
 40
80.0
 49
75.0
 49
-5.0
  0
LTYPE
  2
LONG5
 70
    64
  3
----------  --  ----------  --  
 72
    65
 73
     4
 40
60.0
 49
37.5
 49
-7.5
 49
7.5
 49
-7.5
  0
LTYPE
  2
dashed
 70
   64
  3
-------   -------------   ------
 72
   65
 73
    2
 40
7.5
 49
6
 49
-1.5
  0
LTYPE
  2
dashed_spaced
 70
   64
  3
----        --------        ----
 72
   65
 73
    2
 40
12
 49
6
 49
-6
  0
LTYPE
  2
long_dashed_dotted
 70
   64
  3
------------- --- --------------
 72
   65
 73
    4
 40
15.25
 49
12
 49
-1.5
 49
0.25
 49
-1.5
  0
LTYPE
  2
long_dashed_double-dotted
 70
   64
  3
----------- --- --- ------------
 72
   65
 73
    6
 40
17
 49
12
 49
-1.5
 49
0.25
 49
-1.5
 49
0.25
 49
-1.5
  0
LTYPE
  2
long_dashed_triplicate-dotted
 70
   64
  3
--------- --- --- --- ----------
 72
   65
 73
    8
 40
18.75
 49
12
 49
-1.5
 49
0.25
 49
-1.5
 49
0.25
 49
-1.5
 49
0.25
 49
-1.5
  0
LTYPE
  2
dotted
 70
   64
  3
   -       -       -       -    
 72
   65
 73
    2
 40
1.75
 49
0.25
 49
-1.5
  0
LTYPE
  2
chain
 70
   64
  3
-------------- -- --------------
 72
   65
 73
    4
 40
18.5
 49
12
 49
-1.5
 49
3.5
 49
-1.5
  0
LTYPE
  2
chain_double_dash
 70
   64
  3
------------ -- -- -------------
 72
   65
 73
    6
 40
23.5
 49
12
 49
-1.5
 49
3.5
 49
-1.5
 49
3.5
 49
-1.5
  0
LTYPE
  2
dashed_dotted
 70
   64
  3
-----------     -     ----------
 72
   65
 73
    4
 40
9.25
 49
6
 49
-1.5
 49
0.25
 49
-1.5
  0
LTYPE
  2
double-dashed_dotted
 70
   64
  3
------   -----------   -   -----
 72
   65
 73
    6
 40
16.75
 49
6
 49
-1.5
 49
6
 49
-1.5
 49
0.25
 49
-1.5
  0
LTYPE
  2
dashed_double-dotted
 70
   64
  3
---------    -    -    ---------
 72
   65
 73
    6
 40
11
 49
6
 49
-1.5
 49
0.25
 49
-1.5
 49
0.25
 49
-1.5
  0
LTYPE
  2
double-dashed_double-dotted
 70
   64
  3
-----   ---------   -   -   ----
 72
   65
 73
    8
 40
18.5
 49
6
 49
-1.5
 49
6
 49
-1.5
 49
0.25
 49
-1.5
 49
0.25
 49
-1.5
  0
LTYPE
  2
dashed_triplicate-dotted
 70
   64
  3
-------    -    -    -    ------
 72
   65
 73
    8
 40
12.75
 49
6
 49
-1.5
 49
0.25
 49
-1.5
 49
0.25
 49
-1.5
 49
0.25
 49
-1.5
  0
LTYPE
  2
double-dashed_triplicate-dotted
 70
   64
  3
-----  ---------  -  -  -  -----
 72
   65
 73
   10
 40
20.25
 49
6
 49
-1.5
 49
6
 49
-1.5
 49
0.25
 49
-1.5
 49
0.25
 49
-1.5
 49
0.25
 49
-1.5
  0
LTYPE
  2
undefined
 70
   64
  3
--------------------------------
 72
   65
 73
    0
 40
0
  0
LTYPE
  2
_
 70
   64
  3
                                
 72
   65
 73
    0
 40
0
  0
LTYPE
  2
__18
 70
   64
  3
                                
 72
   65
 73
    0
 40
0
  0
LTYPE
  2
__19
 70
   64
  3
                                
 72
   65
 73
    0
 40
0
  0
LTYPE
  2
__20
 70
   64
  3
                                
 72
   65
 73
    0
 40
0
  0
LTYPE
  2
__21
 70
   64
  3
                                
 72
   65
 73
    0
 40
0
  0
LTYPE
  2
__22
 70
   64
  3
                                
 72
   65
 73
    0
 40
0
  0
LTYPE
  2
__23
 70
   64
  3
                                
 72
   65
 73
    0
 40
0
  0
LTYPE
  2
__24
 70
   64
  3
                                
 72
   65
 73
    0
 40
0
  0
LTYPE
  2
__25
 70
   64
  3
                                
 72
   65
 73
    0
 40
0
  0
LTYPE
  2
__26
 70
   64
  3
                                
 72
   65
 73
    0
 40
0
  0
LTYPE
  2
__27
 70
   64
  3
                                
 72
   65
 73
    0
 40
0
  0
LTYPE
  2
__28
 70
   64
  3
                                
 72
   65
 73
    0
 40
0
  0
LTYPE
  2
__29
 70
   64
  3
                                
 72
   65
 73
    0
 40
0
  0
LTYPE
  2
__30
 70
   64
  3
                                
 72
   65
 73
    0
 40
0
  0
LTYPE
  2
__31
 70
   64
  3
                                
 72
   65
 73
    0
 40
0
  0
LTYPE
  2
__32
 70
   64
  3
                                
 72
   65
 73
    0
 40
0
  0
ENDTAB
  0
TABLE
  2
STYLE
  5
3
100
AcDbSymbolTable
 70
     1
  0
STYLE
  5
10
100
AcDbSymbolTableRecord
100
AcDbTextStyleTableRecord
  2
STANDARD
 70
     0
 40
0.0
 41
1.0
 50
0.0
 71
     0
 42
0.2
  3
txt
  4
bigfont.shx
  0
STYLE
  5
26
100
AcDbSymbolTableRecord
100
AcDbTextStyleTableRecord
  2
TATEGAKI
 70
    68
 40
0.0
 41
1.0
 50
0.0
 71
     0
 42
1.0
  3
txt
  4
bigfont.shx
  0
ENDTAB
  0
TABLE
  2
LAYER
 70
    3
  0
LAYER
  2
_0-0_
 70
   64
 62
    7
  6
CONTINUOUS
  0
LAYER
  2
_0-1_
 70
   64
 62
    7
  6
CONTINUOUS
  0
LAYER
  2
ADD_LINE
 70
   64
 62
    7
  6
CONTINUOUS
  0
ENDTAB
  0
ENDSEC
  0
SECTION
  2
BLOCKS
  0
ENDSEC
  0
SECTION
  2
ENTITIES
  0
LINE
  8
_0-0_
  6
CONTINUOUS
 62
    7
 10
24.317983074159201
 20
139.86557547738221
 11
24.317983074159201
 21
137.86557547738221
  0
LINE
  8
_0-0_
  6
CONTINUOUS
 62
    7
 10
24.317983074159201
 20
137.86557547738221
 11
72.617983074159156
 21
137.86557547738164
  0
LINE
  8
_0-0_
  6
CONTINUOUS
 62
    7
 10
72.617983074159156
 20
137.86557547738164
 11
72.617983074159156
 21
139.86557547738164
  0
LINE
  8
_0-0_
  6
CONTINUOUS
 62
    7
 10
72.617983074159156
 20
139.86557547738164
 11
24.317983074159201
 21
139.86557547738221
  0
LINE
  8
_0-0_
  6
CONTINUOUS
 62
    7
 10
56.052025431635457
 20
70.203159073821155
 11
67.617983074159156
 21
70.203159073821155
  0
LINE
  8
_0-0_
  6
CONTINUOUS
 62
    7
 10
54.757930206122865
 20
70.373529942375797
 11
31.729792623134017
 21
76.543900810930552
  0
LINE
  8
_0-0_
  6
CONTINUOUS
 62
    7
 10
31.729792623134017
 20
95.862417336711928
 11
54.757930206122865
 21
102.03278820526657
  0
LINE
  8
_0-0_
  6
CONTINUOUS
 62
    7
 10
56.052025431635457
 20
102.20315907382121
 11
67.617983074159156
 21
102.20315907382121
  0
LINE
  8
_0-0_
  6
CONTINUOUS
 62
    7
 10
72.617983074159156
 20
97.203159073821212
 11
72.617983074159156
 21
75.203159073821212
  0
LINE
  8
_0-0_
  6
CONTINUOUS
 62
    7
 10
31.729792623134017
 20
27.740127485169921
 11
54.757930206122865
 21
33.910498353724563
  0
LINE
  8
_0-0_
  6
CONTINUOUS
 62
    7
 10
56.052025431635457
 20
34.080869222279205
 11
67.617983074159156
 21
34.080869222279205
  0
LINE
  8
_0-0_
  6
CONTINUOUS
 62
    7
 10
67.617983074159156
 20
2.0808692222792047
 11
56.052025431635457
 21
2.0808692222792047
  0
LINE
  8
_0-0_
  6
CONTINUOUS
 62
    7
 10
54.757930206122865
 20
2.2512400908338464
 11
31.729792623134017
 21
8.421610959388488
  0
LINE
  8
_0-0_
  6
CONTINUOUS
 62
    7
 10
72.617983074159156
 20
29.080869222279205
 11
72.617983074159156
 21
7.0808692222792047
  0
LINE
  8
_0-0_
  6
CONTINUOUS
 62
    7
 10
61.117983074159156
 20
5.5308692222792502
 11
66.117983074159156
 21
5.5308692222792502
  0
LINE
  8
_0-0_
  6
CONTINUOUS
 62
    7
 10
66.117983074159156
 20
10.630869222279273
 11
61.117983074159156
 21
10.630869222279273
  0
LINE
  8
_0-0_
  6
CONTINUOUS
 62
    7
 10
61.117983074159156
 20
30.630869222279273
 11
66.117983074159156
 21
30.630869222279273
  0
LINE
  8
_0-0_
  6
CONTINUOUS
 62
    7
 10
66.117983074159156
 20
25.53086922227925
 11
61.117983074159156
 21
25.53086922227925
  0
CIRCLE
  8
_0-0_
  6
CONTINUOUS
 62
    7
 10
61.117983074159156
 20
76.203159073821212
 40
2.5499999999999998
  0
CIRCLE
  8
_0-0_
  6
CONTINUOUS
 62
    7
 10
61.117983074159156
 20
96.203159073821212
 40
2.5499999999999998
  0
CIRCLE
  8
_0-0_
  6
CONTINUOUS
 62
    7
 10
34.317983074159201
 20
86.203159073821212
 40
3.0499999999999998
  0
ARC
  8
_0-0_
  6
CONTINUOUS
 62
    7
 10
34.317983074159201
 20
86.203159073821212
 40
10
 50
104.99999999999999
 51
255.00000000000003
  0
ARC
  8
_0-0_
  6
CONTINUOUS
 62
    7
 10
56.052025431635457
 20
75.203159073821212
 40
5
 50
255
 51
270
  0
ARC
  8
_0-0_
  6
CONTINUOUS
 62
    7
 10
56.052025431635457
 20
97.203159073821212
 40
5
 50
90
 51
105.00000000000001
  0
ARC
  8
_0-0_
  6
CONTINUOUS
 62
    7
 10
67.617983074159156
 20
97.203159073821212
 40
5
 50
0
 51
89.999999999999986
  0
ARC
  8
_0-0_
  6
CONTINUOUS
 62
    7
 10
67.617983074159156
 20
75.203159073821212
 40
5
 50
270
 51
0
  0
CIRCLE
  8
_0-0_
  6
CONTINUOUS
 62
    7
 10
34.317983074159201
 20
18.080869222279205
 40
3.0499999999999998
  0
ARC
  8
_0-0_
  6
CONTINUOUS
 62
    7
 10
61.117983074159156
 20
8.0808692222792047
 40
2.5499999999999998
 50
90
 51
270
  0
ARC
  8
_0-0_
  6
CONTINUOUS
 62
    7
 10
66.117983074159156
 20
8.0808692222792047
 40
2.5499999999999998
 50
270
 51
90
  0
ARC
  8
_0-0_
  6
CONTINUOUS
 62
    7
 10
61.117983074159156
 20
28.080869222279205
 40
2.5499999999999998
 50
90
 51
270
  0
ARC
  8
_0-0_
  6
CONTINUOUS
 62
    7
 10
66.117983074159156
 20
28.080869222279205
 40
2.5499999999999998
 50
270
 51
90
  0
ARC
  8
_0-0_
  6
CONTINUOUS
 62
    7
 10
34.317983074159201
 20
18.080869222279205
 40
10
 50
105.00000000000007
 51
255.00000000000003
  0
ARC
  8
_0-0_
  6
CONTINUOUS
 62
    7
 10
56.052025431635457
 20
7.0808692222792047
 40
5
 50
255
 51
270
  0
ARC
  8
_0-0_
  6
CONTINUOUS
 62
    7
 10
56.052025431635457
 20
29.080869222279205
 40
5
 50
90
 51
105.00000000000003
  0
ARC
  8
_0-0_
  6
CONTINUOUS
 62
    7
 10
67.617983074159156
 20
29.080869222279205
 40
5
 50
0
 51
89.999999999999986
  0
ARC
  8
_0-0_
  6
CONTINUOUS
 62
    7
 10
67.617983074159156
 20
7.0808692222792047
 40
5
 50
270
 51
0
  0
LINE
  8
_0-1_
  6
CENTER1
 62
  152
 10
34.317983074159201
 20
142.60373381133121
 11
34.317983074159201
 21
133.97351684880653
  0
LINE
  8
_0-1_
  6
CENTER1
 62
  152
 10
61.117983074159156
 20
102.20315907382121
 11
61.117983074159156
 21
70.203159073821155
  0
LINE
  8
_0-1_
  6
CENTER1
 62
  152
 10
64.696298485831903
 20
76.203159073821212
 11
57.104113885423203
 21
76.203159073821212
  0
LINE
  8
_0-1_
  6
CENTER1
 62
  152
 10
34.317983074159201
 20
81.79119008382122
 11
34.317983074159201
 21
90.615128063821203
  0
LINE
  8
_0-1_
  6
CENTER1
 62
  152
 10
64.696298485831903
 20
96.203159073821212
 11
56.931564235413816
 21
96.203159073821212
  0
LINE
  8
_0-1_
  6
CENTER1
 62
  152
 10
66.20386118317856
 20
86.203159073821212
 11
29.974542447159138
 21
86.203159073821212
  0
LINE
  8
_0-1_
  6
CENTER1
 62
  152
 10
66.117983074159156
 20
32.611134242855371
 11
66.117983074159156
 21
2.7990387696043513
  0
LINE
  8
_0-1_
  6
CENTER1
 62
  152
 10
34.317983074159201
 20
6.6034337089248538
 11
34.317983074159201
 21
29.407054321439659
  0
LINE
  8
_0-1_
  6
CENTER1
 62
  152
 10
55.03803119690474
 20
28.080869222279205
 11
71.878664027266041
 21
28.080869222279205
  0
LINE
  8
_0-1_
  6
CENTER1
 62
  152
 10
71.878664027266041
 20
8.0808692222792047
 11
55.03803119690474
 21
8.0808692222792047
  0
LINE
  8
_0-1_
  6
CENTER1
 62
  152
 10
61.117983074159156
 20
2.7990387696043513
 11
61.117983074159156
 21
32.611134242855371
  0
LINE
  8
_0-1_
  6
CENTER1
 62
  152
 10
71.878664027266041
 20
18.080869222279205
 11
23.244859080389006
 21
18.080869222279205
  0
TEXT
  8
_0-1_
 62
    7
 10
5.3565852297631409
 20
92.729446661590487
 40
5
 41
1
 50
0
  1
GS32
  0
TEXT
  8
_0-1_
 62
    7
 10
4.1596227837077322
 20
20.911699898271308
 40
5
 41
1
 50
0
  1
GS33
  0
LINE
  8
_0-1_
  6
CONTINUOUS
 62
    7
 10
55.117983074159156
 20
135.86557547738175
 11
55.117983074159156
 21
137.86557547738175
  0
LINE
  8
_0-1_
  6
CONTINUOUS
 62
    7
 10
55.117983074159156
 20
135.86557547738175
 11
67.117983074159156
 21
135.86557547738175
  0
LINE
  8
_0-1_
  6
CONTINUOUS
 62
    7
 10
67.117983074159156
 20
135.86557547738175
 11
67.117983074159156
 21
137.86557547738175
  0
LINE
  8
ADD_LINE
  6
DOT
 62
    9
 10
61.117983074159156
 20
135.86557547738175
 11
60.410876292972489
 21
136.57268225856831
  0
LINE
  8
ADD_LINE
  6
DOT
 62
    9
 10
61.117983074159156
 20
135.86557547738175
 11
61.825089855345823
 21
136.57268225856831
  0
LINE
  8
_0-1_
  6
CONTINUOUS
 62
  152
 10
59.903697342843543
 20
131.36557547738175
 11
59.903697342843543
 21
135.86557547738175
  0
LINE
  8
_0-1_
  6
CONTINUOUS
 62
  152
 10
59.296554536790381
 20
131.36557547738175
 11
59.296554536790381
 21
135.86557547738175
  0
LINE
  8
_0-1_
  6
CONTINUOUS
 62
  152
 10
58.082268686265479
 20
131.36557547738175
 11
58.082268686265479
 21
135.86557547738175
  0
LINE
  8
_0-1_
  6
CONTINUOUS
 62
  152
 10
57.475125999421607
 20
131.36557547738175
 11
57.475125999421607
 21
135.86557547738175
  0
LINE
  8
_0-1_
  6
CONTINUOUS
 62
  152
 10
58.68941161152793
 20
131.36557547738175
 11
58.68941161152793
 21
135.86557547738175
  0
LINE
  8
_0-1_
  6
CONTINUOUS
 62
   56
 10
65.367983074159156
 20
131.36557547738175
 11
65.367983074159156
 21
135.86557547738175
  0
LINE
  8
_0-1_
  6
CONTINUOUS
 62
   56
 10
65.367983074159156
 20
131.36557547738175
 11
64.867983074159156
 21
130.86557547738175
  0
LINE
  8
_0-1_
  6
CONTINUOUS
 62
   56
 10
57.367983074159156
 20
130.86557547738175
 11
64.867983074159156
 21
130.86557547738175
  0
LINE
  8
_0-1_
  6
CONTINUOUS
 62
   56
 10
56.867983074159156
 20
131.36557547738175
 11
56.867983074159156
 21
135.86557547738175
  0
LINE
  8
_0-1_
  6
CONTINUOUS
 62
   56
 10
57.367983074159156
 20
130.86557547738175
 11
56.867983074159156
 21
131.36557547738175
  0
LINE
  8
_0-1_
  6
CONTINUOUS
 62
   56
 10
65.367983074159156
 20
131.36557547738175
 11
56.867983074159156
 21
131.36557547738175
  0
LINE
  8
_0-1_
  6
CONTINUOUS
 62
  152
 10
63.267983169526588
 20
135.86557547738175
 11
63.267983169526588
 21
143.86557547738175
  0
LINE
  8
_0-1_
  6
CONTINUOUS
 62
  152
 10
58.967982978791724
 20
135.86557547738175
 11
58.967982978791724
 21
143.86557547738175
  0
LINE
  8
_0-1_
  6
CONTINUOUS
 62
   56
 10
63.617983074159156
 20
143.51557509591203
 11
63.617983074159156
 21
135.86557547738175
  0
LINE
  8
_0-1_
  6
CONTINUOUS
 62
   56
 10
58.967982978791724
 20
143.86557547738175
 11
63.267983169526588
 21
143.86557547738175
  0
LINE
  8
_0-1_
  6
CONTINUOUS
 62
   56
 10
58.617983074159156
 20
143.51557509591203
 11
58.617983074159156
 21
135.86557547738175
  0
LINE
  8
_0-1_
  6
CONTINUOUS
 62
   56
 10
63.617983074159156
 20
143.51557509591203
 11
63.267983169526588
 21
143.86557547738175
  0
LINE
  8
_0-1_
  6
CONTINUOUS
 62
   56
 10
58.967982978791724
 20
143.86557547738175
 11
58.617983074159156
 21
143.51557509591203
  0
LINE
  8
_0-1_
  6
CONTINUOUS
 62
   56
 10
63.617983074159156
 20
143.51557509591203
 11
58.617983074159156
 21
143.51557509591203
  0
LINE
  8
_0-1_
  6
CONTINUOUS
 62
    7
 10
64.273034074159341
 20
144.52697547738177
 11
63.399370074159151
 21
144.84496547738155
  0
LINE
  8
_0-1_
  6
CONTINUOUS
 62
    7
 10
62.715330074159056
 20
144.96557547738172
 11
59.52063707415914
 21
144.96557547738172
  0
LINE
  8
_0-1_
  6
CONTINUOUS
 62
    7
 10
58.836597074159044
 20
144.84496547738155
 11
57.962933074159309
 21
144.52697547738177
  0
ARC
  8
_0-1_
  6
CONTINUOUS
 62
    7
 10
62.715330074159056
 20
142.96557547738172
 40
2
 50
69.999999999999972
 51
90
  0
ARC
  8
_0-1_
  6
CONTINUOUS
 62
    7
 10
59.52063707415914
 20
142.96557547738172
 40
2
 50
90
 51
110
  0
ARC
  8
_0-1_
  6
CONTINUOUS
 62
    7
 10
63.417983074159338
 20
142.17774547738151
 40
2.5
 50
348.17822799457855
 51
69.999999999999943
  0
LINE
  8
_0-1_
  6
CONTINUOUS
 62
    7
 10
64.689520980951556
 20
141.66557547738154
 11
65.864957101626715
 21
141.66557547738154
  0
ARC
  8
_0-1_
  6
CONTINUOUS
 62
    7
 10
58.817983074159429
 20
142.17774547738151
 40
2.5
 50
110.00000000000003
 51
191.82177200542145
  0
LINE
  8
_0-1_
  6
CONTINUOUS
 62
    7
 10
56.371009046692052
 20
141.66557547738154
 11
57.546446167367208
 21
141.66557547738154
  0
LINE
  8
_0-1_
  6
CONTINUOUS
 62
    7
 10
57.867981980951527
 20
140.46557547738172
 11
57.546446167367208
 21
141.66557547738154
  0
LINE
  8
_0-1_
  6
CONTINUOUS
 62
    7
 10
64.689520980951556
 20
141.66557547738154
 11
64.367985167367124
 21
140.46557547738172
  0
LINE
  8
_0-1_
  6
CONTINUOUS
 62
    7
 10
57.867981980951527
 20
140.46557547738172
 11
64.367985167367124
 21
140.46557547738172
  0
LINE
  8
ADD_LINE
  6
DOT
 62
    9
 10
61.117983074159156
 20
139.86557547738175
 11
61.825089855326723
 21
140.57268225854921
  0
LINE
  8
ADD_LINE
  6
DOT
 62
    9
 10
60.41087629295339
 20
140.57268225854921
 11
61.117983074140056
 21
139.86557547736254
  0
LINE
  8
_0-1_
  6
CENTER1
 62
  152
 10
61.117983074159156
 20
130.29931917080103
 11
61.117983074159156
 21
145.53731169839949
  0
ENDSEC
  0
EOF
