ISO-10303-21;
HEADER;
FILE_DESCRIPTION(('STEP AP214'),'1');
FILE_NAME('GS32.stp','2017-02-01T06:19:23',(' '),(' '),'Spatial InterOp 3D',' ',' ');
FILE_SCHEMA(('automotive_design'));
ENDSEC;
DATA;
#1=MECHANICAL_DESIGN_GEOMETRIC_PRESENTATION_REPRESENTATION(' ',(#10,#11,#12,#13,#14,#15,#16,#17,#18,#19,#20,#21,#22,#23,#24),#6);
#2=PRODUCT_DEFINITION_CONTEXT('',#25,'design');
#3=APPLICATION_PROTOCOL_DEFINITION('INTERNATIONAL STANDARD','automotive_design',1994,#25);
#4=PRODUCT_CATEGORY_RELATIONSHIP('NONE','NONE',#26,#27);
#5=SHAPE_DEFINITION_REPRESENTATION(#28,#29);
#6= (GEOMETRIC_REPRESENTATION_CONTEXT(3)GLOBAL_UNCERTAINTY_ASSIGNED_CONTEXT((#32))GLOBAL_UNIT_ASSIGNED_CONTEXT((#34,#35,#36))REPRESENTATION_CONTEXT('NONE','WORKSPACE'));
#10=STYLED_ITEM('',(#38),#39);
#11=STYLED_ITEM('',(#40),#41);
#12=STYLED_ITEM('',(#42),#43);
#13=STYLED_ITEM('',(#44),#45);
#14=STYLED_ITEM('',(#46),#47);
#15=STYLED_ITEM('',(#48),#49);
#16=STYLED_ITEM('',(#50),#51);
#17=STYLED_ITEM('',(#52),#53);
#18=STYLED_ITEM('',(#54),#55);
#19=STYLED_ITEM('',(#56),#57);
#20=STYLED_ITEM('',(#58),#59);
#21=STYLED_ITEM('',(#60),#61);
#22=STYLED_ITEM('',(#62),#63);
#23=STYLED_ITEM('',(#64),#65);
#24=STYLED_ITEM('',(#66),#67);
#25=APPLICATION_CONTEXT(' ');
#26=PRODUCT_CATEGORY('part','NONE');
#27=PRODUCT_RELATED_PRODUCT_CATEGORY('detail',' ',(#68));
#28=PRODUCT_DEFINITION_SHAPE('NONE','NONE',#69);
#29=ADVANCED_BREP_SHAPE_REPRESENTATION('GS32',(#70,#71),#6);
#32=UNCERTAINTY_MEASURE_WITH_UNIT(LENGTH_MEASURE(0.001),#34,'','');
#34= (CONVERSION_BASED_UNIT('MILLIMETRE',#74)LENGTH_UNIT()NAMED_UNIT(#77));
#35= (NAMED_UNIT(#79)PLANE_ANGLE_UNIT()SI_UNIT($,.RADIAN.));
#36= (NAMED_UNIT(#79)SOLID_ANGLE_UNIT()SI_UNIT($,.STERADIAN.));
#38=PRESENTATION_STYLE_ASSIGNMENT((#85));
#39=ADVANCED_FACE('',(#86),#87,.F.);
#40=PRESENTATION_STYLE_ASSIGNMENT((#88));
#41=ADVANCED_FACE('',(#89),#90,.T.);
#42=PRESENTATION_STYLE_ASSIGNMENT((#91));
#43=ADVANCED_FACE('',(#92,#93),#94,.F.);
#44=PRESENTATION_STYLE_ASSIGNMENT((#95));
#45=ADVANCED_FACE('',(#96),#97,.T.);
#46=PRESENTATION_STYLE_ASSIGNMENT((#98));
#47=ADVANCED_FACE('',(#99,#100,#101,#102),#103,.T.);
#48=PRESENTATION_STYLE_ASSIGNMENT((#104));
#49=ADVANCED_FACE('',(#105),#106,.F.);
#50=PRESENTATION_STYLE_ASSIGNMENT((#107));
#51=ADVANCED_FACE('',(#108),#109,.T.);
#52=PRESENTATION_STYLE_ASSIGNMENT((#110));
#53=ADVANCED_FACE('',(#111),#112,.T.);
#54=PRESENTATION_STYLE_ASSIGNMENT((#113));
#55=ADVANCED_FACE('',(#114,#115,#116,#117),#118,.F.);
#56=PRESENTATION_STYLE_ASSIGNMENT((#119));
#57=ADVANCED_FACE('',(#120),#121,.T.);
#58=PRESENTATION_STYLE_ASSIGNMENT((#122));
#59=ADVANCED_FACE('',(#123,#124),#125,.F.);
#60=PRESENTATION_STYLE_ASSIGNMENT((#126));
#61=ADVANCED_FACE('',(#127),#128,.F.);
#62=PRESENTATION_STYLE_ASSIGNMENT((#129));
#63=ADVANCED_FACE('',(#130),#131,.F.);
#64=PRESENTATION_STYLE_ASSIGNMENT((#132));
#65=ADVANCED_FACE('',(#133,#134),#135,.F.);
#66=PRESENTATION_STYLE_ASSIGNMENT((#136));
#67=ADVANCED_FACE('',(#137),#138,.F.);
#68=PRODUCT('GS32','GS32','PART-GS32-DESC',(#139));
#69=PRODUCT_DEFINITION('NONE','NONE',#140,#2);
#70=MANIFOLD_SOLID_BREP('GS32',#141);
#71=AXIS2_PLACEMENT_3D('',#142,#143,#144);
#74=LENGTH_MEASURE_WITH_UNIT(LENGTH_MEASURE(1.0),#145);
#77=DIMENSIONAL_EXPONENTS(1.0,0.0,0.0,0.0,0.0,0.0,0.0);
#79=DIMENSIONAL_EXPONENTS(0.0,0.0,0.0,0.0,0.0,0.0,0.0);
#85=SURFACE_STYLE_USAGE(.BOTH.,#146);
#86=FACE_OUTER_BOUND('',#147,.T.);
#87=PLANE('',#148);
#88=SURFACE_STYLE_USAGE(.BOTH.,#149);
#89=FACE_OUTER_BOUND('',#150,.T.);
#90=CYLINDRICAL_SURFACE('',#151,10.0);
#91=SURFACE_STYLE_USAGE(.BOTH.,#152);
#92=FACE_OUTER_BOUND('',#153,.T.);
#93=FACE_OUTER_BOUND('',#154,.T.);
#94=CYLINDRICAL_SURFACE('',#155,2.55);
#95=SURFACE_STYLE_USAGE(.BOTH.,#156);
#96=FACE_OUTER_BOUND('',#157,.T.);
#97=CYLINDRICAL_SURFACE('',#158,5.0);
#98=SURFACE_STYLE_USAGE(.BOTH.,#159);
#99=FACE_BOUND('',#160,.T.);
#100=FACE_BOUND('',#161,.T.);
#101=FACE_BOUND('',#162,.T.);
#102=FACE_OUTER_BOUND('',#163,.T.);
#103=PLANE('',#164);
#104=SURFACE_STYLE_USAGE(.BOTH.,#165);
#105=FACE_OUTER_BOUND('',#166,.T.);
#106=PLANE('',#167);
#107=SURFACE_STYLE_USAGE(.BOTH.,#168);
#108=FACE_OUTER_BOUND('',#169,.T.);
#109=CYLINDRICAL_SURFACE('',#170,4.99999999999943);
#110=SURFACE_STYLE_USAGE(.BOTH.,#171);
#111=FACE_OUTER_BOUND('',#172,.T.);
#112=CYLINDRICAL_SURFACE('',#173,5.0);
#113=SURFACE_STYLE_USAGE(.BOTH.,#174);
#114=FACE_BOUND('',#175,.T.);
#115=FACE_BOUND('',#176,.T.);
#116=FACE_BOUND('',#177,.T.);
#117=FACE_OUTER_BOUND('',#178,.T.);
#118=PLANE('',#179);
#119=SURFACE_STYLE_USAGE(.BOTH.,#180);
#120=FACE_OUTER_BOUND('',#181,.T.);
#121=CYLINDRICAL_SURFACE('',#182,4.99999999999978);
#122=SURFACE_STYLE_USAGE(.BOTH.,#183);
#123=FACE_OUTER_BOUND('',#184,.T.);
#124=FACE_OUTER_BOUND('',#185,.T.);
#125=CYLINDRICAL_SURFACE('',#186,3.05);
#126=SURFACE_STYLE_USAGE(.BOTH.,#187);
#127=FACE_OUTER_BOUND('',#188,.T.);
#128=PLANE('',#189);
#129=SURFACE_STYLE_USAGE(.BOTH.,#190);
#130=FACE_OUTER_BOUND('',#191,.T.);
#131=PLANE('',#192);
#132=SURFACE_STYLE_USAGE(.BOTH.,#193);
#133=FACE_OUTER_BOUND('',#194,.T.);
#134=FACE_OUTER_BOUND('',#195,.T.);
#135=CYLINDRICAL_SURFACE('',#196,2.55);
#136=SURFACE_STYLE_USAGE(.BOTH.,#197);
#137=FACE_OUTER_BOUND('',#198,.T.);
#138=PLANE('',#199);
#139=PRODUCT_CONTEXT('',#25,'mechanical');
#140=PRODUCT_DEFINITION_FORMATION_WITH_SPECIFIED_SOURCE(' ','NONE',#68,.NOT_KNOWN.);
#141=CLOSED_SHELL('',(#59,#55,#47,#39,#53,#49,#45,#61,#51,#63,#41,#67,#57,#65,#43));
#142=CARTESIAN_POINT('',(0.0,0.0,0.0));
#143=DIRECTION('',(0.0,0.0,1.0));
#144=DIRECTION('',(1.0,0.0,0.0));
#145= (NAMED_UNIT(#77)LENGTH_UNIT()SI_UNIT(.MILLI.,.METRE.));
#146=SURFACE_SIDE_STYLE('',(#201));
#147=EDGE_LOOP('',(#202,#203,#204,#205));
#148=AXIS2_PLACEMENT_3D('',#206,#207,#208);
#149=SURFACE_SIDE_STYLE('',(#209));
#150=EDGE_LOOP('',(#210,#211,#212,#213));
#151=AXIS2_PLACEMENT_3D('',#214,#215,#216);
#152=SURFACE_SIDE_STYLE('',(#217));
#153=EDGE_LOOP('',(#218));
#154=EDGE_LOOP('',(#219));
#155=AXIS2_PLACEMENT_3D('',#220,#221,#222);
#156=SURFACE_SIDE_STYLE('',(#223));
#157=EDGE_LOOP('',(#224,#225,#226,#227));
#158=AXIS2_PLACEMENT_3D('',#228,#229,#230);
#159=SURFACE_SIDE_STYLE('',(#231));
#160=EDGE_LOOP('',(#232));
#161=EDGE_LOOP('',(#233));
#162=EDGE_LOOP('',(#234));
#163=EDGE_LOOP('',(#235,#236,#237,#238,#239,#240,#241,#242,#243,#244));
#164=AXIS2_PLACEMENT_3D('',#245,#246,#247);
#165=SURFACE_SIDE_STYLE('',(#248));
#166=EDGE_LOOP('',(#249,#250,#251,#252));
#167=AXIS2_PLACEMENT_3D('',#253,#254,#255);
#168=SURFACE_SIDE_STYLE('',(#256));
#169=EDGE_LOOP('',(#257,#258,#259,#260));
#170=AXIS2_PLACEMENT_3D('',#261,#262,#263);
#171=SURFACE_SIDE_STYLE('',(#264));
#172=EDGE_LOOP('',(#265,#266,#267,#268));
#173=AXIS2_PLACEMENT_3D('',#269,#270,#271);
#174=SURFACE_SIDE_STYLE('',(#272));
#175=EDGE_LOOP('',(#273));
#176=EDGE_LOOP('',(#274));
#177=EDGE_LOOP('',(#275));
#178=EDGE_LOOP('',(#276,#277,#278,#279,#280,#281,#282,#283,#284,#285));
#179=AXIS2_PLACEMENT_3D('',#286,#287,#288);
#180=SURFACE_SIDE_STYLE('',(#289));
#181=EDGE_LOOP('',(#290,#291,#292,#293));
#182=AXIS2_PLACEMENT_3D('',#294,#295,#296);
#183=SURFACE_SIDE_STYLE('',(#297));
#184=EDGE_LOOP('',(#298));
#185=EDGE_LOOP('',(#299));
#186=AXIS2_PLACEMENT_3D('',#300,#301,#302);
#187=SURFACE_SIDE_STYLE('',(#303));
#188=EDGE_LOOP('',(#304,#305,#306,#307));
#189=AXIS2_PLACEMENT_3D('',#308,#309,#310);
#190=SURFACE_SIDE_STYLE('',(#311));
#191=EDGE_LOOP('',(#312,#313,#314,#315));
#192=AXIS2_PLACEMENT_3D('',#316,#317,#318);
#193=SURFACE_SIDE_STYLE('',(#319));
#194=EDGE_LOOP('',(#320));
#195=EDGE_LOOP('',(#321));
#196=AXIS2_PLACEMENT_3D('',#322,#323,#324);
#197=SURFACE_SIDE_STYLE('',(#325));
#198=EDGE_LOOP('',(#326,#327,#328,#329));
#199=AXIS2_PLACEMENT_3D('',#330,#331,#332);
#201=SURFACE_STYLE_FILL_AREA(#333);
#202=ORIENTED_EDGE('',*,*,#334,.T.);
#203=ORIENTED_EDGE('',*,*,#335,.F.);
#204=ORIENTED_EDGE('',*,*,#336,.F.);
#205=ORIENTED_EDGE('',*,*,#337,.T.);
#206=CARTESIAN_POINT('',(-1.99999999999978,5.99999999999935,5.06595764252358));
#207=DIRECTION('',(0.0,-1.0,0.0));
#208=DIRECTION('',(1.0,0.0,0.0));
#209=SURFACE_STYLE_FILL_AREA(#338);
#210=ORIENTED_EDGE('',*,*,#339,.T.);
#211=ORIENTED_EDGE('',*,*,#340,.F.);
#212=ORIENTED_EDGE('',*,*,#341,.F.);
#213=ORIENTED_EDGE('',*,*,#342,.T.);
#214=CARTESIAN_POINT('',(-1.99999999999978,-10.0000000000007,26.8));
#215=DIRECTION('',(1.0,0.0,0.0));
#216=DIRECTION('',(0.0,1.0,0.0));
#217=SURFACE_STYLE_FILL_AREA(#343);
#218=ORIENTED_EDGE('',*,*,#344,.F.);
#219=ORIENTED_EDGE('',*,*,#345,.T.);
#220=CARTESIAN_POINT('',(-1.99999999999978,-20.0000000000005,-1.7347234759768E-014));
#221=DIRECTION('',(1.0,0.0,0.0));
#222=DIRECTION('',(0.0,1.0,0.0));
#223=SURFACE_STYLE_FILL_AREA(#346);
#224=ORIENTED_EDGE('',*,*,#347,.T.);
#225=ORIENTED_EDGE('',*,*,#348,.F.);
#226=ORIENTED_EDGE('',*,*,#349,.F.);
#227=ORIENTED_EDGE('',*,*,#350,.T.);
#228=CARTESIAN_POINT('',(-1.99999999999978,-21.0,-6.50000000000086));
#229=DIRECTION('',(1.0,0.0,0.0));
#230=DIRECTION('',(0.0,1.0,0.0));
#231=SURFACE_STYLE_FILL_AREA(#351);
#232=ORIENTED_EDGE('',*,*,#352,.T.);
#233=ORIENTED_EDGE('',*,*,#344,.T.);
#234=ORIENTED_EDGE('',*,*,#353,.T.);
#235=ORIENTED_EDGE('',*,*,#336,.T.);
#236=ORIENTED_EDGE('',*,*,#354,.T.);
#237=ORIENTED_EDGE('',*,*,#355,.T.);
#238=ORIENTED_EDGE('',*,*,#349,.T.);
#239=ORIENTED_EDGE('',*,*,#356,.T.);
#240=ORIENTED_EDGE('',*,*,#357,.T.);
#241=ORIENTED_EDGE('',*,*,#358,.T.);
#242=ORIENTED_EDGE('',*,*,#341,.T.);
#243=ORIENTED_EDGE('',*,*,#359,.T.);
#244=ORIENTED_EDGE('',*,*,#360,.T.);
#245=CARTESIAN_POINT('',(-1.99999999999978,0.999999999999454,-6.50000000000086));
#246=DIRECTION('',(-1.0,0.0,0.0));
#247=DIRECTION('',(0.0,-1.0,0.0));
#248=SURFACE_STYLE_FILL_AREA(#361);
#249=ORIENTED_EDGE('',*,*,#362,.T.);
#250=ORIENTED_EDGE('',*,*,#350,.F.);
#251=ORIENTED_EDGE('',*,*,#355,.F.);
#252=ORIENTED_EDGE('',*,*,#363,.T.);
#253=CARTESIAN_POINT('',(-1.99999999999978,0.999999999999454,-11.4999999999999));
#254=DIRECTION('',(0.0,0.0,1.0));
#255=DIRECTION('',(-1.0,0.0,0.0));
#256=SURFACE_STYLE_FILL_AREA(#364);
#257=ORIENTED_EDGE('',*,*,#365,.T.);
#258=ORIENTED_EDGE('',*,*,#366,.F.);
#259=ORIENTED_EDGE('',*,*,#357,.F.);
#260=ORIENTED_EDGE('',*,*,#367,.T.);
#261=CARTESIAN_POINT('',(-1.99999999999978,-21.0000000000008,5.06595764252358));
#262=DIRECTION('',(1.0,0.0,0.0));
#263=DIRECTION('',(0.0,1.0,0.0));
#264=SURFACE_STYLE_FILL_AREA(#368);
#265=ORIENTED_EDGE('',*,*,#369,.T.);
#266=ORIENTED_EDGE('',*,*,#363,.F.);
#267=ORIENTED_EDGE('',*,*,#354,.F.);
#268=ORIENTED_EDGE('',*,*,#335,.T.);
#269=CARTESIAN_POINT('',(-1.99999999999978,0.999999999999454,-6.50000000000086));
#270=DIRECTION('',(1.0,0.0,0.0));
#271=DIRECTION('',(0.0,1.0,0.0));
#272=SURFACE_STYLE_FILL_AREA(#370);
#273=ORIENTED_EDGE('',*,*,#371,.F.);
#274=ORIENTED_EDGE('',*,*,#345,.F.);
#275=ORIENTED_EDGE('',*,*,#372,.F.);
#276=ORIENTED_EDGE('',*,*,#334,.F.);
#277=ORIENTED_EDGE('',*,*,#373,.F.);
#278=ORIENTED_EDGE('',*,*,#374,.F.);
#279=ORIENTED_EDGE('',*,*,#339,.F.);
#280=ORIENTED_EDGE('',*,*,#375,.F.);
#281=ORIENTED_EDGE('',*,*,#365,.F.);
#282=ORIENTED_EDGE('',*,*,#376,.F.);
#283=ORIENTED_EDGE('',*,*,#347,.F.);
#284=ORIENTED_EDGE('',*,*,#362,.F.);
#285=ORIENTED_EDGE('',*,*,#369,.F.);
#286=CARTESIAN_POINT('',(0.0,0.999999999999454,-6.50000000000086));
#287=DIRECTION('',(-1.0,0.0,0.0));
#288=DIRECTION('',(0.0,-1.0,0.0));
#289=SURFACE_STYLE_FILL_AREA(#377);
#290=ORIENTED_EDGE('',*,*,#373,.T.);
#291=ORIENTED_EDGE('',*,*,#337,.F.);
#292=ORIENTED_EDGE('',*,*,#360,.F.);
#293=ORIENTED_EDGE('',*,*,#378,.T.);
#294=CARTESIAN_POINT('',(-1.99999999999978,1.00000000000034,5.06595764252358));
#295=DIRECTION('',(1.0,0.0,0.0));
#296=DIRECTION('',(0.0,1.0,0.0));
#297=SURFACE_STYLE_FILL_AREA(#379);
#298=ORIENTED_EDGE('',*,*,#352,.F.);
#299=ORIENTED_EDGE('',*,*,#371,.T.);
#300=CARTESIAN_POINT('',(-1.99999999999978,-10.0000000000007,26.8));
#301=DIRECTION('',(1.0,0.0,0.0));
#302=DIRECTION('',(0.0,1.0,0.0));
#303=SURFACE_STYLE_FILL_AREA(#380);
#304=ORIENTED_EDGE('',*,*,#376,.T.);
#305=ORIENTED_EDGE('',*,*,#367,.F.);
#306=ORIENTED_EDGE('',*,*,#356,.F.);
#307=ORIENTED_EDGE('',*,*,#348,.T.);
#308=CARTESIAN_POINT('',(-1.99999999999978,-26.0000000000007,-6.50000000000086));
#309=DIRECTION('',(0.0,1.0,0.0));
#310=DIRECTION('',(-1.0,0.0,0.0));
#311=SURFACE_STYLE_FILL_AREA(#381);
#312=ORIENTED_EDGE('',*,*,#375,.T.);
#313=ORIENTED_EDGE('',*,*,#342,.F.);
#314=ORIENTED_EDGE('',*,*,#358,.F.);
#315=ORIENTED_EDGE('',*,*,#366,.T.);
#316=CARTESIAN_POINT('',(-1.99999999999978,-25.8296291314455,6.36005286803607));
#317=DIRECTION('',(0.0,0.965925826289068,-0.258819045102522));
#318=DIRECTION('',(0.0,-0.258819045102522,-0.965925826289068));
#319=SURFACE_STYLE_FILL_AREA(#382);
#320=ORIENTED_EDGE('',*,*,#353,.F.);
#321=ORIENTED_EDGE('',*,*,#372,.T.);
#322=CARTESIAN_POINT('',(-1.99999999999978,7.80625564189563E-015,-1.7347234759768E-014));
#323=DIRECTION('',(1.0,0.0,0.0));
#324=DIRECTION('',(0.0,1.0,0.0));
#325=SURFACE_STYLE_FILL_AREA(#383);
#326=ORIENTED_EDGE('',*,*,#374,.T.);
#327=ORIENTED_EDGE('',*,*,#378,.F.);
#328=ORIENTED_EDGE('',*,*,#359,.F.);
#329=ORIENTED_EDGE('',*,*,#340,.T.);
#330=CARTESIAN_POINT('',(-1.99999999999978,-0.34074173710951,29.3881904510247));
#331=DIRECTION('',(0.0,-0.965925826289068,-0.258819045102522));
#332=DIRECTION('',(0.0,-0.258819045102522,0.965925826289068));
#333=FILL_AREA_STYLE('',(#384));
#334=EDGE_CURVE('',#385,#386,#387,.T.);
#335=EDGE_CURVE('',#388,#386,#389,.T.);
#336=EDGE_CURVE('',#390,#388,#391,.T.);
#337=EDGE_CURVE('',#390,#385,#392,.T.);
#338=FILL_AREA_STYLE('',(#393));
#339=EDGE_CURVE('',#394,#395,#396,.T.);
#340=EDGE_CURVE('',#397,#395,#398,.T.);
#341=EDGE_CURVE('',#399,#397,#400,.T.);
#342=EDGE_CURVE('',#399,#394,#401,.T.);
#343=FILL_AREA_STYLE('',(#402));
#344=EDGE_CURVE('',#403,#403,#404,.T.);
#345=EDGE_CURVE('',#405,#405,#406,.T.);
#346=FILL_AREA_STYLE('',(#407));
#347=EDGE_CURVE('',#408,#409,#410,.T.);
#348=EDGE_CURVE('',#411,#409,#412,.T.);
#349=EDGE_CURVE('',#413,#411,#414,.T.);
#350=EDGE_CURVE('',#413,#408,#415,.T.);
#351=FILL_AREA_STYLE('',(#416));
#352=EDGE_CURVE('',#417,#417,#418,.T.);
#353=EDGE_CURVE('',#419,#419,#420,.T.);
#354=EDGE_CURVE('',#388,#421,#422,.T.);
#355=EDGE_CURVE('',#421,#413,#423,.T.);
#356=EDGE_CURVE('',#411,#424,#425,.T.);
#357=EDGE_CURVE('',#424,#426,#427,.T.);
#358=EDGE_CURVE('',#426,#399,#428,.T.);
#359=EDGE_CURVE('',#397,#429,#430,.T.);
#360=EDGE_CURVE('',#429,#390,#431,.T.);
#361=FILL_AREA_STYLE('',(#432));
#362=EDGE_CURVE('',#433,#408,#434,.T.);
#363=EDGE_CURVE('',#421,#433,#435,.T.);
#364=FILL_AREA_STYLE('',(#436));
#365=EDGE_CURVE('',#437,#438,#439,.T.);
#366=EDGE_CURVE('',#426,#438,#440,.T.);
#367=EDGE_CURVE('',#424,#437,#441,.T.);
#368=FILL_AREA_STYLE('',(#442));
#369=EDGE_CURVE('',#386,#433,#443,.T.);
#370=FILL_AREA_STYLE('',(#444));
#371=EDGE_CURVE('',#445,#445,#446,.T.);
#372=EDGE_CURVE('',#447,#447,#448,.T.);
#373=EDGE_CURVE('',#449,#385,#450,.T.);
#374=EDGE_CURVE('',#395,#449,#451,.T.);
#375=EDGE_CURVE('',#438,#394,#452,.T.);
#376=EDGE_CURVE('',#409,#437,#453,.T.);
#377=FILL_AREA_STYLE('',(#454));
#378=EDGE_CURVE('',#429,#449,#455,.T.);
#379=FILL_AREA_STYLE('',(#456));
#380=FILL_AREA_STYLE('',(#457));
#381=FILL_AREA_STYLE('',(#458));
#382=FILL_AREA_STYLE('',(#459));
#383=FILL_AREA_STYLE('',(#460));
#384=FILL_AREA_STYLE_COLOUR('',#461);
#385=VERTEX_POINT('',#462);
#386=VERTEX_POINT('',#463);
#387=LINE('',#464,#465);
#388=VERTEX_POINT('',#466);
#389=LINE('',#467,#468);
#390=VERTEX_POINT('',#469);
#391=LINE('',#470,#471);
#392=LINE('',#472,#473);
#393=FILL_AREA_STYLE_COLOUR('',#474);
#394=VERTEX_POINT('',#475);
#395=VERTEX_POINT('',#476);
#396=CIRCLE('',#477,10.0);
#397=VERTEX_POINT('',#478);
#398=LINE('',#479,#480);
#399=VERTEX_POINT('',#481);
#400=CIRCLE('',#482,10.0);
#401=LINE('',#483,#484);
#402=FILL_AREA_STYLE_COLOUR('',#485);
#403=VERTEX_POINT('',#486);
#404=CIRCLE('',#487,2.55);
#405=VERTEX_POINT('',#488);
#406=CIRCLE('',#489,2.55);
#407=FILL_AREA_STYLE_COLOUR('',#490);
#408=VERTEX_POINT('',#491);
#409=VERTEX_POINT('',#492);
#410=CIRCLE('',#493,5.0);
#411=VERTEX_POINT('',#494);
#412=LINE('',#495,#496);
#413=VERTEX_POINT('',#497);
#414=CIRCLE('',#498,5.0);
#415=LINE('',#499,#500);
#416=FILL_AREA_STYLE_COLOUR('',#501);
#417=VERTEX_POINT('',#502);
#418=CIRCLE('',#503,3.05);
#419=VERTEX_POINT('',#504);
#420=CIRCLE('',#505,2.55);
#421=VERTEX_POINT('',#506);
#422=CIRCLE('',#507,5.0);
#423=LINE('',#508,#509);
#424=VERTEX_POINT('',#510);
#425=LINE('',#511,#512);
#426=VERTEX_POINT('',#513);
#427=CIRCLE('',#514,4.99999999999943);
#428=LINE('',#515,#516);
#429=VERTEX_POINT('',#517);
#430=LINE('',#518,#519);
#431=CIRCLE('',#520,4.99999999999978);
#432=FILL_AREA_STYLE_COLOUR('',#521);
#433=VERTEX_POINT('',#522);
#434=LINE('',#523,#524);
#435=LINE('',#525,#526);
#436=FILL_AREA_STYLE_COLOUR('',#527);
#437=VERTEX_POINT('',#528);
#438=VERTEX_POINT('',#529);
#439=CIRCLE('',#530,4.99999999999943);
#440=LINE('',#531,#532);
#441=LINE('',#533,#534);
#442=FILL_AREA_STYLE_COLOUR('',#535);
#443=CIRCLE('',#536,5.0);
#444=FILL_AREA_STYLE_COLOUR('',#537);
#445=VERTEX_POINT('',#538);
#446=CIRCLE('',#539,3.05);
#447=VERTEX_POINT('',#540);
#448=CIRCLE('',#541,2.55);
#449=VERTEX_POINT('',#542);
#450=CIRCLE('',#543,4.99999999999978);
#451=LINE('',#544,#545);
#452=LINE('',#546,#547);
#453=LINE('',#548,#549);
#454=FILL_AREA_STYLE_COLOUR('',#550);
#455=LINE('',#551,#552);
#456=FILL_AREA_STYLE_COLOUR('',#553);
#457=FILL_AREA_STYLE_COLOUR('',#554);
#458=FILL_AREA_STYLE_COLOUR('',#555);
#459=FILL_AREA_STYLE_COLOUR('',#556);
#460=FILL_AREA_STYLE_COLOUR('',#557);
#461=COLOUR_RGB('',0.752941191196442,0.752941191196442,0.752941191196442);
#462=CARTESIAN_POINT('',(0.0,5.99999999999935,5.06595764252358));
#463=CARTESIAN_POINT('',(0.0,5.99999999999935,-6.50000000000086));
#464=CARTESIAN_POINT('',(0.0,5.99999999999935,5.06595764252358));
#465=VECTOR('',#558,1.0);
#466=CARTESIAN_POINT('',(-1.99999999999978,5.99999999999935,-6.50000000000086));
#467=CARTESIAN_POINT('',(-1.99999999999978,5.99999999999935,-6.50000000000086));
#468=VECTOR('',#559,1.0);
#469=CARTESIAN_POINT('',(-1.99999999999978,5.99999999999935,5.06595764252358));
#470=CARTESIAN_POINT('',(-1.99999999999978,5.99999999999935,5.06595764252358));
#471=VECTOR('',#560,1.0);
#472=CARTESIAN_POINT('',(-1.99999999999978,5.99999999999935,5.06595764252358));
#473=VECTOR('',#561,1.0);
#474=COLOUR_RGB('',0.752941191196442,0.752941191196442,0.752941191196442);
#475=CARTESIAN_POINT('',(0.0,-19.659258262891,29.3881904510247));
#476=CARTESIAN_POINT('',(0.0,-0.34074173710951,29.3881904510247));
#477=AXIS2_PLACEMENT_3D('',#562,#563,#564);
#478=CARTESIAN_POINT('',(-1.99999999999978,-0.34074173710951,29.3881904510247));
#479=CARTESIAN_POINT('',(-1.99999999999978,-0.34074173710951,29.3881904510247));
#480=VECTOR('',#565,1.0);
#481=CARTESIAN_POINT('',(-1.99999999999978,-19.659258262891,29.3881904510247));
#482=AXIS2_PLACEMENT_3D('',#566,#567,#568);
#483=CARTESIAN_POINT('',(-1.99999999999978,-19.659258262891,29.3881904510247));
#484=VECTOR('',#569,1.0);
#485=COLOUR_RGB('',0.752941191196442,0.752941191196442,0.752941191196442);
#486=CARTESIAN_POINT('',(-1.99999999999978,-17.45,-1.7347234759768E-014));
#487=AXIS2_PLACEMENT_3D('',#570,#571,#572);
#488=CARTESIAN_POINT('',(0.0,-17.45,-1.7347234759768E-014));
#489=AXIS2_PLACEMENT_3D('',#573,#574,#575);
#490=COLOUR_RGB('',0.752941191196442,0.752941191196442,0.752941191196442);
#491=CARTESIAN_POINT('',(0.0,-21.0,-11.4999999999999));
#492=CARTESIAN_POINT('',(0.0,-26.0000000000007,-6.50000000000086));
#493=AXIS2_PLACEMENT_3D('',#576,#577,#578);
#494=CARTESIAN_POINT('',(-1.99999999999978,-26.0000000000007,-6.50000000000086));
#495=CARTESIAN_POINT('',(-1.99999999999978,-26.0000000000007,-6.50000000000086));
#496=VECTOR('',#579,1.0);
#497=CARTESIAN_POINT('',(-1.99999999999978,-21.0,-11.4999999999999));
#498=AXIS2_PLACEMENT_3D('',#580,#581,#582);
#499=CARTESIAN_POINT('',(-1.99999999999978,-21.0,-11.4999999999999));
#500=VECTOR('',#583,1.0);
#501=COLOUR_RGB('',0.752941191196442,0.752941191196442,0.752941191196442);
#502=CARTESIAN_POINT('',(-1.99999999999978,-6.95000000000067,26.8));
#503=AXIS2_PLACEMENT_3D('',#584,#585,#586);
#504=CARTESIAN_POINT('',(-1.99999999999978,2.55000000000028,-1.7347234759768E-014));
#505=AXIS2_PLACEMENT_3D('',#587,#588,#589);
#506=CARTESIAN_POINT('',(-1.99999999999978,0.999999999999454,-11.4999999999999));
#507=AXIS2_PLACEMENT_3D('',#590,#591,#592);
#508=CARTESIAN_POINT('',(-1.99999999999978,0.999999999999454,-11.4999999999999));
#509=VECTOR('',#593,1.0);
#510=CARTESIAN_POINT('',(-1.99999999999978,-26.0000000000007,5.06595764252358));
#511=CARTESIAN_POINT('',(-1.99999999999978,-26.0000000000007,-6.50000000000086));
#512=VECTOR('',#594,1.0);
#513=CARTESIAN_POINT('',(-1.99999999999978,-25.8296291314455,6.36005286803607));
#514=AXIS2_PLACEMENT_3D('',#595,#596,#597);
#515=CARTESIAN_POINT('',(-1.99999999999978,-25.8296291314455,6.36005286803607));
#516=VECTOR('',#598,1.0);
#517=CARTESIAN_POINT('',(-1.99999999999978,5.82962913144503,6.36005286803607));
#518=CARTESIAN_POINT('',(-1.99999999999978,-0.34074173710951,29.3881904510247));
#519=VECTOR('',#599,1.0);
#520=AXIS2_PLACEMENT_3D('',#600,#601,#602);
#521=COLOUR_RGB('',0.752941191196442,0.752941191196442,0.752941191196442);
#522=CARTESIAN_POINT('',(0.0,0.999999999999454,-11.4999999999999));
#523=CARTESIAN_POINT('',(0.0,0.999999999999454,-11.4999999999999));
#524=VECTOR('',#603,1.0);
#525=CARTESIAN_POINT('',(-1.99999999999978,0.999999999999454,-11.4999999999999));
#526=VECTOR('',#604,1.0);
#527=COLOUR_RGB('',0.752941191196442,0.752941191196442,0.752941191196442);
#528=CARTESIAN_POINT('',(0.0,-26.0000000000007,5.06595764252358));
#529=CARTESIAN_POINT('',(0.0,-25.8296291314455,6.36005286803607));
#530=AXIS2_PLACEMENT_3D('',#605,#606,#607);
#531=CARTESIAN_POINT('',(-1.99999999999978,-25.8296291314455,6.36005286803607));
#532=VECTOR('',#608,1.0);
#533=CARTESIAN_POINT('',(-1.99999999999978,-26.0000000000007,5.06595764252358));
#534=VECTOR('',#609,1.0);
#535=COLOUR_RGB('',0.752941191196442,0.752941191196442,0.752941191196442);
#536=AXIS2_PLACEMENT_3D('',#610,#611,#612);
#537=COLOUR_RGB('',0.752941191196442,0.752941191196442,0.752941191196442);
#538=CARTESIAN_POINT('',(0.0,-6.95000000000067,26.8));
#539=AXIS2_PLACEMENT_3D('',#613,#614,#615);
#540=CARTESIAN_POINT('',(0.0,2.55000000000028,-1.7347234759768E-014));
#541=AXIS2_PLACEMENT_3D('',#616,#617,#618);
#542=CARTESIAN_POINT('',(0.0,5.82962913144503,6.36005286803607));
#543=AXIS2_PLACEMENT_3D('',#619,#620,#621);
#544=CARTESIAN_POINT('',(0.0,-0.34074173710951,29.3881904510247));
#545=VECTOR('',#622,1.0);
#546=CARTESIAN_POINT('',(0.0,-25.8296291314455,6.36005286803607));
#547=VECTOR('',#623,1.0);
#548=CARTESIAN_POINT('',(0.0,-26.0000000000007,-6.50000000000086));
#549=VECTOR('',#624,1.0);
#550=COLOUR_RGB('',0.752941191196442,0.752941191196442,0.752941191196442);
#551=CARTESIAN_POINT('',(-1.99999999999978,5.82962913144503,6.36005286803607));
#552=VECTOR('',#625,1.0);
#553=COLOUR_RGB('',0.752941191196442,0.752941191196442,0.752941191196442);
#554=COLOUR_RGB('',0.752941191196442,0.752941191196442,0.752941191196442);
#555=COLOUR_RGB('',0.752941191196442,0.752941191196442,0.752941191196442);
#556=COLOUR_RGB('',0.752941191196442,0.752941191196442,0.752941191196442);
#557=COLOUR_RGB('',0.752941191196442,0.752941191196442,0.752941191196442);
#558=DIRECTION('',(0.0,0.0,-1.0));
#559=DIRECTION('',(1.0,0.0,0.0));
#560=DIRECTION('',(0.0,0.0,-1.0));
#561=DIRECTION('',(1.0,0.0,0.0));
#562=CARTESIAN_POINT('',(0.0,-10.0000000000007,26.8));
#563=DIRECTION('',(-1.0,0.0,0.0));
#564=DIRECTION('',(0.0,-1.0,0.0));
#565=DIRECTION('',(1.0,0.0,0.0));
#566=CARTESIAN_POINT('',(-1.99999999999978,-10.0000000000007,26.8));
#567=DIRECTION('',(-1.0,0.0,0.0));
#568=DIRECTION('',(0.0,-1.0,0.0));
#569=DIRECTION('',(1.0,0.0,0.0));
#570=CARTESIAN_POINT('',(-1.99999999999978,-20.0000000000005,-1.7347234759768E-014));
#571=DIRECTION('',(1.0,0.0,0.0));
#572=DIRECTION('',(0.0,1.0,0.0));
#573=CARTESIAN_POINT('',(0.0,-20.0000000000005,-1.7347234759768E-014));
#574=DIRECTION('',(1.0,0.0,0.0));
#575=DIRECTION('',(0.0,1.0,0.0));
#576=CARTESIAN_POINT('',(0.0,-21.0,-6.50000000000086));
#577=DIRECTION('',(-1.0,0.0,0.0));
#578=DIRECTION('',(0.0,-1.0,0.0));
#579=DIRECTION('',(1.0,0.0,0.0));
#580=CARTESIAN_POINT('',(-1.99999999999978,-21.0,-6.50000000000086));
#581=DIRECTION('',(-1.0,0.0,0.0));
#582=DIRECTION('',(0.0,-1.0,0.0));
#583=DIRECTION('',(1.0,0.0,0.0));
#584=CARTESIAN_POINT('',(-1.99999999999978,-10.0000000000007,26.8));
#585=DIRECTION('',(1.0,0.0,0.0));
#586=DIRECTION('',(0.0,1.0,0.0));
#587=CARTESIAN_POINT('',(-1.99999999999978,7.80625564189563E-015,-1.7347234759768E-014));
#588=DIRECTION('',(1.0,0.0,0.0));
#589=DIRECTION('',(0.0,1.0,0.0));
#590=CARTESIAN_POINT('',(-1.99999999999978,0.999999999999454,-6.50000000000086));
#591=DIRECTION('',(-1.0,0.0,0.0));
#592=DIRECTION('',(0.0,-1.0,0.0));
#593=DIRECTION('',(0.0,-1.0,0.0));
#594=DIRECTION('',(0.0,0.0,1.0));
#595=CARTESIAN_POINT('',(-1.99999999999978,-21.0000000000008,5.06595764252358));
#596=DIRECTION('',(-1.0,0.0,0.0));
#597=DIRECTION('',(0.0,-1.0,0.0));
#598=DIRECTION('',(0.0,0.258819045102522,0.965925826289068));
#599=DIRECTION('',(0.0,0.258819045102522,-0.965925826289068));
#600=CARTESIAN_POINT('',(-1.99999999999978,1.00000000000034,5.06595764252358));
#601=DIRECTION('',(-1.0,0.0,0.0));
#602=DIRECTION('',(0.0,-1.0,0.0));
#603=DIRECTION('',(0.0,-1.0,0.0));
#604=DIRECTION('',(1.0,0.0,0.0));
#605=CARTESIAN_POINT('',(0.0,-21.0000000000008,5.06595764252358));
#606=DIRECTION('',(-1.0,0.0,0.0));
#607=DIRECTION('',(0.0,-1.0,0.0));
#608=DIRECTION('',(1.0,0.0,0.0));
#609=DIRECTION('',(1.0,0.0,0.0));
#610=CARTESIAN_POINT('',(0.0,0.999999999999454,-6.50000000000086));
#611=DIRECTION('',(-1.0,0.0,0.0));
#612=DIRECTION('',(0.0,-1.0,0.0));
#613=CARTESIAN_POINT('',(0.0,-10.0000000000007,26.8));
#614=DIRECTION('',(1.0,0.0,0.0));
#615=DIRECTION('',(0.0,1.0,0.0));
#616=CARTESIAN_POINT('',(0.0,7.80625564189563E-015,-1.7347234759768E-014));
#617=DIRECTION('',(1.0,0.0,0.0));
#618=DIRECTION('',(0.0,1.0,0.0));
#619=CARTESIAN_POINT('',(0.0,1.00000000000034,5.06595764252358));
#620=DIRECTION('',(-1.0,0.0,0.0));
#621=DIRECTION('',(0.0,-1.0,0.0));
#622=DIRECTION('',(0.0,0.258819045102522,-0.965925826289068));
#623=DIRECTION('',(0.0,0.258819045102522,0.965925826289068));
#624=DIRECTION('',(0.0,0.0,1.0));
#625=DIRECTION('',(1.0,0.0,0.0));
ENDSEC;
END-ISO-10303-21;
