  0
SECTION
  2
HEADER
  9
$ACADVER
  1
AC1009
  9
$INSBASE
 10
0
 20
0
 30
0
  9
$EXTMIN
 10
0
 20
0
  9
$EXTMAX
 10
1189
 20
841
  9
$LIMMIN
 10
0
 20
0
  9
$LIMMAX
 10
1189
 20
841
  9
$LTSCALE
 40
1
  0
ENDSEC
  0
SECTION
  2
TABLES
  0
TABLE
  2
LTYPE
 70
     9
  0
LTYPE
  2
CONTINUOUS
 70
    64
  3
実線
 72
    65
 73
     0
 40
0.0
  0
LTYPE
  2
DASHED1
 70
    64
  3
--  --  --  --  --  --  --  --  
 72
    65
 73
     2
 40
2.5
 49
1.25
 49
-1.25
  0
LTYPE
  2
DASHED2
 70
    64
  3
----    ----    ----    ----    
 72
    65
 73
     2
 40
5.0
 49
2.5
 49
-2.5
  0
LTYPE
  2
DASHED3
 70
    64
  3
------  ------  ------  ------  
 72
    65
 73
     2
 40
5.0
 49
3.75
 49
-1.25
  0
LTYPE
  2
CENTER1
 70
    64
  3
----- - ----- - ----- - ----- - 
 72
    65
 73
     4
 40
10.0
 49
6.25
 49
-1.25
 49
1.25
 49
-1.25
  0
LTYPE
  2
CENTER2
 70
    64
  3
----------  --  ----------  --  
 72
    65
 73
     4
 40
20.0
 49
12.5
 49
-2.5
 49
2.5
 49
-2.5
  0
LTYPE
  2
PHANTOM1
 70
    64
  3
--- - - --- - - --- - - --- - - 
 72
    65
 73
     6
 40
10.0
 49
3.25
 49
-1.25
 49
1.25
 49
-1.25
 49
1.25
 49
-1.25
  0
LTYPE
  2
PHANTOM2
 70
    64
  3
--------  -  -  --------  -  -  
 72
    65
 73
     6
 40
20.0
 49
10.0
 49
-2.5
 49
1.25
 49
-2.5
 49
1.25
 49
-2.5
  0
LTYPE
  2
DOT
 70
    64
  3
-   -   -   -   -   -   -   -   
 72
    65
 73
     2
 40
2.5
 49
0.625
 49
-1.875
  0
LTYPE
  2
DUMMY
 70
    64
  3
ダミー
 72
    65
 73
     0
 40
0.0
  0
LTYPE
  2
RAND1
 70
    64
  3
ランダム線1
 72
    65
 73
     4
 40
10.0
 49
1.0
 49
-2.0
 49
3.0
 49
-4.0
  0
LTYPE
  2
RAND2
 70
    64
  3
ランダム線2
 72
    65
 73
     4
 40
14.0
 49
2.0
 49
-3.0
 49
4.0
 49
-5.0
  0
LTYPE
  2
RAND3
 70
    64
  3
ランダム線3
 72
    65
 73
     4
 40
18.0
 49
3.0
 49
-4.0
 49
5.0
 49
-6.0
  0
LTYPE
  2
RAND4
 70
    64
  3
ランダム線4
 72
    65
 73
     4
 40
22.0
 49
4.0
 49
-5.0
 49
6.0
 49
-7.0
  0
LTYPE
  2
RAND5
 70
    64
  3
ランダム線5
 72
    65
 73
     4
 40
26.0
 49
5.0
 49
-6.0
 49
7.0
 49
-8.0
  0
LTYPE
  2
LONG1
 70
    64
  3
----------  --  ----------  --  
 72
    65
 73
     4
 40
40.0
 49
32.5
 49
-2.5
 49
2.5
 49
-2.5
  0
LTYPE
  2
LONG2
 70
    64
  3
--------  -  -  --------  -  -  
 72
    65
 73
     6
 40
40.0
 49
30.0
 49
-2.5
 49
1.25
 49
-2.5
 49
1.25
 49
-2.5
  0
LTYPE
  2
LONG3
 70
    64
  3
+++++++++++++++..+++++++++++++++
 72
    65
 73
     2
 40
40.0
 49
37.5
 49
-2.5
  0
LTYPE
  2
LONG4
 70
    64
  3
+++++++++++++++..+++++++++++++++
 72
    65
 73
     2
 40
80.0
 49
75.0
 49
-5.0
  0
LTYPE
  2
LONG5
 70
    64
  3
----------  --  ----------  --  
 72
    65
 73
     4
 40
60.0
 49
37.5
 49
-7.5
 49
7.5
 49
-7.5
  0
LTYPE
  2
dashed
 70
   64
  3
-------   -------------   ------
 72
   65
 73
    2
 40
7.5
 49
6
 49
-1.5
  0
LTYPE
  2
dashed_spaced
 70
   64
  3
----        --------        ----
 72
   65
 73
    2
 40
12
 49
6
 49
-6
  0
LTYPE
  2
long_dashed_dotted
 70
   64
  3
------------- --- --------------
 72
   65
 73
    4
 40
15.25
 49
12
 49
-1.5
 49
0.25
 49
-1.5
  0
LTYPE
  2
long_dashed_double-dotted
 70
   64
  3
----------- --- --- ------------
 72
   65
 73
    6
 40
17
 49
12
 49
-1.5
 49
0.25
 49
-1.5
 49
0.25
 49
-1.5
  0
LTYPE
  2
long_dashed_triplicate-dotted
 70
   64
  3
--------- --- --- --- ----------
 72
   65
 73
    8
 40
18.75
 49
12
 49
-1.5
 49
0.25
 49
-1.5
 49
0.25
 49
-1.5
 49
0.25
 49
-1.5
  0
LTYPE
  2
dotted
 70
   64
  3
   -       -       -       -    
 72
   65
 73
    2
 40
1.75
 49
0.25
 49
-1.5
  0
LTYPE
  2
chain
 70
   64
  3
-------------- -- --------------
 72
   65
 73
    4
 40
18.5
 49
12
 49
-1.5
 49
3.5
 49
-1.5
  0
LTYPE
  2
chain_double_dash
 70
   64
  3
------------ -- -- -------------
 72
   65
 73
    6
 40
23.5
 49
12
 49
-1.5
 49
3.5
 49
-1.5
 49
3.5
 49
-1.5
  0
LTYPE
  2
dashed_dotted
 70
   64
  3
-----------     -     ----------
 72
   65
 73
    4
 40
9.25
 49
6
 49
-1.5
 49
0.25
 49
-1.5
  0
LTYPE
  2
double-dashed_dotted
 70
   64
  3
------   -----------   -   -----
 72
   65
 73
    6
 40
16.75
 49
6
 49
-1.5
 49
6
 49
-1.5
 49
0.25
 49
-1.5
  0
LTYPE
  2
dashed_double-dotted
 70
   64
  3
---------    -    -    ---------
 72
   65
 73
    6
 40
11
 49
6
 49
-1.5
 49
0.25
 49
-1.5
 49
0.25
 49
-1.5
  0
LTYPE
  2
double-dashed_double-dotted
 70
   64
  3
-----   ---------   -   -   ----
 72
   65
 73
    8
 40
18.5
 49
6
 49
-1.5
 49
6
 49
-1.5
 49
0.25
 49
-1.5
 49
0.25
 49
-1.5
  0
LTYPE
  2
dashed_triplicate-dotted
 70
   64
  3
-------    -    -    -    ------
 72
   65
 73
    8
 40
12.75
 49
6
 49
-1.5
 49
0.25
 49
-1.5
 49
0.25
 49
-1.5
 49
0.25
 49
-1.5
  0
LTYPE
  2
double-dashed_triplicate-dotted
 70
   64
  3
-----  ---------  -  -  -  -----
 72
   65
 73
   10
 40
20.25
 49
6
 49
-1.5
 49
6
 49
-1.5
 49
0.25
 49
-1.5
 49
0.25
 49
-1.5
 49
0.25
 49
-1.5
  0
LTYPE
  2
undefined
 70
   64
  3
--------------------------------
 72
   65
 73
    0
 40
0
  0
LTYPE
  2
_
 70
   64
  3
                                
 72
   65
 73
    0
 40
0
  0
LTYPE
  2
__18
 70
   64
  3
                                
 72
   65
 73
    0
 40
0
  0
LTYPE
  2
__19
 70
   64
  3
                                
 72
   65
 73
    0
 40
0
  0
LTYPE
  2
__20
 70
   64
  3
                                
 72
   65
 73
    0
 40
0
  0
LTYPE
  2
__21
 70
   64
  3
                                
 72
   65
 73
    0
 40
0
  0
LTYPE
  2
__22
 70
   64
  3
                                
 72
   65
 73
    0
 40
0
  0
LTYPE
  2
__23
 70
   64
  3
                                
 72
   65
 73
    0
 40
0
  0
LTYPE
  2
__24
 70
   64
  3
                                
 72
   65
 73
    0
 40
0
  0
LTYPE
  2
__25
 70
   64
  3
                                
 72
   65
 73
    0
 40
0
  0
LTYPE
  2
__26
 70
   64
  3
                                
 72
   65
 73
    0
 40
0
  0
LTYPE
  2
__27
 70
   64
  3
                                
 72
   65
 73
    0
 40
0
  0
LTYPE
  2
__28
 70
   64
  3
                                
 72
   65
 73
    0
 40
0
  0
LTYPE
  2
__29
 70
   64
  3
                                
 72
   65
 73
    0
 40
0
  0
LTYPE
  2
__30
 70
   64
  3
                                
 72
   65
 73
    0
 40
0
  0
LTYPE
  2
__31
 70
   64
  3
                                
 72
   65
 73
    0
 40
0
  0
LTYPE
  2
__32
 70
   64
  3
                                
 72
   65
 73
    0
 40
0
  0
ENDTAB
  0
TABLE
  2
STYLE
  5
3
100
AcDbSymbolTable
 70
     1
  0
STYLE
  5
10
100
AcDbSymbolTableRecord
100
AcDbTextStyleTableRecord
  2
STANDARD
 70
     0
 40
0.0
 41
1.0
 50
0.0
 71
     0
 42
0.2
  3
txt
  4
bigfont.shx
  0
STYLE
  5
26
100
AcDbSymbolTableRecord
100
AcDbTextStyleTableRecord
  2
TATEGAKI
 70
    68
 40
0.0
 41
1.0
 50
0.0
 71
     0
 42
1.0
  3
txt
  4
bigfont.shx
  0
ENDTAB
  0
TABLE
  2
LAYER
 70
    4
  0
LAYER
  2
_0-0_
 70
   64
 62
    7
  6
CONTINUOUS
  0
LAYER
  2
_0-1_
 70
   64
 62
    7
  6
CONTINUOUS
  0
LAYER
  2
_0-f_
 70
   64
 62
    7
  6
CONTINUOUS
  0
LAYER
  2
ADD_LINE
 70
   64
 62
    7
  6
CONTINUOUS
  0
ENDTAB
  0
ENDSEC
  0
SECTION
  2
BLOCKS
  0
ENDSEC
  0
SECTION
  2
ENTITIES
  0
TEXT
  8
_0-f_
 62
    7
 10
0.4994887449983025
 20
0.7727231289297265
 40
4.2999999999999998
 41
0.744186046511628
 50
0
  1
GS31
  0
LINE
  8
_0-0_
  6
CONTINUOUS
 62
    7
 10
63.95112702188294
 20
25.30464356793965
 11
11.651127021882985
 21
25.30464356793965
  0
LINE
  8
_0-0_
  6
CONTINUOUS
 62
    7
 10
11.651127021882985
 20
5.3046435679396495
 11
63.95112702188294
 21
5.3046435679396495
  0
LINE
  8
_0-0_
  6
CONTINUOUS
 62
    7
 10
68.95112702188294
 20
10.30464356793965
 11
68.95112702188294
 21
20.30464356793965
  0
CIRCLE
  8
_0-0_
  6
CONTINUOUS
 62
    7
 10
11.651127021882985
 20
15.30464356793965
 40
3.0499999999999998
  0
CIRCLE
  8
_0-0_
  6
CONTINUOUS
 62
    7
 10
42.95112702188294
 20
15.30464356793965
 40
2.5499999999999998
  0
CIRCLE
  8
_0-0_
  6
CONTINUOUS
 62
    7
 10
62.95112702188294
 20
15.30464356793965
 40
2.5499999999999998
  0
ARC
  8
_0-0_
  6
CONTINUOUS
 62
    7
 10
11.651127021882985
 20
15.30464356793965
 40
10
 50
90
 51
270
  0
ARC
  8
_0-0_
  6
CONTINUOUS
 62
    7
 10
63.95112702188294
 20
20.30464356793965
 40
5
 50
0
 51
90
  0
ARC
  8
_0-0_
  6
CONTINUOUS
 62
    7
 10
63.95112702188294
 20
10.30464356793965
 40
5
 50
270
 51
0
  0
LINE
  8
_0-0_
  6
CONTINUOUS
 62
    7
 10
1.6511317479382797
 20
68.057870853931263
 11
1.6511317479382797
 21
66.057870853931263
  0
LINE
  8
_0-0_
  6
CONTINUOUS
 62
    7
 10
68.95112702188294
 20
68.057870853930694
 11
68.95112702188294
 21
66.057870853930694
  0
LINE
  8
_0-0_
  6
CONTINUOUS
 62
    7
 10
68.95112702188294
 20
66.057870853930694
 11
1.6511317479382797
 21
66.057870853931263
  0
LINE
  8
_0-0_
  6
CONTINUOUS
 62
    7
 10
68.95112702188294
 20
68.057870853930694
 11
1.6511317479382797
 21
68.057870853931263
  0
LINE
  8
_0-1_
  6
CENTER1
 62
  152
 10
11.651127021882985
 20
5.3046435679396495
 11
11.651127021882985
 21
25.30464356793965
  0
LINE
  8
_0-1_
  6
CENTER1
 62
  152
 10
1.6511317479382797
 20
15.30464356793965
 11
68.95112702188294
 21
15.30464356793965
  0
LINE
  8
_0-1_
  6
CENTER1
 62
  152
 10
11.651127021882985
 20
70.796029187880208
 11
11.651127021882985
 21
62.16581222535558
  0
LINE
  8
_0-1_
  6
CENTER1
 62
  152
 10
42.95112702188294
 20
8.6073378207541396
 11
42.95112702188294
 21
21.944567258539735
  0
LINE
  8
_0-1_
  6
CENTER1
 62
  152
 10
62.95112702188294
 20
8.6073378207541396
 11
62.95112702188294
 21
21.944567258539735
  0
LINE
  8
_0-1_
  6
CONTINUOUS
 62
    7
 10
36.95112702188294
 20
64.057870853930922
 11
36.95112702188294
 21
66.057870853930922
  0
LINE
  8
_0-1_
  6
CONTINUOUS
 62
    7
 10
36.95112702188294
 20
64.057870853930922
 11
48.95112702188294
 21
64.057870853930922
  0
LINE
  8
_0-1_
  6
CONTINUOUS
 62
    7
 10
48.95112702188294
 20
64.057870853930922
 11
48.95112702188294
 21
66.057870853930922
  0
LINE
  8
ADD_LINE
  6
DOT
 62
    9
 10
42.95112702188294
 20
64.057870853930922
 11
42.244020240696273
 21
64.764977635117475
  0
LINE
  8
ADD_LINE
  6
DOT
 62
    9
 10
42.95112702188294
 20
64.057870853930922
 11
43.658233803069606
 21
64.764977635117475
  0
LINE
  8
_0-1_
  6
CONTINUOUS
 62
  152
 10
41.736841290567327
 20
59.557870853930922
 11
41.736841290567327
 21
64.057870853930922
  0
LINE
  8
_0-1_
  6
CONTINUOUS
 62
  152
 10
41.129698484514165
 20
59.557870853930922
 11
41.129698484514165
 21
64.057870853930922
  0
LINE
  8
_0-1_
  6
CONTINUOUS
 62
  152
 10
39.915412633989263
 20
59.557870853930922
 11
39.915412633989263
 21
64.057870853930922
  0
LINE
  8
_0-1_
  6
CONTINUOUS
 62
  152
 10
39.308269947145391
 20
59.557870853930922
 11
39.308269947145391
 21
64.057870853930922
  0
LINE
  8
_0-1_
  6
CONTINUOUS
 62
  152
 10
40.522555559251714
 20
59.557870853930922
 11
40.522555559251714
 21
64.057870853930922
  0
LINE
  8
_0-1_
  6
CONTINUOUS
 62
   56
 10
47.20112702188294
 20
59.557870853930922
 11
47.20112702188294
 21
64.057870853930922
  0
LINE
  8
_0-1_
  6
CONTINUOUS
 62
   56
 10
47.20112702188294
 20
59.557870853930922
 11
46.70112702188294
 21
59.057870853930922
  0
LINE
  8
_0-1_
  6
CONTINUOUS
 62
   56
 10
39.20112702188294
 20
59.057870853930922
 11
46.70112702188294
 21
59.057870853930922
  0
LINE
  8
_0-1_
  6
CONTINUOUS
 62
   56
 10
38.70112702188294
 20
59.557870853930922
 11
38.70112702188294
 21
64.057870853930922
  0
LINE
  8
_0-1_
  6
CONTINUOUS
 62
   56
 10
39.20112702188294
 20
59.057870853930922
 11
38.70112702188294
 21
59.557870853930922
  0
LINE
  8
_0-1_
  6
CONTINUOUS
 62
   56
 10
47.20112702188294
 20
59.557870853930922
 11
38.70112702188294
 21
59.557870853930922
  0
LINE
  8
_0-1_
  6
CONTINUOUS
 62
  152
 10
45.101127117250371
 20
64.057870853930922
 11
45.101127117250371
 21
72.057870853930922
  0
LINE
  8
_0-1_
  6
CONTINUOUS
 62
  152
 10
40.801126926515508
 20
64.057870853930922
 11
40.801126926515508
 21
72.057870853930922
  0
LINE
  8
_0-1_
  6
CONTINUOUS
 62
   56
 10
45.45112702188294
 20
71.707870472461195
 11
45.45112702188294
 21
64.057870853930922
  0
LINE
  8
_0-1_
  6
CONTINUOUS
 62
   56
 10
40.801126926515508
 20
72.057870853930922
 11
45.101127117250371
 21
72.057870853930922
  0
LINE
  8
_0-1_
  6
CONTINUOUS
 62
   56
 10
40.45112702188294
 20
71.707870472461195
 11
40.45112702188294
 21
64.057870853930922
  0
LINE
  8
_0-1_
  6
CONTINUOUS
 62
   56
 10
45.45112702188294
 20
71.707870472461195
 11
45.101127117250371
 21
72.057870853930922
  0
LINE
  8
_0-1_
  6
CONTINUOUS
 62
   56
 10
40.801126926515508
 20
72.057870853930922
 11
40.45112702188294
 21
71.707870472461195
  0
LINE
  8
_0-1_
  6
CONTINUOUS
 62
   56
 10
45.45112702188294
 20
71.707870472461195
 11
40.45112702188294
 21
71.707870472461195
  0
LINE
  8
_0-1_
  6
CONTINUOUS
 62
    7
 10
46.106178021883125
 20
72.719270853930936
 11
45.232514021882935
 21
73.037260853930718
  0
LINE
  8
_0-1_
  6
CONTINUOUS
 62
    7
 10
44.548474021882839
 20
73.157870853930888
 11
41.353781021882924
 21
73.157870853930888
  0
LINE
  8
_0-1_
  6
CONTINUOUS
 62
    7
 10
40.669741021882828
 20
73.037260853930718
 11
39.796077021883093
 21
72.719270853930936
  0
ARC
  8
_0-1_
  6
CONTINUOUS
 62
    7
 10
44.548474021882839
 20
71.157870853930888
 40
2
 50
69.999999999999972
 51
90
  0
ARC
  8
_0-1_
  6
CONTINUOUS
 62
    7
 10
41.353781021882924
 20
71.157870853930888
 40
2
 50
90
 51
110
  0
ARC
  8
_0-1_
  6
CONTINUOUS
 62
    7
 10
45.251127021883121
 20
70.370040853930675
 40
2.5
 50
348.17822799457855
 51
69.999999999999943
  0
LINE
  8
_0-1_
  6
CONTINUOUS
 62
    7
 10
46.52266492867534
 20
69.857870853930706
 11
47.698101049350498
 21
69.857870853930706
  0
ARC
  8
_0-1_
  6
CONTINUOUS
 62
    7
 10
40.651127021883212
 20
70.370040853930675
 40
2.5
 50
110.00000000000003
 51
191.82177200542145
  0
LINE
  8
_0-1_
  6
CONTINUOUS
 62
    7
 10
38.204152994415836
 20
69.857870853930706
 11
39.379590115090991
 21
69.857870853930706
  0
LINE
  8
_0-1_
  6
CONTINUOUS
 62
    7
 10
39.70112592867531
 20
68.657870853930888
 11
39.379590115090991
 21
69.857870853930706
  0
LINE
  8
_0-1_
  6
CONTINUOUS
 62
    7
 10
46.52266492867534
 20
69.857870853930706
 11
46.201129115090907
 21
68.657870853930888
  0
LINE
  8
_0-1_
  6
CONTINUOUS
 62
    7
 10
39.70112592867531
 20
68.657870853930888
 11
46.201129115090907
 21
68.657870853930888
  0
LINE
  8
ADD_LINE
  6
DOT
 62
    9
 10
42.95112702188294
 20
68.057870853930922
 11
43.658233803050507
 21
68.764977635098376
  0
LINE
  8
ADD_LINE
  6
DOT
 62
    9
 10
42.244020240677173
 20
68.764977635098376
 11
42.95112702186384
 21
68.057870853911709
  0
LINE
  8
_0-1_
  6
CENTER1
 62
  152
 10
42.95112702188294
 20
58.491614547350196
 11
42.95112702188294
 21
73.72960707494866
  0
LINE
  8
_0-1_
  6
CONTINUOUS
 62
    7
 10
56.95112702188294
 20
64.057870853930751
 11
56.95112702188294
 21
66.057870853930751
  0
LINE
  8
_0-1_
  6
CONTINUOUS
 62
    7
 10
56.95112702188294
 20
64.057870853930751
 11
68.95112702188294
 21
64.057870853930751
  0
LINE
  8
_0-1_
  6
CONTINUOUS
 62
    7
 10
68.95112702188294
 20
64.057870853930751
 11
68.95112702188294
 21
66.057870853930751
  0
LINE
  8
ADD_LINE
  6
DOT
 62
    9
 10
62.95112702188294
 20
64.057870853930751
 11
62.244020240696273
 21
64.764977635117305
  0
LINE
  8
ADD_LINE
  6
DOT
 62
    9
 10
62.95112702188294
 20
64.057870853930751
 11
63.658233803069606
 21
64.764977635117305
  0
LINE
  8
_0-1_
  6
CONTINUOUS
 62
  152
 10
61.736841290567327
 20
59.557870853930751
 11
61.736841290567327
 21
64.057870853930751
  0
LINE
  8
_0-1_
  6
CONTINUOUS
 62
  152
 10
61.129698484514165
 20
59.557870853930751
 11
61.129698484514165
 21
64.057870853930751
  0
LINE
  8
_0-1_
  6
CONTINUOUS
 62
  152
 10
59.915412633989263
 20
59.557870853930751
 11
59.915412633989263
 21
64.057870853930751
  0
LINE
  8
_0-1_
  6
CONTINUOUS
 62
  152
 10
59.308269947145391
 20
59.557870853930751
 11
59.308269947145391
 21
64.057870853930751
  0
LINE
  8
_0-1_
  6
CONTINUOUS
 62
  152
 10
60.522555559251714
 20
59.557870853930751
 11
60.522555559251714
 21
64.057870853930751
  0
LINE
  8
_0-1_
  6
CONTINUOUS
 62
   56
 10
67.20112702188294
 20
59.557870853930751
 11
67.20112702188294
 21
64.057870853930751
  0
LINE
  8
_0-1_
  6
CONTINUOUS
 62
   56
 10
67.20112702188294
 20
59.557870853930751
 11
66.70112702188294
 21
59.057870853930751
  0
LINE
  8
_0-1_
  6
CONTINUOUS
 62
   56
 10
59.20112702188294
 20
59.057870853930751
 11
66.70112702188294
 21
59.057870853930751
  0
LINE
  8
_0-1_
  6
CONTINUOUS
 62
   56
 10
58.70112702188294
 20
59.557870853930751
 11
58.70112702188294
 21
64.057870853930751
  0
LINE
  8
_0-1_
  6
CONTINUOUS
 62
   56
 10
59.20112702188294
 20
59.057870853930751
 11
58.70112702188294
 21
59.557870853930751
  0
LINE
  8
_0-1_
  6
CONTINUOUS
 62
   56
 10
67.20112702188294
 20
59.557870853930751
 11
58.70112702188294
 21
59.557870853930751
  0
LINE
  8
_0-1_
  6
CONTINUOUS
 62
  152
 10
65.101127117250371
 20
64.057870853930751
 11
65.101127117250371
 21
72.057870853930751
  0
LINE
  8
_0-1_
  6
CONTINUOUS
 62
  152
 10
60.801126926515508
 20
64.057870853930751
 11
60.801126926515508
 21
72.057870853930751
  0
LINE
  8
_0-1_
  6
CONTINUOUS
 62
   56
 10
65.45112702188294
 20
71.707870472461025
 11
65.45112702188294
 21
64.057870853930751
  0
LINE
  8
_0-1_
  6
CONTINUOUS
 62
   56
 10
60.801126926515508
 20
72.057870853930751
 11
65.101127117250371
 21
72.057870853930751
  0
LINE
  8
_0-1_
  6
CONTINUOUS
 62
   56
 10
60.45112702188294
 20
71.707870472461025
 11
60.45112702188294
 21
64.057870853930751
  0
LINE
  8
_0-1_
  6
CONTINUOUS
 62
   56
 10
65.45112702188294
 20
71.707870472461025
 11
65.101127117250371
 21
72.057870853930751
  0
LINE
  8
_0-1_
  6
CONTINUOUS
 62
   56
 10
60.801126926515508
 20
72.057870853930751
 11
60.45112702188294
 21
71.707870472461025
  0
LINE
  8
_0-1_
  6
CONTINUOUS
 62
   56
 10
65.45112702188294
 20
71.707870472461025
 11
60.45112702188294
 21
71.707870472461025
  0
LINE
  8
_0-1_
  6
CONTINUOUS
 62
    7
 10
66.106178021883125
 20
72.719270853930766
 11
65.232514021882935
 21
73.037260853930547
  0
LINE
  8
_0-1_
  6
CONTINUOUS
 62
    7
 10
64.548474021882839
 20
73.157870853930717
 11
61.353781021882924
 21
73.157870853930717
  0
LINE
  8
_0-1_
  6
CONTINUOUS
 62
    7
 10
60.669741021882828
 20
73.037260853930547
 11
59.796077021883093
 21
72.719270853930766
  0
ARC
  8
_0-1_
  6
CONTINUOUS
 62
    7
 10
64.548474021882839
 20
71.157870853930717
 40
2
 50
69.999999999999972
 51
90
  0
ARC
  8
_0-1_
  6
CONTINUOUS
 62
    7
 10
61.353781021882924
 20
71.157870853930717
 40
2
 50
90
 51
110
  0
ARC
  8
_0-1_
  6
CONTINUOUS
 62
    7
 10
65.251127021883121
 20
70.370040853930504
 40
2.5
 50
348.17822799457855
 51
69.999999999999943
  0
LINE
  8
_0-1_
  6
CONTINUOUS
 62
    7
 10
66.52266492867534
 20
69.857870853930535
 11
67.698101049350498
 21
69.857870853930535
  0
ARC
  8
_0-1_
  6
CONTINUOUS
 62
    7
 10
60.651127021883212
 20
70.370040853930504
 40
2.5
 50
110.00000000000003
 51
191.82177200542145
  0
LINE
  8
_0-1_
  6
CONTINUOUS
 62
    7
 10
58.204152994415836
 20
69.857870853930535
 11
59.379590115090991
 21
69.857870853930535
  0
LINE
  8
_0-1_
  6
CONTINUOUS
 62
    7
 10
59.70112592867531
 20
68.657870853930717
 11
59.379590115090991
 21
69.857870853930535
  0
LINE
  8
_0-1_
  6
CONTINUOUS
 62
    7
 10
66.52266492867534
 20
69.857870853930535
 11
66.201129115090907
 21
68.657870853930717
  0
LINE
  8
_0-1_
  6
CONTINUOUS
 62
    7
 10
59.70112592867531
 20
68.657870853930717
 11
66.201129115090907
 21
68.657870853930717
  0
LINE
  8
ADD_LINE
  6
DOT
 62
    9
 10
62.95112702188294
 20
68.057870853930751
 11
63.658233803050507
 21
68.764977635098205
  0
LINE
  8
ADD_LINE
  6
DOT
 62
    9
 10
62.244020240677173
 20
68.764977635098205
 11
62.95112702186384
 21
68.057870853911538
  0
LINE
  8
_0-1_
  6
CENTER1
 62
  152
 10
62.95112702188294
 20
58.491614547350025
 11
62.95112702188294
 21
73.72960707494849
  0
ENDSEC
  0
EOF
