  0
SECTION
  2
HEADER
  9
$ACADVER
  1
AC1009
  9
$INSBASE
 10
0
 20
0
 30
0
  9
$EXTMIN
 10
0
 20
0
  9
$EXTMAX
 10
1189
 20
841
  9
$LIMMIN
 10
0
 20
0
  9
$LIMMAX
 10
1189
 20
841
  9
$LTSCALE
 40
1
  0
ENDSEC
  0
SECTION
  2
TABLES
  0
TABLE
  2
LTYPE
 70
     9
  0
LTYPE
  2
CONTINUOUS
 70
    64
  3
実線
 72
    65
 73
     0
 40
0.0
  0
LTYPE
  2
DASHED1
 70
    64
  3
--  --  --  --  --  --  --  --  
 72
    65
 73
     2
 40
2.5
 49
1.25
 49
-1.25
  0
LTYPE
  2
DASHED2
 70
    64
  3
----    ----    ----    ----    
 72
    65
 73
     2
 40
5.0
 49
2.5
 49
-2.5
  0
LTYPE
  2
DASHED3
 70
    64
  3
------  ------  ------  ------  
 72
    65
 73
     2
 40
5.0
 49
3.75
 49
-1.25
  0
LTYPE
  2
CENTER1
 70
    64
  3
----- - ----- - ----- - ----- - 
 72
    65
 73
     4
 40
10.0
 49
6.25
 49
-1.25
 49
1.25
 49
-1.25
  0
LTYPE
  2
CENTER2
 70
    64
  3
----------  --  ----------  --  
 72
    65
 73
     4
 40
20.0
 49
12.5
 49
-2.5
 49
2.5
 49
-2.5
  0
LTYPE
  2
PHANTOM1
 70
    64
  3
--- - - --- - - --- - - --- - - 
 72
    65
 73
     6
 40
10.0
 49
3.25
 49
-1.25
 49
1.25
 49
-1.25
 49
1.25
 49
-1.25
  0
LTYPE
  2
PHANTOM2
 70
    64
  3
--------  -  -  --------  -  -  
 72
    65
 73
     6
 40
20.0
 49
10.0
 49
-2.5
 49
1.25
 49
-2.5
 49
1.25
 49
-2.5
  0
LTYPE
  2
DOT
 70
    64
  3
-   -   -   -   -   -   -   -   
 72
    65
 73
     2
 40
2.5
 49
0.625
 49
-1.875
  0
LTYPE
  2
DUMMY
 70
    64
  3
ダミー
 72
    65
 73
     0
 40
0.0
  0
LTYPE
  2
RAND1
 70
    64
  3
ランダム線1
 72
    65
 73
     4
 40
10.0
 49
1.0
 49
-2.0
 49
3.0
 49
-4.0
  0
LTYPE
  2
RAND2
 70
    64
  3
ランダム線2
 72
    65
 73
     4
 40
14.0
 49
2.0
 49
-3.0
 49
4.0
 49
-5.0
  0
LTYPE
  2
RAND3
 70
    64
  3
ランダム線3
 72
    65
 73
     4
 40
18.0
 49
3.0
 49
-4.0
 49
5.0
 49
-6.0
  0
LTYPE
  2
RAND4
 70
    64
  3
ランダム線4
 72
    65
 73
     4
 40
22.0
 49
4.0
 49
-5.0
 49
6.0
 49
-7.0
  0
LTYPE
  2
RAND5
 70
    64
  3
ランダム線5
 72
    65
 73
     4
 40
26.0
 49
5.0
 49
-6.0
 49
7.0
 49
-8.0
  0
LTYPE
  2
LONG1
 70
    64
  3
----------  --  ----------  --  
 72
    65
 73
     4
 40
40.0
 49
32.5
 49
-2.5
 49
2.5
 49
-2.5
  0
LTYPE
  2
LONG2
 70
    64
  3
--------  -  -  --------  -  -  
 72
    65
 73
     6
 40
40.0
 49
30.0
 49
-2.5
 49
1.25
 49
-2.5
 49
1.25
 49
-2.5
  0
LTYPE
  2
LONG3
 70
    64
  3
+++++++++++++++..+++++++++++++++
 72
    65
 73
     2
 40
40.0
 49
37.5
 49
-2.5
  0
LTYPE
  2
LONG4
 70
    64
  3
+++++++++++++++..+++++++++++++++
 72
    65
 73
     2
 40
80.0
 49
75.0
 49
-5.0
  0
LTYPE
  2
LONG5
 70
    64
  3
----------  --  ----------  --  
 72
    65
 73
     4
 40
60.0
 49
37.5
 49
-7.5
 49
7.5
 49
-7.5
  0
LTYPE
  2
dashed
 70
   64
  3
-------   -------------   ------
 72
   65
 73
    2
 40
7.5
 49
6
 49
-1.5
  0
LTYPE
  2
dashed_spaced
 70
   64
  3
----        --------        ----
 72
   65
 73
    2
 40
12
 49
6
 49
-6
  0
LTYPE
  2
long_dashed_dotted
 70
   64
  3
------------- --- --------------
 72
   65
 73
    4
 40
15.25
 49
12
 49
-1.5
 49
0.25
 49
-1.5
  0
LTYPE
  2
long_dashed_double-dotted
 70
   64
  3
----------- --- --- ------------
 72
   65
 73
    6
 40
17
 49
12
 49
-1.5
 49
0.25
 49
-1.5
 49
0.25
 49
-1.5
  0
LTYPE
  2
long_dashed_triplicate-dotted
 70
   64
  3
--------- --- --- --- ----------
 72
   65
 73
    8
 40
18.75
 49
12
 49
-1.5
 49
0.25
 49
-1.5
 49
0.25
 49
-1.5
 49
0.25
 49
-1.5
  0
LTYPE
  2
dotted
 70
   64
  3
   -       -       -       -    
 72
   65
 73
    2
 40
1.75
 49
0.25
 49
-1.5
  0
LTYPE
  2
chain
 70
   64
  3
-------------- -- --------------
 72
   65
 73
    4
 40
18.5
 49
12
 49
-1.5
 49
3.5
 49
-1.5
  0
LTYPE
  2
chain_double_dash
 70
   64
  3
------------ -- -- -------------
 72
   65
 73
    6
 40
23.5
 49
12
 49
-1.5
 49
3.5
 49
-1.5
 49
3.5
 49
-1.5
  0
LTYPE
  2
dashed_dotted
 70
   64
  3
-----------     -     ----------
 72
   65
 73
    4
 40
9.25
 49
6
 49
-1.5
 49
0.25
 49
-1.5
  0
LTYPE
  2
double-dashed_dotted
 70
   64
  3
------   -----------   -   -----
 72
   65
 73
    6
 40
16.75
 49
6
 49
-1.5
 49
6
 49
-1.5
 49
0.25
 49
-1.5
  0
LTYPE
  2
dashed_double-dotted
 70
   64
  3
---------    -    -    ---------
 72
   65
 73
    6
 40
11
 49
6
 49
-1.5
 49
0.25
 49
-1.5
 49
0.25
 49
-1.5
  0
LTYPE
  2
double-dashed_double-dotted
 70
   64
  3
-----   ---------   -   -   ----
 72
   65
 73
    8
 40
18.5
 49
6
 49
-1.5
 49
6
 49
-1.5
 49
0.25
 49
-1.5
 49
0.25
 49
-1.5
  0
LTYPE
  2
dashed_triplicate-dotted
 70
   64
  3
-------    -    -    -    ------
 72
   65
 73
    8
 40
12.75
 49
6
 49
-1.5
 49
0.25
 49
-1.5
 49
0.25
 49
-1.5
 49
0.25
 49
-1.5
  0
LTYPE
  2
double-dashed_triplicate-dotted
 70
   64
  3
-----  ---------  -  -  -  -----
 72
   65
 73
   10
 40
20.25
 49
6
 49
-1.5
 49
6
 49
-1.5
 49
0.25
 49
-1.5
 49
0.25
 49
-1.5
 49
0.25
 49
-1.5
  0
LTYPE
  2
undefined
 70
   64
  3
--------------------------------
 72
   65
 73
    0
 40
0
  0
ENDTAB
  0
TABLE
  2
STYLE
  5
3
100
AcDbSymbolTable
 70
     1
  0
STYLE
  5
10
100
AcDbSymbolTableRecord
100
AcDbTextStyleTableRecord
  2
STANDARD
 70
     0
 40
0.0
 41
1.0
 50
0.0
 71
     0
 42
0.2
  3
txt
  4
bigfont.shx
  0
STYLE
  5
26
100
AcDbSymbolTableRecord
100
AcDbTextStyleTableRecord
  2
TATEGAKI
 70
    68
 40
0.0
 41
1.0
 50
0.0
 71
     0
 42
1.0
  3
txt
  4
bigfont.shx
  0
ENDTAB
  0
TABLE
  2
LAYER
 70
    4
  0
LAYER
  2
_0-0_
 70
   64
 62
    7
  6
CONTINUOUS
  0
LAYER
  2
_0-1_
 70
   64
 62
    7
  6
CONTINUOUS
  0
LAYER
  2
_0-f_
 70
   64
 62
    7
  6
CONTINUOUS
  0
LAYER
  2
ADD_LINE
 70
   64
 62
    7
  6
CONTINUOUS
  0
ENDTAB
  0
ENDSEC
  0
SECTION
  2
BLOCKS
  0
ENDSEC
  0
SECTION
  2
ENTITIES
  0
TEXT
  8
_0-f_
 62
    7
 10
1.3057125138067249
 20
1.5854705777195477
 40
4.2999999999999998
 41
0.744186046511628
 50
0
  1
F66S,F66SB
  0
LINE
  8
_0-0_
  6
CONTINUOUS
 62
    7
 10
3.8053929395068735
 20
69.193010466560224
 11
16.705392939506964
 21
69.193010466560224
  0
LINE
  8
_0-0_
  6
CONTINUOUS
 62
    7
 10
17.205392939506964
 20
68.693010466560224
 11
17.205392939506964
 21
66.911044455310218
  0
LINE
  8
_0-0_
  6
CONTINUOUS
 62
    7
 10
17.152606535006726
 20
66.68743765756011
 11
16.743589540632001
 21
65.869403668810207
  0
LINE
  8
_0-0_
  6
CONTINUOUS
 62
    7
 10
16.29637594513224
 20
65.593010466560315
 11
14.805392939506874
 21
65.593010466560315
  0
LINE
  8
_0-0_
  6
CONTINUOUS
 62
    7
 10
14.305392939506874
 20
65.093010466560315
 11
14.305392939506874
 21
60.400117247746891
  0
LINE
  8
_0-0_
  6
CONTINUOUS
 62
    7
 10
14.45183954891354
 20
60.046563857153558
 11
15.158946330100207
 21
59.339457075966891
  0
LINE
  8
_0-0_
  6
CONTINUOUS
 62
    7
 10
15.51249972069354
 20
59.193010466560224
 11
21.132187858750058
 21
59.193010466560224
  0
LINE
  8
_0-0_
  6
CONTINUOUS
 62
    7
 10
21.382187858750058
 20
59.126023168452491
 11
22.055392939506874
 21
58.737348033857586
  0
LINE
  8
_0-0_
  6
CONTINUOUS
 62
    7
 10
22.555392939506874
 20
58.737348033857586
 11
23.228598020263689
 21
59.126023168452491
  0
LINE
  8
_0-0_
  6
CONTINUOUS
 62
    7
 10
23.478598020263689
 20
59.193010466560224
 11
29.098286158320207
 21
59.193010466560224
  0
LINE
  8
_0-0_
  6
CONTINUOUS
 62
    7
 10
29.45183954891354
 20
59.339457075966891
 11
30.158946330100207
 21
60.046563857153558
  0
LINE
  8
_0-0_
  6
CONTINUOUS
 62
    7
 10
30.305392939506874
 20
60.400117247746891
 11
30.305392939506874
 21
65.093010466560315
  0
LINE
  8
_0-0_
  6
CONTINUOUS
 62
    7
 10
29.805392939506874
 20
65.593010466560315
 11
28.314409933881507
 21
65.593010466560315
  0
LINE
  8
_0-0_
  6
CONTINUOUS
 62
    7
 10
27.867196338381746
 20
65.869403668810207
 11
27.458179344007021
 21
66.68743765756011
  0
LINE
  8
_0-0_
  6
CONTINUOUS
 62
    7
 10
27.405392939506783
 20
66.911044455310218
 11
27.405392939506783
 21
68.693010466560224
  0
LINE
  8
_0-0_
  6
CONTINUOUS
 62
    7
 10
27.905392939506783
 20
69.193010466560224
 11
36.705392939506964
 21
69.193010466560224
  0
LINE
  8
_0-0_
  6
CONTINUOUS
 62
    7
 10
37.205392939506964
 20
68.693010466560224
 11
37.205392939506964
 21
66.911044455310218
  0
LINE
  8
_0-0_
  6
CONTINUOUS
 62
    7
 10
37.152606535006726
 20
66.68743765756011
 11
36.743589540632001
 21
65.869403668810207
  0
LINE
  8
_0-0_
  6
CONTINUOUS
 62
    7
 10
36.29637594513224
 20
65.593010466560315
 11
34.805392939506874
 21
65.593010466560315
  0
LINE
  8
_0-0_
  6
CONTINUOUS
 62
    7
 10
34.305392939506874
 20
65.093010466560315
 11
34.305392939506874
 21
60.400117247746891
  0
LINE
  8
_0-0_
  6
CONTINUOUS
 62
    7
 10
34.45183954891354
 20
60.046563857153558
 11
35.158946330100207
 21
59.339457075966891
  0
LINE
  8
_0-0_
  6
CONTINUOUS
 62
    7
 10
35.51249972069354
 20
59.193010466560224
 11
41.132187858750058
 21
59.193010466560224
  0
LINE
  8
_0-0_
  6
CONTINUOUS
 62
    7
 10
41.382187858750058
 20
59.126023168452491
 11
42.055392939506874
 21
58.737348033857586
  0
LINE
  8
_0-0_
  6
CONTINUOUS
 62
    7
 10
42.555392939506874
 20
58.737348033857586
 11
43.228598020263689
 21
59.126023168452491
  0
LINE
  8
_0-0_
  6
CONTINUOUS
 62
    7
 10
43.478598020263689
 20
59.193010466560224
 11
49.098286158320207
 21
59.193010466560224
  0
LINE
  8
_0-0_
  6
CONTINUOUS
 62
    7
 10
49.45183954891354
 20
59.339457075966891
 11
50.158946330100207
 21
60.046563857153558
  0
LINE
  8
_0-0_
  6
CONTINUOUS
 62
    7
 10
50.305392939506874
 20
60.400117247746891
 11
50.305392939506874
 21
65.093010466560315
  0
LINE
  8
_0-0_
  6
CONTINUOUS
 62
    7
 10
49.805392939506874
 20
65.593010466560315
 11
48.314409933881507
 21
65.593010466560315
  0
LINE
  8
_0-0_
  6
CONTINUOUS
 62
    7
 10
47.867196338381746
 20
65.869403668810207
 11
47.458179344007021
 21
66.68743765756011
  0
LINE
  8
_0-0_
  6
CONTINUOUS
 62
    7
 10
47.405392939506783
 20
66.911044455310218
 11
47.405392939506783
 21
68.693010466560224
  0
LINE
  8
_0-0_
  6
CONTINUOUS
 62
    7
 10
47.905392939506783
 20
69.193010466560224
 11
60.805392939506874
 21
69.193010466560224
  0
LINE
  8
_0-0_
  6
CONTINUOUS
 62
    7
 10
62.305392939506874
 20
67.693010466560224
 11
62.305392939506874
 21
54.793010466560133
  0
LINE
  8
_0-0_
  6
CONTINUOUS
 62
    7
 10
61.805392939506874
 20
54.293010466560133
 11
60.023426928256868
 21
54.293010466560133
  0
LINE
  8
_0-0_
  6
CONTINUOUS
 62
    7
 10
59.79982013050676
 20
54.345796871060372
 11
58.981786141756857
 21
54.754813865435096
  0
LINE
  8
_0-0_
  6
CONTINUOUS
 62
    7
 10
58.705392939506964
 20
55.202027460934858
 11
58.705392939506964
 21
56.693010466560224
  0
LINE
  8
_0-0_
  6
CONTINUOUS
 62
    7
 10
58.205392939506964
 20
57.193010466560224
 11
53.51249972069354
 21
57.193010466560224
  0
LINE
  8
_0-0_
  6
CONTINUOUS
 62
    7
 10
53.158946330100207
 20
57.046563857153558
 11
52.45183954891354
 21
56.339457075966891
  0
LINE
  8
_0-0_
  6
CONTINUOUS
 62
    7
 10
52.305392939506874
 20
55.985903685373557
 11
52.305392939506874
 21
42.400117247746891
  0
LINE
  8
_0-0_
  6
CONTINUOUS
 62
    7
 10
52.45183954891354
 20
42.046563857153558
 11
53.158946330100207
 21
41.339457075966891
  0
LINE
  8
_0-0_
  6
CONTINUOUS
 62
    7
 10
53.51249972069354
 20
41.193010466560224
 11
58.205392939506964
 21
41.193010466560224
  0
LINE
  8
_0-0_
  6
CONTINUOUS
 62
    7
 10
58.705392939506964
 20
41.693010466560224
 11
58.705392939506964
 21
43.183993472185591
  0
LINE
  8
_0-0_
  6
CONTINUOUS
 62
    7
 10
58.981786141756857
 20
43.631207067685352
 11
59.79982013050676
 21
44.040224062060076
  0
LINE
  8
_0-0_
  6
CONTINUOUS
 62
    7
 10
60.023426928256868
 20
44.093010466560315
 11
61.805392939506874
 21
44.093010466560315
  0
LINE
  8
_0-0_
  6
CONTINUOUS
 62
    7
 10
62.305392939506874
 20
43.593010466560315
 11
62.305392939506874
 21
34.793010466560133
  0
LINE
  8
_0-0_
  6
CONTINUOUS
 62
    7
 10
61.805392939506874
 20
34.293010466560133
 11
60.023426928256868
 21
34.293010466560133
  0
LINE
  8
_0-0_
  6
CONTINUOUS
 62
    7
 10
59.79982013050676
 20
34.345796871060372
 11
58.981786141756857
 21
34.754813865435096
  0
LINE
  8
_0-0_
  6
CONTINUOUS
 62
    7
 10
58.705392939506964
 20
35.202027460934858
 11
58.705392939506964
 21
36.693010466560224
  0
LINE
  8
_0-0_
  6
CONTINUOUS
 62
    7
 10
58.205392939506964
 20
37.193010466560224
 11
53.51249972069354
 21
37.193010466560224
  0
LINE
  8
_0-0_
  6
CONTINUOUS
 62
    7
 10
53.158946330100207
 20
37.046563857153558
 11
52.45183954891354
 21
36.339457075966891
  0
LINE
  8
_0-0_
  6
CONTINUOUS
 62
    7
 10
52.305392939506874
 20
35.985903685373557
 11
52.305392939506874
 21
22.400117247746891
  0
LINE
  8
_0-0_
  6
CONTINUOUS
 62
    7
 10
52.45183954891354
 20
22.046563857153558
 11
53.158946330100207
 21
21.339457075966891
  0
LINE
  8
_0-0_
  6
CONTINUOUS
 62
    7
 10
53.51249972069354
 20
21.193010466560224
 11
58.205392939506964
 21
21.193010466560224
  0
LINE
  8
_0-0_
  6
CONTINUOUS
 62
    7
 10
58.705392939506964
 20
21.693010466560224
 11
58.705392939506964
 21
23.183993472185591
  0
LINE
  8
_0-0_
  6
CONTINUOUS
 62
    7
 10
58.981786141756857
 20
23.631207067685352
 11
59.79982013050676
 21
24.040224062060076
  0
LINE
  8
_0-0_
  6
CONTINUOUS
 62
    7
 10
60.023426928256868
 20
24.093010466560315
 11
61.805392939506874
 21
24.093010466560315
  0
LINE
  8
_0-0_
  6
CONTINUOUS
 62
    7
 10
62.305392939506874
 20
23.593010466560315
 11
62.305392939506874
 21
10.693010466560224
  0
LINE
  8
_0-0_
  6
CONTINUOUS
 62
    7
 10
60.805392939506874
 20
9.1930104665602244
 11
47.905392939506783
 21
9.1930104665602244
  0
LINE
  8
_0-0_
  6
CONTINUOUS
 62
    7
 10
47.405392939506783
 20
9.6930104665602244
 11
47.405392939506783
 21
11.47497647781023
  0
LINE
  8
_0-0_
  6
CONTINUOUS
 62
    7
 10
47.458179344007021
 20
11.698583275560338
 11
47.867196338381746
 21
12.516617264310241
  0
LINE
  8
_0-0_
  6
CONTINUOUS
 62
    7
 10
48.314409933881507
 20
12.793010466560133
 11
49.805392939506874
 21
12.793010466560133
  0
LINE
  8
_0-0_
  6
CONTINUOUS
 62
    7
 10
50.305392939506874
 20
13.293010466560133
 11
50.305392939506874
 21
17.985903685373557
  0
LINE
  8
_0-0_
  6
CONTINUOUS
 62
    7
 10
50.158946330100207
 20
18.339457075966891
 11
49.45183954891354
 21
19.046563857153558
  0
LINE
  8
_0-0_
  6
CONTINUOUS
 62
    7
 10
49.098286158320207
 20
19.193010466560224
 11
43.478598020263689
 21
19.193010466560224
  0
LINE
  8
_0-0_
  6
CONTINUOUS
 62
    7
 10
43.228598020263689
 20
19.259997764667958
 11
42.555392939506874
 21
19.648672899262635
  0
LINE
  8
_0-0_
  6
CONTINUOUS
 62
    7
 10
42.055392939506874
 20
19.648672899262635
 11
41.382187858750058
 21
19.259997764667958
  0
LINE
  8
_0-0_
  6
CONTINUOUS
 62
    7
 10
41.132187858750058
 20
19.193010466560224
 11
35.51249972069354
 21
19.193010466560224
  0
LINE
  8
_0-0_
  6
CONTINUOUS
 62
    7
 10
35.158946330100207
 20
19.046563857153558
 11
34.45183954891354
 21
18.339457075966891
  0
LINE
  8
_0-0_
  6
CONTINUOUS
 62
    7
 10
34.305392939506874
 20
17.985903685373557
 11
34.305392939506874
 21
13.293010466560133
  0
LINE
  8
_0-0_
  6
CONTINUOUS
 62
    7
 10
34.805392939506874
 20
12.793010466560133
 11
36.29637594513224
 21
12.793010466560133
  0
LINE
  8
_0-0_
  6
CONTINUOUS
 62
    7
 10
36.743589540632001
 20
12.516617264310241
 11
37.152606535006726
 21
11.698583275560338
  0
LINE
  8
_0-0_
  6
CONTINUOUS
 62
    7
 10
37.205392939506964
 20
11.47497647781023
 11
37.205392939506964
 21
9.6930104665602244
  0
LINE
  8
_0-0_
  6
CONTINUOUS
 62
    7
 10
36.705392939506964
 20
9.1930104665602244
 11
27.905392939506783
 21
9.1930104665602244
  0
LINE
  8
_0-0_
  6
CONTINUOUS
 62
    7
 10
27.405392939506783
 20
9.6930104665602244
 11
27.405392939506783
 21
11.47497647781023
  0
LINE
  8
_0-0_
  6
CONTINUOUS
 62
    7
 10
27.458179344007021
 20
11.698583275560338
 11
27.867196338381746
 21
12.516617264310241
  0
LINE
  8
_0-0_
  6
CONTINUOUS
 62
    7
 10
28.314409933881507
 20
12.793010466560133
 11
29.805392939506874
 21
12.793010466560133
  0
LINE
  8
_0-0_
  6
CONTINUOUS
 62
    7
 10
30.305392939506874
 20
13.293010466560133
 11
30.305392939506874
 21
17.985903685373557
  0
LINE
  8
_0-0_
  6
CONTINUOUS
 62
    7
 10
30.158946330100207
 20
18.339457075966891
 11
29.45183954891354
 21
19.046563857153558
  0
LINE
  8
_0-0_
  6
CONTINUOUS
 62
    7
 10
29.098286158320207
 20
19.193010466560224
 11
23.478598020263689
 21
19.193010466560224
  0
LINE
  8
_0-0_
  6
CONTINUOUS
 62
    7
 10
23.228598020263689
 20
19.259997764667958
 11
22.555392939506874
 21
19.648672899262635
  0
LINE
  8
_0-0_
  6
CONTINUOUS
 62
    7
 10
22.055392939506874
 20
19.648672899262635
 11
21.382187858750058
 21
19.259997764667958
  0
LINE
  8
_0-0_
  6
CONTINUOUS
 62
    7
 10
21.132187858750058
 20
19.193010466560224
 11
15.51249972069354
 21
19.193010466560224
  0
LINE
  8
_0-0_
  6
CONTINUOUS
 62
    7
 10
15.158946330100207
 20
19.046563857153558
 11
14.45183954891354
 21
18.339457075966891
  0
LINE
  8
_0-0_
  6
CONTINUOUS
 62
    7
 10
14.305392939506874
 20
17.985903685373557
 11
14.305392939506874
 21
13.293010466560133
  0
LINE
  8
_0-0_
  6
CONTINUOUS
 62
    7
 10
14.805392939506874
 20
12.793010466560133
 11
16.29637594513224
 21
12.793010466560133
  0
LINE
  8
_0-0_
  6
CONTINUOUS
 62
    7
 10
16.743589540632001
 20
12.516617264310241
 11
17.152606535006726
 21
11.698583275560338
  0
LINE
  8
_0-0_
  6
CONTINUOUS
 62
    7
 10
17.205392939506964
 20
11.47497647781023
 11
17.205392939506964
 21
9.6930104665602244
  0
LINE
  8
_0-0_
  6
CONTINUOUS
 62
    7
 10
16.705392939506964
 20
9.1930104665602244
 11
3.8053929395068735
 21
9.1930104665602244
  0
LINE
  8
_0-0_
  6
CONTINUOUS
 62
    7
 10
2.3053929395068735
 20
10.693010466560224
 11
2.3053929395068735
 21
23.593010466560315
  0
LINE
  8
_0-0_
  6
CONTINUOUS
 62
    7
 10
2.8053929395068735
 20
24.093010466560315
 11
4.5873589507568795
 21
24.093010466560315
  0
LINE
  8
_0-0_
  6
CONTINUOUS
 62
    7
 10
4.8109657485069874
 20
24.040224062060076
 11
5.6289997372568905
 21
23.631207067685352
  0
LINE
  8
_0-0_
  6
CONTINUOUS
 62
    7
 10
5.9053929395067826
 20
23.183993472185591
 11
5.9053929395067826
 21
21.693010466560224
  0
LINE
  8
_0-0_
  6
CONTINUOUS
 62
    7
 10
6.4053929395067826
 20
21.193010466560224
 11
11.098286158320207
 21
21.193010466560224
  0
LINE
  8
_0-0_
  6
CONTINUOUS
 62
    7
 10
11.45183954891354
 20
21.339457075966891
 11
12.158946330100207
 21
22.046563857153558
  0
LINE
  8
_0-0_
  6
CONTINUOUS
 62
    7
 10
12.305392939506874
 20
22.400117247746891
 11
12.305392939506874
 21
35.985903685373557
  0
LINE
  8
_0-0_
  6
CONTINUOUS
 62
    7
 10
12.158946330100207
 20
36.339457075966891
 11
11.45183954891354
 21
37.046563857153558
  0
LINE
  8
_0-0_
  6
CONTINUOUS
 62
    7
 10
11.098286158320207
 20
37.193010466560224
 11
6.4053929395067826
 21
37.193010466560224
  0
LINE
  8
_0-0_
  6
CONTINUOUS
 62
    7
 10
5.9053929395067826
 20
36.693010466560224
 11
5.9053929395067826
 21
35.202027460934858
  0
LINE
  8
_0-0_
  6
CONTINUOUS
 62
    7
 10
5.6289997372568905
 20
34.754813865435096
 11
4.8109657485069874
 21
34.345796871060372
  0
LINE
  8
_0-0_
  6
CONTINUOUS
 62
    7
 10
4.5873589507568795
 20
34.293010466560133
 11
2.8053929395068735
 21
34.293010466560133
  0
LINE
  8
_0-0_
  6
CONTINUOUS
 62
    7
 10
2.3053929395068735
 20
34.793010466560133
 11
2.3053929395068735
 21
43.593010466560315
  0
LINE
  8
_0-0_
  6
CONTINUOUS
 62
    7
 10
2.8053929395068735
 20
44.093010466560315
 11
4.5873589507568795
 21
44.093010466560315
  0
LINE
  8
_0-0_
  6
CONTINUOUS
 62
    7
 10
4.8109657485069874
 20
44.040224062060076
 11
5.6289997372568905
 21
43.631207067685352
  0
LINE
  8
_0-0_
  6
CONTINUOUS
 62
    7
 10
5.9053929395067826
 20
43.183993472185591
 11
5.9053929395067826
 21
41.693010466560224
  0
LINE
  8
_0-0_
  6
CONTINUOUS
 62
    7
 10
6.4053929395067826
 20
41.193010466560224
 11
11.098286158320207
 21
41.193010466560224
  0
LINE
  8
_0-0_
  6
CONTINUOUS
 62
    7
 10
11.45183954891354
 20
41.339457075966891
 11
12.158946330100207
 21
42.046563857153558
  0
LINE
  8
_0-0_
  6
CONTINUOUS
 62
    7
 10
12.305392939506874
 20
42.400117247746891
 11
12.305392939506874
 21
55.985903685373557
  0
LINE
  8
_0-0_
  6
CONTINUOUS
 62
    7
 10
12.158946330100207
 20
56.339457075966891
 11
11.45183954891354
 21
57.046563857153558
  0
LINE
  8
_0-0_
  6
CONTINUOUS
 62
    7
 10
11.098286158320207
 20
57.193010466560224
 11
6.4053929395067826
 21
57.193010466560224
  0
LINE
  8
_0-0_
  6
CONTINUOUS
 62
    7
 10
5.9053929395067826
 20
56.693010466560224
 11
5.9053929395067826
 21
55.202027460934858
  0
LINE
  8
_0-0_
  6
CONTINUOUS
 62
    7
 10
5.6289997372568905
 20
54.754813865435096
 11
4.8109657485069874
 21
54.345796871060372
  0
LINE
  8
_0-0_
  6
CONTINUOUS
 62
    7
 10
4.5873589507568795
 20
54.293010466560133
 11
2.8053929395068735
 21
54.293010466560133
  0
LINE
  8
_0-0_
  6
CONTINUOUS
 62
    7
 10
2.3053929395068735
 20
54.793010466560133
 11
2.3053929395068735
 21
67.693010466560224
  0
LINE
  8
_0-0_
  6
CONTINUOUS
 62
    7
 10
3.9657003187212467
 20
66.250990323234589
 11
4.4133414288562562
 21
65.021106481118238
  0
LINE
  8
_0-0_
  6
CONTINUOUS
 62
    7
 10
5.2474130828327361
 20
67.532703087346079
 11
6.4772969249488597
 21
67.085061977210842
  0
LINE
  8
_0-0_
  6
CONTINUOUS
 62
    7
 10
10.133488954064887
 20
67.085061977210842
 11
11.363372796181466
 21
67.532703087346079
  0
LINE
  8
_0-0_
  6
CONTINUOUS
 62
    7
 10
12.645085560292955
 20
66.250990323234589
 11
12.197444450157491
 21
65.021106481118238
  0
LINE
  8
_0-0_
  6
CONTINUOUS
 62
    7
 10
12.197444450157491
 20
61.364914452002211
 11
12.645085560292955
 21
60.13503060988586
  0
LINE
  8
_0-0_
  6
CONTINUOUS
 62
    7
 10
11.363372796181466
 20
58.85331784577437
 11
10.133488954064887
 21
59.300958955909607
  0
LINE
  8
_0-0_
  6
CONTINUOUS
 62
    7
 10
6.4772969249488597
 20
59.300958955909607
 11
5.2474130828327361
 21
58.853317845774143
  0
LINE
  8
_0-0_
  6
CONTINUOUS
 62
    7
 10
3.9657003187212467
 20
60.13503060988586
 11
4.4133414288562562
 21
61.364914452002211
  0
LINE
  8
_0-0_
  6
CONTINUOUS
 62
    7
 10
14.805392939506874
 20
57.193010466560224
 11
17.854052021970801
 21
57.193010466560224
  0
LINE
  8
_0-0_
  6
CONTINUOUS
 62
    7
 10
18.351442741276514
 20
56.744024899309522
 11
18.659343137737778
 21
53.741996033810835
  0
LINE
  8
_0-0_
  6
CONTINUOUS
 62
    7
 10
19.156733857043491
 20
53.293010466560133
 11
19.906955948464656
 21
53.293010466560133
  0
LINE
  8
_0-0_
  6
CONTINUOUS
 62
    7
 10
24.703829930549546
 20
53.293010466560133
 11
25.45405202197071
 21
53.293010466560133
  0
LINE
  8
_0-0_
  6
CONTINUOUS
 62
    7
 10
25.951442741275969
 20
53.741996033810835
 11
26.259343137737687
 21
56.744024899309522
  0
LINE
  8
_0-0_
  6
CONTINUOUS
 62
    7
 10
26.7567338570434
 20
57.193010466560224
 11
37.854052021970801
 21
57.193010466560224
  0
LINE
  8
_0-0_
  6
CONTINUOUS
 62
    7
 10
38.351442741276514
 20
56.744024899309522
 11
38.659343137737778
 21
53.741996033810835
  0
LINE
  8
_0-0_
  6
CONTINUOUS
 62
    7
 10
39.156733857043491
 20
53.293010466560133
 11
39.906955948464656
 21
53.293010466560133
  0
LINE
  8
_0-0_
  6
CONTINUOUS
 62
    7
 10
14.305392939506874
 20
56.693010466560224
 11
14.305392939506874
 21
40.693010466560224
  0
LINE
  8
_0-0_
  6
CONTINUOUS
 62
    7
 10
14.805392939506874
 20
40.193010466560224
 11
17.844546059781351
 21
40.193010466560224
  0
LINE
  8
_0-0_
  6
CONTINUOUS
 62
    7
 10
18.342888367692467
 20
40.652329461832721
 11
18.667897511321826
 21
44.633691471287818
  0
LINE
  8
_0-0_
  6
CONTINUOUS
 62
    7
 10
19.166239819232942
 20
45.093010466560315
 11
19.906955948464656
 21
45.093010466560315
  0
LINE
  8
_0-0_
  6
CONTINUOUS
 62
    7
 10
24.703829930549546
 20
45.093010466560315
 11
25.444546059780805
 21
45.093010466560315
  0
LINE
  8
_0-0_
  6
CONTINUOUS
 62
    7
 10
25.942888367692376
 20
44.633691471287818
 11
26.26789751132128
 21
40.652329461832721
  0
LINE
  8
_0-0_
  6
CONTINUOUS
 62
    7
 10
26.766239819232851
 20
40.193010466560224
 11
37.844546059781351
 21
40.193010466560224
  0
LINE
  8
_0-0_
  6
CONTINUOUS
 62
    7
 10
38.342888367692467
 20
40.652329461832721
 11
38.667897511321826
 21
44.633691471287818
  0
LINE
  8
_0-0_
  6
CONTINUOUS
 62
    7
 10
39.166239819232942
 20
45.093010466560315
 11
39.906955948464656
 21
45.093010466560315
  0
LINE
  8
_0-0_
  6
CONTINUOUS
 62
    7
 10
44.703829930549546
 20
45.093010466560315
 11
45.444546059780805
 21
45.093010466560315
  0
LINE
  8
_0-0_
  6
CONTINUOUS
 62
    7
 10
45.942888367692376
 20
44.633691471287818
 11
46.26789751132128
 21
40.652329461832721
  0
LINE
  8
_0-0_
  6
CONTINUOUS
 62
    7
 10
46.766239819232851
 20
40.193010466560224
 11
49.805392939506874
 21
40.193010466560224
  0
LINE
  8
_0-0_
  6
CONTINUOUS
 62
    7
 10
50.305392939506874
 20
40.693010466560224
 11
50.305392939506874
 21
56.693010466560224
  0
LINE
  8
_0-0_
  6
CONTINUOUS
 62
    7
 10
49.805392939506874
 20
57.193010466560224
 11
46.7567338570434
 21
57.193010466560224
  0
LINE
  8
_0-0_
  6
CONTINUOUS
 62
    7
 10
46.259343137737687
 20
56.744024899309522
 11
45.951442741275969
 21
53.741996033810835
  0
LINE
  8
_0-0_
  6
CONTINUOUS
 62
    7
 10
45.45405202197071
 20
53.293010466560133
 11
44.703829930549546
 21
53.293010466560133
  0
LINE
  8
_0-0_
  6
CONTINUOUS
 62
    7
 10
53.247413082832736
 20
10.853317845774143
 11
54.477296924949314
 21
11.300958955909607
  0
LINE
  8
_0-0_
  6
CONTINUOUS
 62
    7
 10
51.965700318721247
 20
12.13503060988586
 11
52.413341428856256
 21
13.364914452002211
  0
LINE
  8
_0-0_
  6
CONTINUOUS
 62
    7
 10
52.413341428856256
 20
17.021106481118238
 11
51.965700318721247
 21
18.250990323234589
  0
LINE
  8
_0-0_
  6
CONTINUOUS
 62
    7
 10
53.247413082832736
 20
19.532703087346079
 11
54.477296924949314
 21
19.085061977210842
  0
LINE
  8
_0-0_
  6
CONTINUOUS
 62
    7
 10
58.133488954064887
 20
19.085061977210842
 11
59.363372796181466
 21
19.532703087346079
  0
LINE
  8
_0-0_
  6
CONTINUOUS
 62
    7
 10
60.645085560292955
 20
18.250990323234589
 11
60.197444450157491
 21
17.021106481118238
  0
LINE
  8
_0-0_
  6
CONTINUOUS
 62
    7
 10
60.197444450157491
 20
13.364914452002211
 11
60.645085560292955
 21
12.13503060988586
  0
LINE
  8
_0-0_
  6
CONTINUOUS
 62
    7
 10
59.363372796181466
 20
10.853317845774143
 11
58.133488954064887
 21
11.300958955909607
  0
LINE
  8
_0-0_
  6
CONTINUOUS
 62
    7
 10
50.305392939506874
 20
21.693010466560224
 11
50.305392939506874
 21
37.693010466560224
  0
LINE
  8
_0-0_
  6
CONTINUOUS
 62
    7
 10
49.805392939506874
 20
38.193010466560224
 11
46.766239819232851
 21
38.193010466560224
  0
LINE
  8
_0-0_
  6
CONTINUOUS
 62
    7
 10
46.26789751132128
 20
37.733691471287727
 11
45.942888367692376
 21
33.75232946183263
  0
LINE
  8
_0-0_
  6
CONTINUOUS
 62
    7
 10
45.444546059780805
 20
33.293010466560133
 11
44.703829930549546
 21
33.293010466560133
  0
LINE
  8
_0-0_
  6
CONTINUOUS
 62
    7
 10
39.906955948464656
 20
33.293010466560133
 11
39.166239819232942
 21
33.293010466560133
  0
LINE
  8
_0-0_
  6
CONTINUOUS
 62
    7
 10
38.667897511321826
 20
33.75232946183263
 11
38.342888367692467
 21
37.733691471287727
  0
LINE
  8
_0-0_
  6
CONTINUOUS
 62
    7
 10
37.844546059781351
 20
38.193010466560224
 11
26.766239819232851
 21
38.193010466560224
  0
LINE
  8
_0-0_
  6
CONTINUOUS
 62
    7
 10
26.26789751132128
 20
37.733691471287727
 11
25.942888367692376
 21
33.75232946183263
  0
LINE
  8
_0-0_
  6
CONTINUOUS
 62
    7
 10
25.444546059780805
 20
33.293010466560133
 11
24.703829930549546
 21
33.293010466560133
  0
LINE
  8
_0-0_
  6
CONTINUOUS
 62
    7
 10
19.906955948464656
 20
33.293010466560133
 11
19.166239819232942
 21
33.293010466560133
  0
LINE
  8
_0-0_
  6
CONTINUOUS
 62
    7
 10
18.667897511321826
 20
33.75232946183263
 11
18.342888367692467
 21
37.733691471287727
  0
LINE
  8
_0-0_
  6
CONTINUOUS
 62
    7
 10
17.844546059781351
 20
38.193010466560224
 11
14.805392939506874
 21
38.193010466560224
  0
LINE
  8
_0-0_
  6
CONTINUOUS
 62
    7
 10
14.305392939506874
 20
37.693010466560224
 11
14.305392939506874
 21
21.693010466560224
  0
LINE
  8
_0-0_
  6
CONTINUOUS
 62
    7
 10
14.805392939506874
 20
21.193010466560224
 11
17.854052021970801
 21
21.193010466560224
  0
LINE
  8
_0-0_
  6
CONTINUOUS
 62
    7
 10
18.351442741276514
 20
21.641996033810926
 11
18.659343137737778
 21
24.644024899309613
  0
LINE
  8
_0-0_
  6
CONTINUOUS
 62
    7
 10
19.156733857043491
 20
25.093010466560315
 11
19.906955948464656
 21
25.093010466560315
  0
LINE
  8
_0-0_
  6
CONTINUOUS
 62
    7
 10
24.703829930549546
 20
25.093010466560315
 11
25.45405202197071
 21
25.093010466560315
  0
LINE
  8
_0-0_
  6
CONTINUOUS
 62
    7
 10
25.951442741275969
 20
24.644024899309613
 11
26.259343137737687
 21
21.641996033810926
  0
LINE
  8
_0-0_
  6
CONTINUOUS
 62
    7
 10
26.7567338570434
 20
21.193010466560224
 11
37.854052021970801
 21
21.193010466560224
  0
LINE
  8
_0-0_
  6
CONTINUOUS
 62
    7
 10
38.351442741276514
 20
21.641996033810926
 11
38.659343137737778
 21
24.644024899309613
  0
LINE
  8
_0-0_
  6
CONTINUOUS
 62
    7
 10
39.156733857043491
 20
25.093010466560315
 11
39.906955948464656
 21
25.093010466560315
  0
LINE
  8
_0-0_
  6
CONTINUOUS
 62
    7
 10
44.703829930549546
 20
25.093010466560315
 11
45.45405202197071
 21
25.093010466560315
  0
LINE
  8
_0-0_
  6
CONTINUOUS
 62
    7
 10
45.951442741275969
 20
24.644024899309613
 11
46.259343137737687
 21
21.641996033810926
  0
LINE
  8
_0-0_
  6
CONTINUOUS
 62
    7
 10
46.7567338570434
 20
21.193010466560224
 11
49.805392939506874
 21
21.193010466560224
  0
LINE
  8
_0-0_
  6
CONTINUOUS
 62
    7
 10
60.645085560292955
 20
60.13503060988586
 11
60.197444450157491
 21
61.364914452002211
  0
LINE
  8
_0-0_
  6
CONTINUOUS
 62
    7
 10
59.363372796181466
 20
58.85331784577437
 11
58.133488954064887
 21
59.300958955909607
  0
LINE
  8
_0-0_
  6
CONTINUOUS
 62
    7
 10
54.477296924949314
 20
59.300958955909607
 11
53.247413082832736
 21
58.85331784577437
  0
LINE
  8
_0-0_
  6
CONTINUOUS
 62
    7
 10
51.965700318721247
 20
60.13503060988586
 11
52.413341428856256
 21
61.364914452002211
  0
LINE
  8
_0-0_
  6
CONTINUOUS
 62
    7
 10
52.413341428856256
 20
65.021106481118238
 11
51.965700318721247
 21
66.250990323234589
  0
LINE
  8
_0-0_
  6
CONTINUOUS
 62
    7
 10
53.247413082832736
 20
67.532703087346079
 11
54.477296924949314
 21
67.085061977210842
  0
LINE
  8
_0-0_
  6
CONTINUOUS
 62
    7
 10
58.133488954064887
 20
67.085061977210842
 11
59.363372796181466
 21
67.532703087346079
  0
LINE
  8
_0-0_
  6
CONTINUOUS
 62
    7
 10
60.645085560292955
 20
66.250990323234589
 11
60.197444450157491
 21
65.021106481118238
  0
LINE
  8
_0-0_
  6
CONTINUOUS
 62
    7
 10
11.363372796181466
 20
19.532703087346079
 11
10.133488954064887
 21
19.085061977210842
  0
LINE
  8
_0-0_
  6
CONTINUOUS
 62
    7
 10
12.645085560292955
 20
18.250990323234362
 11
12.197444450157491
 21
17.021106481118238
  0
LINE
  8
_0-0_
  6
CONTINUOUS
 62
    7
 10
12.197444450157491
 20
13.364914452002211
 11
12.645085560292955
 21
12.13503060988586
  0
LINE
  8
_0-0_
  6
CONTINUOUS
 62
    7
 10
11.363372796181466
 20
10.853317845774143
 11
10.133488954064887
 21
11.300958955909607
  0
LINE
  8
_0-0_
  6
CONTINUOUS
 62
    7
 10
6.4772969249493144
 20
11.300958955909607
 11
5.2474130828327361
 21
10.853317845774143
  0
LINE
  8
_0-0_
  6
CONTINUOUS
 62
    7
 10
3.9657003187212467
 20
12.13503060988586
 11
4.4133414288562562
 21
13.364914452002211
  0
LINE
  8
_0-0_
  6
CONTINUOUS
 62
    7
 10
4.4133414288562562
 20
17.021106481118238
 11
3.9657003187212467
 21
18.250990323234362
  0
LINE
  8
_0-0_
  6
CONTINUOUS
 62
    7
 10
5.2474130828327361
 20
19.532703087346079
 11
6.4772969249488597
 21
19.085061977210842
  0
ARC
  8
_0-0_
  6
CONTINUOUS
 62
    7
 10
8.3053929395068735
 20
15.193010466560224
 40
4.2999999999999989
 50
64.840562836470667
 51
115.15943716352942
  0
ARC
  8
_0-0_
  6
CONTINUOUS
 62
    7
 10
21.132187858750058
 20
19.693010466560224
 40
0.5
 50
270
 51
299.99999999999994
  0
ARC
  8
_0-0_
  6
CONTINUOUS
 62
    7
 10
3.8053929395068735
 20
10.693010466560224
 40
1.5
 50
180
 51
270
  0
ARC
  8
_0-0_
  6
CONTINUOUS
 62
    7
 10
29.805392939506874
 20
60.400117247746891
 40
0.5
 50
315
 51
0
  0
ARC
  8
_0-0_
  6
CONTINUOUS
 62
    7
 10
11.805392939506874
 20
55.985903685373557
 40
0.5
 50
0
 51
45
  0
ARC
  8
_0-0_
  6
CONTINUOUS
 62
    7
 10
11.098286158320207
 20
56.693010466560224
 40
0.5
 50
45
 51
90
  0
ARC
  8
_0-0_
  6
CONTINUOUS
 62
    7
 10
6.4053929395067826
 20
56.693010466560224
 40
0.5
 50
90
 51
180
  0
ARC
  8
_0-0_
  6
CONTINUOUS
 62
    7
 10
5.4053929395067826
 20
55.202027460934858
 40
0.5
 50
296.56505117706848
 51
0
  0
ARC
  8
_0-0_
  6
CONTINUOUS
 62
    7
 10
4.5873589507568795
 20
54.793010466560133
 40
0.5
 50
269.99999999999994
 51
296.56505117707792
  0
ARC
  8
_0-0_
  6
CONTINUOUS
 62
    7
 10
2.8053929395068735
 20
54.793010466560133
 40
0.5
 50
180
 51
270
  0
ARC
  8
_0-0_
  6
CONTINUOUS
 62
    7
 10
11.805392939506874
 20
42.400117247746891
 40
0.5
 50
315
 51
0
  0
ARC
  8
_0-0_
  6
CONTINUOUS
 62
    7
 10
11.098286158320207
 20
41.693010466560224
 40
0.5
 50
270
 51
315
  0
ARC
  8
_0-0_
  6
CONTINUOUS
 62
    7
 10
6.4053929395067826
 20
41.693010466560224
 40
0.5
 50
180
 51
270
  0
ARC
  8
_0-0_
  6
CONTINUOUS
 62
    7
 10
5.4053929395067826
 20
43.183993472185591
 40
0.5
 50
0
 51
63.434948822931524
  0
ARC
  8
_0-0_
  6
CONTINUOUS
 62
    7
 10
4.5873589507568795
 20
43.593010466560315
 40
0.5
 50
63.43494882292206
 51
90.000000000000057
  0
ARC
  8
_0-0_
  6
CONTINUOUS
 62
    7
 10
2.8053929395068735
 20
43.593010466560315
 40
0.5
 50
90
 51
180
  0
ARC
  8
_0-0_
  6
CONTINUOUS
 62
    7
 10
29.098286158320207
 20
59.693010466560224
 40
0.5
 50
270
 51
315
  0
ARC
  8
_0-0_
  6
CONTINUOUS
 62
    7
 10
29.805392939506874
 20
65.093010466560315
 40
0.5
 50
0
 51
90
  0
ARC
  8
_0-0_
  6
CONTINUOUS
 62
    7
 10
28.314409933881507
 20
66.093010466560315
 40
0.5
 50
206.56505117706848
 51
270
  0
ARC
  8
_0-0_
  6
CONTINUOUS
 62
    7
 10
27.905392939506783
 20
66.911044455310218
 40
0.5
 50
179.99999999999994
 51
206.56505117707795
  0
ARC
  8
_0-0_
  6
CONTINUOUS
 62
    7
 10
27.905392939506783
 20
68.693010466560224
 40
0.5
 50
89.999999999999986
 51
180
  0
ARC
  8
_0-0_
  6
CONTINUOUS
 62
    7
 10
15.51249972069354
 20
59.693010466560224
 40
0.5
 50
225
 51
270
  0
ARC
  8
_0-0_
  6
CONTINUOUS
 62
    7
 10
14.805392939506874
 20
60.400117247746891
 40
0.5
 50
180
 51
225
  0
ARC
  8
_0-0_
  6
CONTINUOUS
 62
    7
 10
14.805392939506874
 20
65.093010466560315
 40
0.5
 50
90
 51
180
  0
ARC
  8
_0-0_
  6
CONTINUOUS
 62
    7
 10
16.29637594513224
 20
66.093010466560315
 40
0.5
 50
270
 51
333.43494882293152
  0
ARC
  8
_0-0_
  6
CONTINUOUS
 62
    7
 10
16.705392939506964
 20
66.911044455310218
 40
0.5
 50
333.43494882292214
 51
0.0000000000000858
  0
ARC
  8
_0-0_
  6
CONTINUOUS
 62
    7
 10
16.705392939506964
 20
68.693010466560224
 40
0.5
 50
0
 51
90.000000000000028
  0
ARC
  8
_0-0_
  6
CONTINUOUS
 62
    7
 10
3.8053929395068735
 20
67.693010466560224
 40
1.5
 50
90
 51
180
  0
ARC
  8
_0-0_
  6
CONTINUOUS
 62
    7
 10
15.51249972069354
 20
18.693010466560224
 40
0.5
 50
90
 51
135
  0
ARC
  8
_0-0_
  6
CONTINUOUS
 62
    7
 10
14.805392939506874
 20
17.985903685373557
 40
0.5
 50
135
 51
180
  0
ARC
  8
_0-0_
  6
CONTINUOUS
 62
    7
 10
14.805392939506874
 20
13.293010466560133
 40
0.5
 50
180
 51
270
  0
ARC
  8
_0-0_
  6
CONTINUOUS
 62
    7
 10
16.29637594513224
 20
12.293010466560133
 40
0.5
 50
26.565051177068476
 51
90
  0
ARC
  8
_0-0_
  6
CONTINUOUS
 62
    7
 10
16.705392939506964
 20
11.47497647781023
 40
0.5
 50
359.99999999999994
 51
26.565051177077926
  0
ARC
  8
_0-0_
  6
CONTINUOUS
 62
    7
 10
16.705392939506964
 20
9.6930104665602244
 40
0.5
 50
270
 51
0
  0
ARC
  8
_0-0_
  6
CONTINUOUS
 62
    7
 10
29.098286158320207
 20
18.693010466560224
 40
0.5
 50
45
 51
90
  0
ARC
  8
_0-0_
  6
CONTINUOUS
 62
    7
 10
29.805392939506874
 20
17.985903685373557
 40
0.5
 50
0
 51
45
  0
ARC
  8
_0-0_
  6
CONTINUOUS
 62
    7
 10
29.805392939506874
 20
13.293010466560133
 40
0.5
 50
270
 51
0
  0
ARC
  8
_0-0_
  6
CONTINUOUS
 62
    7
 10
28.314409933881507
 20
12.293010466560133
 40
0.5
 50
90
 51
153.43494882293152
  0
ARC
  8
_0-0_
  6
CONTINUOUS
 62
    7
 10
27.905392939506783
 20
11.47497647781023
 40
0.5
 50
153.43494882292205
 51
180.00000000000006
  0
ARC
  8
_0-0_
  6
CONTINUOUS
 62
    7
 10
27.905392939506783
 20
9.6930104665602244
 40
0.5
 50
180
 51
270
  0
ARC
  8
_0-0_
  6
CONTINUOUS
 62
    7
 10
52.805392939506874
 20
42.400117247746891
 40
0.5
 50
180
 51
225
  0
ARC
  8
_0-0_
  6
CONTINUOUS
 62
    7
 10
53.51249972069354
 20
41.693010466560224
 40
0.5
 50
225
 51
270
  0
ARC
  8
_0-0_
  6
CONTINUOUS
 62
    7
 10
58.205392939506964
 20
41.693010466560224
 40
0.5
 50
270
 51
0
  0
ARC
  8
_0-0_
  6
CONTINUOUS
 62
    7
 10
59.205392939506964
 20
43.183993472185591
 40
0.5
 50
116.56505117706847
 51
180
  0
ARC
  8
_0-0_
  6
CONTINUOUS
 62
    7
 10
60.023426928256868
 20
43.593010466560315
 40
0.5
 50
89.999999999999929
 51
116.56505117707795
  0
ARC
  8
_0-0_
  6
CONTINUOUS
 62
    7
 10
61.805392939506874
 20
43.593010466560315
 40
0.5
 50
0
 51
90
  0
ARC
  8
_0-0_
  6
CONTINUOUS
 62
    7
 10
52.805392939506874
 20
55.985903685373557
 40
0.5
 50
135
 51
180
  0
ARC
  8
_0-0_
  6
CONTINUOUS
 62
    7
 10
53.51249972069354
 20
56.693010466560224
 40
0.5
 50
90
 51
135
  0
ARC
  8
_0-0_
  6
CONTINUOUS
 62
    7
 10
58.205392939506964
 20
56.693010466560224
 40
0.5
 50
0
 51
90
  0
ARC
  8
_0-0_
  6
CONTINUOUS
 62
    7
 10
59.205392939506964
 20
55.202027460934858
 40
0.5
 50
180
 51
243.43494882293152
  0
ARC
  8
_0-0_
  6
CONTINUOUS
 62
    7
 10
60.023426928256868
 20
54.793010466560133
 40
0.5
 50
243.43494882292205
 51
270.00000000000006
  0
ARC
  8
_0-0_
  6
CONTINUOUS
 62
    7
 10
61.805392939506874
 20
54.793010466560133
 40
0.5
 50
270
 51
0
  0
ARC
  8
_0-0_
  6
CONTINUOUS
 62
    7
 10
60.805392939506874
 20
67.693010466560224
 40
1.5
 50
0
 51
90.000000000000028
  0
ARC
  8
_0-0_
  6
CONTINUOUS
 62
    7
 10
60.805392939506874
 20
10.693010466560224
 40
1.5
 50
270
 51
0
  0
ARC
  8
_0-0_
  6
CONTINUOUS
 62
    7
 10
49.805392939506874
 20
60.400117247746891
 40
0.5
 50
315
 51
0
  0
ARC
  8
_0-0_
  6
CONTINUOUS
 62
    7
 10
49.098286158320207
 20
59.693010466560224
 40
0.5
 50
270
 51
315
  0
ARC
  8
_0-0_
  6
CONTINUOUS
 62
    7
 10
49.805392939506874
 20
65.093010466560315
 40
0.5
 50
0
 51
90
  0
ARC
  8
_0-0_
  6
CONTINUOUS
 62
    7
 10
48.314409933881507
 20
66.093010466560315
 40
0.5
 50
206.56505117706848
 51
270
  0
ARC
  8
_0-0_
  6
CONTINUOUS
 62
    7
 10
47.905392939506783
 20
66.911044455310218
 40
0.5
 50
179.99999999999994
 51
206.56505117707795
  0
ARC
  8
_0-0_
  6
CONTINUOUS
 62
    7
 10
47.905392939506783
 20
68.693010466560224
 40
0.5
 50
89.999999999999986
 51
180
  0
ARC
  8
_0-0_
  6
CONTINUOUS
 62
    7
 10
35.51249972069354
 20
59.693010466560224
 40
0.5
 50
225
 51
270
  0
ARC
  8
_0-0_
  6
CONTINUOUS
 62
    7
 10
34.805392939506874
 20
60.400117247746891
 40
0.5
 50
180
 51
225
  0
ARC
  8
_0-0_
  6
CONTINUOUS
 62
    7
 10
34.805392939506874
 20
65.093010466560315
 40
0.5
 50
90
 51
180
  0
ARC
  8
_0-0_
  6
CONTINUOUS
 62
    7
 10
36.29637594513224
 20
66.093010466560315
 40
0.5
 50
270
 51
333.43494882293152
  0
ARC
  8
_0-0_
  6
CONTINUOUS
 62
    7
 10
36.705392939506964
 20
66.911044455310218
 40
0.5
 50
333.43494882292214
 51
0.0000000000000858
  0
ARC
  8
_0-0_
  6
CONTINUOUS
 62
    7
 10
36.705392939506964
 20
68.693010466560224
 40
0.5
 50
0
 51
90.000000000000028
  0
ARC
  8
_0-0_
  6
CONTINUOUS
 62
    7
 10
11.805392939506874
 20
35.985903685373557
 40
0.5
 50
0
 51
45
  0
ARC
  8
_0-0_
  6
CONTINUOUS
 62
    7
 10
11.098286158320207
 20
36.693010466560224
 40
0.5
 50
45
 51
90
  0
ARC
  8
_0-0_
  6
CONTINUOUS
 62
    7
 10
6.4053929395067826
 20
36.693010466560224
 40
0.5
 50
90
 51
180
  0
ARC
  8
_0-0_
  6
CONTINUOUS
 62
    7
 10
5.4053929395067826
 20
35.202027460934858
 40
0.5
 50
296.56505117706848
 51
0
  0
ARC
  8
_0-0_
  6
CONTINUOUS
 62
    7
 10
4.5873589507568795
 20
34.793010466560133
 40
0.5
 50
269.99999999999994
 51
296.56505117707792
  0
ARC
  8
_0-0_
  6
CONTINUOUS
 62
    7
 10
2.8053929395068735
 20
34.793010466560133
 40
0.5
 50
180
 51
270
  0
ARC
  8
_0-0_
  6
CONTINUOUS
 62
    7
 10
11.805392939506874
 20
22.400117247746891
 40
0.5
 50
315
 51
0
  0
ARC
  8
_0-0_
  6
CONTINUOUS
 62
    7
 10
11.098286158320207
 20
21.693010466560224
 40
0.5
 50
270
 51
315
  0
ARC
  8
_0-0_
  6
CONTINUOUS
 62
    7
 10
6.4053929395067826
 20
21.693010466560224
 40
0.5
 50
180
 51
270
  0
ARC
  8
_0-0_
  6
CONTINUOUS
 62
    7
 10
5.4053929395067826
 20
23.183993472185591
 40
0.5
 50
0
 51
63.434948822931524
  0
ARC
  8
_0-0_
  6
CONTINUOUS
 62
    7
 10
4.5873589507568795
 20
23.593010466560315
 40
0.5
 50
63.43494882292206
 51
90.000000000000057
  0
ARC
  8
_0-0_
  6
CONTINUOUS
 62
    7
 10
2.8053929395068735
 20
23.593010466560315
 40
0.5
 50
90
 51
180
  0
ARC
  8
_0-0_
  6
CONTINUOUS
 62
    7
 10
52.805392939506874
 20
22.400117247746891
 40
0.5
 50
180
 51
225
  0
ARC
  8
_0-0_
  6
CONTINUOUS
 62
    7
 10
53.51249972069354
 20
21.693010466560224
 40
0.5
 50
225
 51
270
  0
ARC
  8
_0-0_
  6
CONTINUOUS
 62
    7
 10
58.205392939506964
 20
21.693010466560224
 40
0.5
 50
270
 51
0
  0
ARC
  8
_0-0_
  6
CONTINUOUS
 62
    7
 10
59.205392939506964
 20
23.183993472185591
 40
0.5
 50
116.56505117706847
 51
180
  0
ARC
  8
_0-0_
  6
CONTINUOUS
 62
    7
 10
60.023426928256868
 20
23.593010466560315
 40
0.5
 50
89.999999999999929
 51
116.56505117707795
  0
ARC
  8
_0-0_
  6
CONTINUOUS
 62
    7
 10
61.805392939506874
 20
23.593010466560315
 40
0.5
 50
0
 51
90
  0
ARC
  8
_0-0_
  6
CONTINUOUS
 62
    7
 10
52.805392939506874
 20
35.985903685373557
 40
0.5
 50
135
 51
180
  0
ARC
  8
_0-0_
  6
CONTINUOUS
 62
    7
 10
53.51249972069354
 20
36.693010466560224
 40
0.5
 50
90
 51
135
  0
ARC
  8
_0-0_
  6
CONTINUOUS
 62
    7
 10
58.205392939506964
 20
36.693010466560224
 40
0.5
 50
0
 51
90
  0
ARC
  8
_0-0_
  6
CONTINUOUS
 62
    7
 10
59.205392939506964
 20
35.202027460934858
 40
0.5
 50
180
 51
243.43494882293152
  0
ARC
  8
_0-0_
  6
CONTINUOUS
 62
    7
 10
60.023426928256868
 20
34.793010466560133
 40
0.5
 50
243.43494882292205
 51
270.00000000000006
  0
ARC
  8
_0-0_
  6
CONTINUOUS
 62
    7
 10
61.805392939506874
 20
34.793010466560133
 40
0.5
 50
270
 51
0
  0
ARC
  8
_0-0_
  6
CONTINUOUS
 62
    7
 10
35.51249972069354
 20
18.693010466560224
 40
0.5
 50
90
 51
135
  0
ARC
  8
_0-0_
  6
CONTINUOUS
 62
    7
 10
34.805392939506874
 20
17.985903685373557
 40
0.5
 50
135
 51
180
  0
ARC
  8
_0-0_
  6
CONTINUOUS
 62
    7
 10
34.805392939506874
 20
13.293010466560133
 40
0.5
 50
180
 51
270
  0
ARC
  8
_0-0_
  6
CONTINUOUS
 62
    7
 10
36.29637594513224
 20
12.293010466560133
 40
0.5
 50
26.565051177068476
 51
90
  0
ARC
  8
_0-0_
  6
CONTINUOUS
 62
    7
 10
36.705392939506964
 20
11.47497647781023
 40
0.5
 50
359.99999999999994
 51
26.565051177077926
  0
ARC
  8
_0-0_
  6
CONTINUOUS
 62
    7
 10
36.705392939506964
 20
9.6930104665602244
 40
0.5
 50
270
 51
0
  0
ARC
  8
_0-0_
  6
CONTINUOUS
 62
    7
 10
49.098286158320207
 20
18.693010466560224
 40
0.5
 50
45
 51
90
  0
ARC
  8
_0-0_
  6
CONTINUOUS
 62
    7
 10
49.805392939506874
 20
17.985903685373557
 40
0.5
 50
0
 51
45
  0
ARC
  8
_0-0_
  6
CONTINUOUS
 62
    7
 10
49.805392939506874
 20
13.293010466560133
 40
0.5
 50
270
 51
0
  0
ARC
  8
_0-0_
  6
CONTINUOUS
 62
    7
 10
48.314409933881507
 20
12.293010466560133
 40
0.5
 50
90
 51
153.43494882293152
  0
ARC
  8
_0-0_
  6
CONTINUOUS
 62
    7
 10
47.905392939506783
 20
11.47497647781023
 40
0.5
 50
153.43494882292205
 51
180.00000000000006
  0
ARC
  8
_0-0_
  6
CONTINUOUS
 62
    7
 10
47.905392939506783
 20
9.6930104665602244
 40
0.5
 50
180
 51
270
  0
ARC
  8
_0-0_
  6
CONTINUOUS
 62
    7
 10
11.705392939506964
 20
66.593010466560315
 40
1
 50
339.99999999999989
 51
110.00000000000006
  0
ARC
  8
_0-0_
  6
CONTINUOUS
 62
    7
 10
4.9053929395067826
 20
66.593010466560315
 40
1
 50
69.999999999999915
 51
200.00000000000009
  0
ARC
  8
_0-0_
  6
CONTINUOUS
 62
    7
 10
4.9053929395067826
 20
59.793010466560133
 40
1
 50
159.99999999999991
 51
290.00000000000006
  0
ARC
  8
_0-0_
  6
CONTINUOUS
 62
    7
 10
11.705392939506964
 20
59.793010466560133
 40
1
 50
249.99999999999991
 51
20.000000000000053
  0
ARC
  8
_0-0_
  6
CONTINUOUS
 62
    7
 10
8.3053929395068735
 20
63.193010466560224
 40
4.2999999999999989
 50
334.84056283647067
 51
25.159437163529407
  0
ARC
  8
_0-0_
  6
CONTINUOUS
 62
    7
 10
8.3053929395068735
 20
63.193010466560224
 40
4.2999999999999989
 50
64.840562836470667
 51
115.15943716352946
  0
ARC
  8
_0-0_
  6
CONTINUOUS
 62
    7
 10
8.3053929395068735
 20
63.193010466560224
 40
4.2999999999999989
 50
154.84056283647067
 51
205.15943716352947
  0
ARC
  8
_0-0_
  6
CONTINUOUS
 62
    7
 10
8.3053929395068735
 20
63.193010466560224
 40
4.2999999999999989
 50
244.84056283647067
 51
295.15943716352945
  0
ARC
  8
_0-0_
  6
CONTINUOUS
 62
    7
 10
59.705392939506964
 20
59.793010466560133
 40
1
 50
249.99999999999991
 51
20.000000000000053
  0
ARC
  8
_0-0_
  6
CONTINUOUS
 62
    7
 10
59.705392939506964
 20
66.593010466560315
 40
1
 50
339.99999999999989
 51
110.00000000000006
  0
ARC
  8
_0-0_
  6
CONTINUOUS
 62
    7
 10
52.905392939506783
 20
66.593010466560315
 40
1
 50
69.999999999999915
 51
200.00000000000009
  0
ARC
  8
_0-0_
  6
CONTINUOUS
 62
    7
 10
52.905392939507237
 20
59.793010466560133
 40
1
 50
159.99999999999991
 51
290.00000000000006
  0
ARC
  8
_0-0_
  6
CONTINUOUS
 62
    7
 10
56.305392939506874
 20
63.193010466560224
 40
4.2999999999999989
 50
244.84056283647067
 51
295.15943716352945
  0
ARC
  8
_0-0_
  6
CONTINUOUS
 62
    7
 10
56.305392939506874
 20
63.193010466560224
 40
4.2999999999999989
 50
334.84056283647067
 51
25.159437163529464
  0
ARC
  8
_0-0_
  6
CONTINUOUS
 62
    7
 10
56.305392939506874
 20
63.193010466560224
 40
4.2999999999999989
 50
64.840562836470667
 51
115.15943716352946
  0
ARC
  8
_0-0_
  6
CONTINUOUS
 62
    7
 10
56.305392939506874
 20
63.193010466560224
 40
4.2999999999999989
 50
154.84056283647067
 51
205.15943716352939
  0
ARC
  8
_0-0_
  6
CONTINUOUS
 62
    7
 10
52.905392939507237
 20
11.793010466560133
 40
1
 50
159.99999999999991
 51
290.00000000000006
  0
ARC
  8
_0-0_
  6
CONTINUOUS
 62
    7
 10
59.705392939506964
 20
11.793010466560133
 40
1
 50
249.99999999999991
 51
20.000000000000053
  0
ARC
  8
_0-0_
  6
CONTINUOUS
 62
    7
 10
59.705392939506964
 20
18.593010466560315
 40
1
 50
339.99999999999989
 51
110.00000000000006
  0
ARC
  8
_0-0_
  6
CONTINUOUS
 62
    7
 10
52.905392939507237
 20
18.593010466560315
 40
1
 50
69.999999999999915
 51
200.00000000000009
  0
ARC
  8
_0-0_
  6
CONTINUOUS
 62
    7
 10
56.305392939506874
 20
15.193010466560224
 40
4.2999999999999989
 50
154.8405628364707
 51
205.15943716352942
  0
ARC
  8
_0-0_
  6
CONTINUOUS
 62
    7
 10
56.305392939506874
 20
15.193010466560224
 40
4.2999999999999989
 50
244.84056283647067
 51
295.15943716352945
  0
ARC
  8
_0-0_
  6
CONTINUOUS
 62
    7
 10
56.305392939506874
 20
15.193010466560224
 40
4.2999999999999989
 50
334.84056283647067
 51
25.159437163529464
  0
ARC
  8
_0-0_
  6
CONTINUOUS
 62
    7
 10
56.305392939506874
 20
15.193010466560224
 40
4.2999999999999989
 50
64.840562836470667
 51
115.15943716352939
  0
ARC
  8
_0-0_
  6
CONTINUOUS
 62
    7
 10
4.9053929395067826
 20
18.593010466560315
 40
1
 50
69.999999999999915
 51
200.00000000000009
  0
ARC
  8
_0-0_
  6
CONTINUOUS
 62
    7
 10
4.9053929395067826
 20
11.793010466560133
 40
1
 50
159.99999999999991
 51
290.00000000000006
  0
ARC
  8
_0-0_
  6
CONTINUOUS
 62
    7
 10
11.705392939506964
 20
11.793010466560133
 40
1
 50
249.99999999999991
 51
20.000000000000053
  0
ARC
  8
_0-0_
  6
CONTINUOUS
 62
    7
 10
11.705392939506964
 20
18.593010466560315
 40
1
 50
339.99999999999989
 51
110.00000000000006
  0
ARC
  8
_0-0_
  6
CONTINUOUS
 62
    7
 10
8.3053929395068735
 20
15.193010466560224
 40
4.2999999999999989
 50
154.84056283647067
 51
205.15943716352945
  0
ARC
  8
_0-0_
  6
CONTINUOUS
 62
    7
 10
8.3053929395068735
 20
15.193010466560224
 40
4.2999999999999989
 50
244.84056283647067
 51
295.15943716352945
  0
ARC
  8
_0-0_
  6
CONTINUOUS
 62
    7
 10
8.3053929395068735
 20
15.193010466560224
 40
4.2999999999999989
 50
334.84056283647067
 51
25.159437163529407
  0
ARC
  8
_0-0_
  6
CONTINUOUS
 62
    7
 10
22.305392939506874
 20
59.170360735749853
 40
0.5
 50
240.00000000000014
 51
299.99999999999989
  0
ARC
  8
_0-0_
  6
CONTINUOUS
 62
    7
 10
42.305392939506874
 20
59.170360735749853
 40
0.5
 50
240.00000000000014
 51
299.99999999999989
  0
ARC
  8
_0-0_
  6
CONTINUOUS
 62
    7
 10
23.478598020263689
 20
19.693010466560224
 40
0.5
 50
240.00000000000003
 51
270
  0
ARC
  8
_0-0_
  6
CONTINUOUS
 62
    7
 10
22.305392939506874
 20
19.215660197370596
 40
0.5
 50
60.000000000000135
 51
119.99999999999991
  0
ARC
  8
_0-0_
  6
CONTINUOUS
 62
    7
 10
43.478598020263689
 20
19.693010466560224
 40
0.5
 50
240.00000000000003
 51
270
  0
ARC
  8
_0-0_
  6
CONTINUOUS
 62
    7
 10
42.305392939506874
 20
19.215660197370596
 40
0.5
 50
60.000000000000135
 51
119.99999999999991
  0
ARC
  8
_0-0_
  6
CONTINUOUS
 62
    7
 10
41.132187858750058
 20
19.693010466560224
 40
0.5
 50
270
 51
299.99999999999994
  0
ARC
  8
_0-0_
  6
CONTINUOUS
 62
    7
 10
23.478598020263689
 20
58.693010466560224
 40
0.5
 50
90
 51
119.99999999999999
  0
ARC
  8
_0-0_
  6
CONTINUOUS
 62
    7
 10
21.132187858750058
 20
58.693010466560224
 40
0.5
 50
60.000000000000036
 51
90
  0
ARC
  8
_0-0_
  6
CONTINUOUS
 62
    7
 10
41.132187858750058
 20
58.693010466560224
 40
0.5
 50
60.000000000000036
 51
90
  0
ARC
  8
_0-0_
  6
CONTINUOUS
 62
    7
 10
43.478598020263689
 20
58.693010466560224
 40
0.5
 50
90
 51
119.99999999999999
  0
ARC
  8
_0-0_
  6
CONTINUOUS
 62
    7
 10
26.7567338570434
 20
56.693010466560224
 40
0.5
 50
90
 51
174.14398641456765
  0
ARC
  8
_0-0_
  6
CONTINUOUS
 62
    7
 10
25.45405202197071
 20
53.793010466560133
 40
0.5
 50
270
 51
354.14398641456768
  0
ARC
  8
_0-0_
  6
CONTINUOUS
 62
    7
 10
19.156733857043491
 20
53.793010466560133
 40
0.5
 50
185.85601358543235
 51
270
  0
ARC
  8
_0-0_
  6
CONTINUOUS
 62
    7
 10
17.854052021970801
 20
56.693010466560224
 40
0.5
 50
5.8560135854323621
 51
90.000000000000057
  0
ARC
  8
_0-0_
  6
CONTINUOUS
 62
    7
 10
14.805392939506874
 20
56.693010466560224
 40
0.5
 50
90
 51
180
  0
ARC
  8
_0-0_
  6
CONTINUOUS
 62
    7
 10
14.805392939506874
 20
40.693010466560224
 40
0.5
 50
180
 51
270
  0
ARC
  8
_0-0_
  6
CONTINUOUS
 62
    7
 10
17.844546059781351
 20
40.693010466560224
 40
0.5
 50
270
 51
355.33314162855828
  0
ARC
  8
_0-0_
  6
CONTINUOUS
 62
    7
 10
19.166239819232942
 20
44.593010466560315
 40
0.5
 50
90
 51
175.33314162855822
  0
ARC
  8
_0-0_
  6
CONTINUOUS
 62
    7
 10
25.444546059780805
 20
44.593010466560315
 40
0.5
 50
4.6668583714416716
 51
89.999999999999929
  0
ARC
  8
_0-0_
  6
CONTINUOUS
 62
    7
 10
26.766239819232851
 20
40.693010466560224
 40
0.5
 50
184.66685837144175
 51
270
  0
ARC
  8
_0-0_
  6
CONTINUOUS
 62
    7
 10
26.7567338570434
 20
21.693010466560224
 40
0.5
 50
185.85601358543235
 51
270
  0
ARC
  8
_0-0_
  6
CONTINUOUS
 62
    7
 10
25.45405202197071
 20
24.593010466560315
 40
0.5
 50
5.8560135854323381
 51
90
  0
ARC
  8
_0-0_
  6
CONTINUOUS
 62
    7
 10
19.156733857043491
 20
24.593010466560315
 40
0.5
 50
89.999999999999986
 51
174.14398641456765
  0
ARC
  8
_0-0_
  6
CONTINUOUS
 62
    7
 10
17.854052021970801
 20
21.693010466560224
 40
0.5
 50
269.99999999999994
 51
354.14398641456762
  0
ARC
  8
_0-0_
  6
CONTINUOUS
 62
    7
 10
14.805392939506874
 20
21.693010466560224
 40
0.5
 50
180
 51
270
  0
ARC
  8
_0-0_
  6
CONTINUOUS
 62
    7
 10
14.805392939506874
 20
37.693010466560224
 40
0.5
 50
90
 51
180
  0
ARC
  8
_0-0_
  6
CONTINUOUS
 62
    7
 10
17.844546059781351
 20
37.693010466560224
 40
0.5
 50
4.666858371441724
 51
90
  0
ARC
  8
_0-0_
  6
CONTINUOUS
 62
    7
 10
19.166239819232942
 20
33.793010466560133
 40
0.5
 50
184.66685837144175
 51
270
  0
ARC
  8
_0-0_
  6
CONTINUOUS
 62
    7
 10
25.444546059780805
 20
33.793010466560133
 40
0.5
 50
270.00000000000006
 51
355.33314162855834
  0
ARC
  8
_0-0_
  6
CONTINUOUS
 62
    7
 10
26.766239819232851
 20
37.693010466560224
 40
0.5
 50
89.999999999999972
 51
175.33314162855822
  0
ARC
  8
_0-0_
  6
CONTINUOUS
 62
    7
 10
37.854052021970801
 20
56.693010466560224
 40
0.5
 50
5.8560135854323621
 51
90
  0
ARC
  8
_0-0_
  6
CONTINUOUS
 62
    7
 10
39.156733857043491
 20
53.793010466560133
 40
0.5
 50
185.85601358543235
 51
270
  0
ARC
  8
_0-0_
  6
CONTINUOUS
 62
    7
 10
45.45405202197071
 20
53.793010466560133
 40
0.5
 50
270
 51
354.14398641456762
  0
ARC
  8
_0-0_
  6
CONTINUOUS
 62
    7
 10
46.7567338570434
 20
56.693010466560224
 40
0.5
 50
89.999999999999929
 51
174.14398641456765
  0
ARC
  8
_0-0_
  6
CONTINUOUS
 62
    7
 10
49.805392939506874
 20
56.693010466560224
 40
0.5
 50
0
 51
90
  0
ARC
  8
_0-0_
  6
CONTINUOUS
 62
    7
 10
49.805392939506874
 20
40.693010466560224
 40
0.5
 50
270
 51
0
  0
ARC
  8
_0-0_
  6
CONTINUOUS
 62
    7
 10
46.766239819232851
 20
40.693010466560224
 40
0.5
 50
184.66685837144172
 51
270
  0
ARC
  8
_0-0_
  6
CONTINUOUS
 62
    7
 10
45.444546059780805
 20
44.593010466560315
 40
0.5
 50
4.6668583714417737
 51
90
  0
ARC
  8
_0-0_
  6
CONTINUOUS
 62
    7
 10
39.166239819232942
 20
44.593010466560315
 40
0.5
 50
90.000000000000043
 51
175.33314162855834
  0
ARC
  8
_0-0_
  6
CONTINUOUS
 62
    7
 10
37.844546059781351
 20
40.693010466560224
 40
0.5
 50
270
 51
355.33314162855822
  0
ARC
  8
_0-0_
  6
CONTINUOUS
 62
    7
 10
37.854052021970801
 20
21.693010466560224
 40
0.5
 50
270
 51
354.14398641456762
  0
ARC
  8
_0-0_
  6
CONTINUOUS
 62
    7
 10
39.156733857043491
 20
24.593010466560315
 40
0.5
 50
90
 51
174.14398641456765
  0
ARC
  8
_0-0_
  6
CONTINUOUS
 62
    7
 10
45.45405202197071
 20
24.593010466560315
 40
0.5
 50
5.8560135854323621
 51
90.000000000000014
  0
ARC
  8
_0-0_
  6
CONTINUOUS
 62
    7
 10
46.7567338570434
 20
21.693010466560224
 40
0.5
 50
185.85601358543235
 51
270.00000000000006
  0
ARC
  8
_0-0_
  6
CONTINUOUS
 62
    7
 10
49.805392939506874
 20
21.693010466560224
 40
0.5
 50
270
 51
0
  0
ARC
  8
_0-0_
  6
CONTINUOUS
 62
    7
 10
49.805392939506874
 20
37.693010466560224
 40
0.5
 50
0
 51
90
  0
ARC
  8
_0-0_
  6
CONTINUOUS
 62
    7
 10
46.766239819232851
 20
37.693010466560224
 40
0.5
 50
90
 51
175.33314162855828
  0
ARC
  8
_0-0_
  6
CONTINUOUS
 62
    7
 10
45.444546059780805
 20
33.793010466560133
 40
0.5
 50
270
 51
355.33314162855822
  0
ARC
  8
_0-0_
  6
CONTINUOUS
 62
    7
 10
39.166239819232942
 20
33.793010466560133
 40
0.5
 50
184.66685837144166
 51
269.99999999999994
  0
ARC
  8
_0-0_
  6
CONTINUOUS
 62
    7
 10
37.844546059781351
 20
37.693010466560224
 40
0.5
 50
4.6668583714417737
 51
90.000000000000028
  0
ARC
  8
_0-0_
  6
CONTINUOUS
 62
    7
 10
22.305392939506874
 20
49.193010466560224
 40
4.75
 50
239.67302190324568
 51
300.32697809675432
  0
ARC
  8
_0-0_
  6
CONTINUOUS
 62
    7
 10
22.305392939506874
 20
49.193010466560224
 40
4.75
 50
59.67302190324569
 51
120.32697809675432
  0
ARC
  8
_0-0_
  6
CONTINUOUS
 62
    7
 10
42.305392939506874
 20
49.193010466560224
 40
4.75
 50
239.67302190324568
 51
300.32697809675432
  0
ARC
  8
_0-0_
  6
CONTINUOUS
 62
    7
 10
42.305392939506874
 20
49.193010466560224
 40
4.75
 50
59.67302190324569
 51
120.32697809675432
  0
ARC
  8
_0-0_
  6
CONTINUOUS
 62
    7
 10
42.305392939506874
 20
29.193010466560224
 40
4.75
 50
239.67302190324568
 51
300.32697809675432
  0
ARC
  8
_0-0_
  6
CONTINUOUS
 62
    7
 10
42.305392939506874
 20
29.193010466560224
 40
4.75
 50
59.67302190324569
 51
120.32697809675432
  0
ARC
  8
_0-0_
  6
CONTINUOUS
 62
    7
 10
22.305392939506874
 20
29.193010466560224
 40
4.75
 50
239.67302190324568
 51
300.32697809675432
  0
ARC
  8
_0-0_
  6
CONTINUOUS
 62
    7
 10
22.305392939506874
 20
29.193010466560224
 40
4.75
 50
59.67302190324569
 51
120.32697809675432
  0
LINE
  8
_0-1_
  6
CENTER1
 62
  152
 10
2.3053855163125263
 20
63.193010466560224
 11
14.305381804715125
 21
63.193010466560224
  0
LINE
  8
_0-1_
  6
CENTER1
 62
  152
 10
42.305392939506874
 20
52.888358713115792
 11
42.305392939506874
 21
60.99083280861845
  0
LINE
  8
_0-1_
  6
CENTER1
 62
  152
 10
42.305392939506874
 20
62.528546995803879
 11
42.305392939506874
 21
69.193010466560224
  0
LINE
  8
_0-1_
  6
CENTER1
 62
  152
 10
32.305392939506874
 20
69.193010466560224
 11
32.305392939506874
 21
9.1930104665602244
  0
LINE
  8
_0-1_
  6
CENTER1
 62
  152
 10
22.305392939506874
 20
9.1930104665602244
 11
22.305392939506874
 21
69.193010466560224
  0
LINE
  8
_0-1_
  6
CENTER1
 62
  152
 10
8.3053929395068735
 20
69.193024075750543
 11
8.3053929395068735
 21
57.193015415356683
  0
LINE
  8
_0-1_
  6
CENTER1
 62
  152
 10
42.305392939506874
 20
49.605606833734271
 11
42.305392939506874
 21
9.1930104665602244
  0
LINE
  8
_0-1_
  6
CENTER1
 62
  152
 10
56.305392939506874
 20
9.1930154153566832
 11
56.305392939506874
 21
21.193024075750543
  0
LINE
  8
_0-1_
  6
CENTER1
 62
  152
 10
50.305385516312526
 20
15.193010466560224
 11
62.305381804715125
 21
15.193010466560224
  0
LINE
  8
_0-1_
  6
CENTER1
 62
  152
 10
62.305392939506874
 20
29.193010466560224
 11
2.3053929395068735
 21
29.193010466560224
  0
LINE
  8
_0-1_
  6
CENTER1
 62
  152
 10
2.3053929395068735
 20
39.193010466560224
 11
62.305392939506874
 21
39.193010466560224
  0
LINE
  8
_0-1_
  6
CENTER1
 62
  152
 10
62.305392939506874
 20
49.193010466560224
 11
2.3053929395068735
 21
49.193010466560224
  0
LINE
  8
_0-1_
  6
CENTER1
 62
  152
 10
62.305381804715125
 20
63.193010466560224
 11
50.305385516312526
 21
63.193010466560224
  0
LINE
  8
_0-1_
  6
CENTER1
 62
  152
 10
56.305392939506874
 20
57.193015415356683
 11
56.305392939506874
 21
69.193024075750543
  0
LINE
  8
_0-1_
  6
CENTER1
 62
  152
 10
8.3053929395068735
 20
21.193024075750543
 11
8.3053929395068735
 21
9.1930154153566832
  0
LINE
  8
_0-1_
  6
CENTER1
 62
  152
 10
14.305381804715125
 20
15.193010466560224
 11
2.3053855163125263
 21
15.193010466560224
  0
ENDSEC
  0
EOF
