  0
SECTION
  2
HEADER
  9
$ACADVER
  1
AC1009
  9
$INSBASE
 10
0
 20
0
 30
0
  9
$EXTMIN
 10
0
 20
0
  9
$EXTMAX
 10
297
 20
210
  9
$LIMMIN
 10
0
 20
0
  9
$LIMMAX
 10
297
 20
210
  9
$LTSCALE
 40
1
  0
ENDSEC
  0
SECTION
  2
TABLES
  0
TABLE
  2
LTYPE
 70
     9
  0
LTYPE
  2
CONTINUOUS
 70
    64
  3
実線
 72
    65
 73
     0
 40
0.0
  0
LTYPE
  2
DASHED1
 70
    64
  3
--  --  --  --  --  --  --  --  
 72
    65
 73
     2
 40
2.5
 49
1.25
 49
-1.25
  0
LTYPE
  2
DASHED2
 70
    64
  3
----    ----    ----    ----    
 72
    65
 73
     2
 40
5.0
 49
2.5
 49
-2.5
  0
LTYPE
  2
DASHED3
 70
    64
  3
------  ------  ------  ------  
 72
    65
 73
     2
 40
5.0
 49
3.75
 49
-1.25
  0
LTYPE
  2
CENTER1
 70
    64
  3
----- - ----- - ----- - ----- - 
 72
    65
 73
     4
 40
10.0
 49
6.25
 49
-1.25
 49
1.25
 49
-1.25
  0
LTYPE
  2
CENTER2
 70
    64
  3
----------  --  ----------  --  
 72
    65
 73
     4
 40
20.0
 49
12.5
 49
-2.5
 49
2.5
 49
-2.5
  0
LTYPE
  2
PHANTOM1
 70
    64
  3
--- - - --- - - --- - - --- - - 
 72
    65
 73
     6
 40
10.0
 49
3.25
 49
-1.25
 49
1.25
 49
-1.25
 49
1.25
 49
-1.25
  0
LTYPE
  2
PHANTOM2
 70
    64
  3
--------  -  -  --------  -  -  
 72
    65
 73
     6
 40
20.0
 49
10.0
 49
-2.5
 49
1.25
 49
-2.5
 49
1.25
 49
-2.5
  0
LTYPE
  2
DOT
 70
    64
  3
-   -   -   -   -   -   -   -   
 72
    65
 73
     2
 40
2.5
 49
0.625
 49
-1.875
  0
LTYPE
  2
DUMMY
 70
    64
  3
ダミー
 72
    65
 73
     0
 40
0.0
  0
LTYPE
  2
RAND1
 70
    64
  3
ランダム線1
 72
    65
 73
     4
 40
10.0
 49
1.0
 49
-2.0
 49
3.0
 49
-4.0
  0
LTYPE
  2
RAND2
 70
    64
  3
ランダム線2
 72
    65
 73
     4
 40
14.0
 49
2.0
 49
-3.0
 49
4.0
 49
-5.0
  0
LTYPE
  2
RAND3
 70
    64
  3
ランダム線3
 72
    65
 73
     4
 40
18.0
 49
3.0
 49
-4.0
 49
5.0
 49
-6.0
  0
LTYPE
  2
RAND4
 70
    64
  3
ランダム線4
 72
    65
 73
     4
 40
22.0
 49
4.0
 49
-5.0
 49
6.0
 49
-7.0
  0
LTYPE
  2
RAND5
 70
    64
  3
ランダム線5
 72
    65
 73
     4
 40
26.0
 49
5.0
 49
-6.0
 49
7.0
 49
-8.0
  0
LTYPE
  2
LONG1
 70
    64
  3
----------  --  ----------  --  
 72
    65
 73
     4
 40
40.0
 49
32.5
 49
-2.5
 49
2.5
 49
-2.5
  0
LTYPE
  2
LONG2
 70
    64
  3
--------  -  -  --------  -  -  
 72
    65
 73
     6
 40
40.0
 49
30.0
 49
-2.5
 49
1.25
 49
-2.5
 49
1.25
 49
-2.5
  0
LTYPE
  2
LONG3
 70
    64
  3
+++++++++++++++..+++++++++++++++
 72
    65
 73
     2
 40
40.0
 49
37.5
 49
-2.5
  0
LTYPE
  2
LONG4
 70
    64
  3
+++++++++++++++..+++++++++++++++
 72
    65
 73
     2
 40
80.0
 49
75.0
 49
-5.0
  0
LTYPE
  2
LONG5
 70
    64
  3
----------  --  ----------  --  
 72
    65
 73
     4
 40
60.0
 49
37.5
 49
-7.5
 49
7.5
 49
-7.5
  0
LTYPE
  2
dashed
 70
   64
  3
-------   -------------   ------
 72
   65
 73
    2
 40
7.5
 49
6
 49
-1.5
  0
LTYPE
  2
dashed_spaced
 70
   64
  3
----        --------        ----
 72
   65
 73
    2
 40
12
 49
6
 49
-6
  0
LTYPE
  2
long_dashed_dotted
 70
   64
  3
------------- --- --------------
 72
   65
 73
    4
 40
15.25
 49
12
 49
-1.5
 49
0.25
 49
-1.5
  0
LTYPE
  2
long_dashed_double-dotted
 70
   64
  3
----------- --- --- ------------
 72
   65
 73
    6
 40
17
 49
12
 49
-1.5
 49
0.25
 49
-1.5
 49
0.25
 49
-1.5
  0
LTYPE
  2
long_dashed_triplicate-dotted
 70
   64
  3
--------- --- --- --- ----------
 72
   65
 73
    8
 40
18.75
 49
12
 49
-1.5
 49
0.25
 49
-1.5
 49
0.25
 49
-1.5
 49
0.25
 49
-1.5
  0
LTYPE
  2
dotted
 70
   64
  3
   -       -       -       -    
 72
   65
 73
    2
 40
1.75
 49
0.25
 49
-1.5
  0
LTYPE
  2
chain
 70
   64
  3
-------------- -- --------------
 72
   65
 73
    4
 40
18.5
 49
12
 49
-1.5
 49
3.5
 49
-1.5
  0
LTYPE
  2
chain_double_dash
 70
   64
  3
------------ -- -- -------------
 72
   65
 73
    6
 40
23.5
 49
12
 49
-1.5
 49
3.5
 49
-1.5
 49
3.5
 49
-1.5
  0
LTYPE
  2
dashed_dotted
 70
   64
  3
-----------     -     ----------
 72
   65
 73
    4
 40
9.25
 49
6
 49
-1.5
 49
0.25
 49
-1.5
  0
LTYPE
  2
double-dashed_dotted
 70
   64
  3
------   -----------   -   -----
 72
   65
 73
    6
 40
16.75
 49
6
 49
-1.5
 49
6
 49
-1.5
 49
0.25
 49
-1.5
  0
LTYPE
  2
dashed_double-dotted
 70
   64
  3
---------    -    -    ---------
 72
   65
 73
    6
 40
11
 49
6
 49
-1.5
 49
0.25
 49
-1.5
 49
0.25
 49
-1.5
  0
LTYPE
  2
double-dashed_double-dotted
 70
   64
  3
-----   ---------   -   -   ----
 72
   65
 73
    8
 40
18.5
 49
6
 49
-1.5
 49
6
 49
-1.5
 49
0.25
 49
-1.5
 49
0.25
 49
-1.5
  0
LTYPE
  2
dashed_triplicate-dotted
 70
   64
  3
-------    -    -    -    ------
 72
   65
 73
    8
 40
12.75
 49
6
 49
-1.5
 49
0.25
 49
-1.5
 49
0.25
 49
-1.5
 49
0.25
 49
-1.5
  0
LTYPE
  2
double-dashed_triplicate-dotted
 70
   64
  3
-----  ---------  -  -  -  -----
 72
   65
 73
   10
 40
20.25
 49
6
 49
-1.5
 49
6
 49
-1.5
 49
0.25
 49
-1.5
 49
0.25
 49
-1.5
 49
0.25
 49
-1.5
  0
LTYPE
  2
undefined
 70
   64
  3
--------------------------------
 72
   65
 73
    0
 40
0
  0
ENDTAB
  0
TABLE
  2
STYLE
  5
3
100
AcDbSymbolTable
 70
     1
  0
STYLE
  5
10
100
AcDbSymbolTableRecord
100
AcDbTextStyleTableRecord
  2
STANDARD
 70
     0
 40
0.0
 41
1.0
 50
0.0
 71
     0
 42
0.2
  3
txt
  4
bigfont.shx
  0
STYLE
  5
26
100
AcDbSymbolTableRecord
100
AcDbTextStyleTableRecord
  2
TATEGAKI
 70
    68
 40
0.0
 41
1.0
 50
0.0
 71
     0
 42
1.0
  3
txt
  4
bigfont.shx
  0
ENDTAB
  0
TABLE
  2
LAYER
 70
    5
  0
LAYER
  2
_0-0_フレ__ム
 70
   64
 62
    7
  6
CONTINUOUS
  0
LAYER
  2
_0-1_その他LF______
 70
   64
 62
    7
  6
CONTINUOUS
  0
LAYER
  2
_0-2_FFU
 70
   64
 62
    7
  6
CONTINUOUS
  0
LAYER
  2
_0-f_集計
 70
   64
 62
    7
  6
CONTINUOUS
  0
LAYER
  2
ADD_LINE
 70
   64
 62
    7
  6
CONTINUOUS
  0
ENDTAB
  0
ENDSEC
  0
SECTION
  2
BLOCKS
  0
ENDSEC
  0
SECTION
  2
ENTITIES
  0
ARC
  8
_0-0_フレ__ム
  6
CONTINUOUS
 62
    7
 10
62.247614114816201
 20
61.258127499789694
 40
1.5
 50
0
 51
90
  0
ARC
  8
_0-0_フレ__ム
  6
CONTINUOUS
 62
    7
 10
62.247614114816201
 20
4.2581274997896941
 40
1.5
 50
270
 51
0
  0
LINE
  8
_0-0_フレ__ム
  6
CONTINUOUS
 62
    7
 10
63.247614114816201
 20
17.658127499789785
 11
61.465648103566309
 21
17.658127499789785
  0
LINE
  8
_0-0_フレ__ム
  6
CONTINUOUS
 62
    7
 10
61.242041305816372
 20
17.605341095289774
 11
60.424007317066241
 21
17.196324100914936
  0
LINE
  8
_0-0_フレ__ム
  6
CONTINUOUS
 62
    7
 10
60.147614114816179
 20
16.749110505414833
 11
60.147614114816179
 21
15.258127499789694
  0
LINE
  8
_0-0_フレ__ム
  6
CONTINUOUS
 62
    7
 10
59.647614114816179
 20
14.758127499789694
 11
54.954720896002527
 21
14.758127499789694
  0
LINE
  8
_0-0_フレ__ム
  6
CONTINUOUS
 62
    7
 10
54.601167505409194
 20
14.904574109196474
 11
53.894060724222754
 21
15.611680890383028
  0
LINE
  8
_0-0_フレ__ム
  6
CONTINUOUS
 62
    7
 10
53.747614114816088
 20
15.965234280976247
 11
53.747614114816088
 21
29.551020718603255
  0
LINE
  8
_0-0_フレ__ム
  6
CONTINUOUS
 62
    7
 10
53.894060724222754
 20
29.904574109196474
 11
54.601167505409308
 21
30.611680890383028
  0
LINE
  8
_0-0_フレ__ム
  6
CONTINUOUS
 62
    7
 10
54.954720896002641
 20
30.758127499789694
 11
59.647615640694994
 21
30.758127499789694
  0
LINE
  8
_0-0_フレ__ム
  6
CONTINUOUS
 62
    7
 10
60.147615640694994
 20
30.258127499789694
 11
60.147615640694994
 21
28.767145257097823
  0
LINE
  8
_0-0_フレ__ム
  6
CONTINUOUS
 62
    7
 10
60.424008008759699
 20
28.319932078691537
 11
61.242042760438153
 21
27.910912795504501
  0
LINE
  8
_0-0_フレ__ム
  6
CONTINUOUS
 62
    7
 10
61.465650392373391
 20
27.858125973910788
 11
63.247614114816088
 21
27.858125973910788
  0
LINE
  8
_0-0_フレ__ム
  6
CONTINUOUS
 62
    7
 10
63.747614114816088
 20
28.358125973910788
 11
63.747614114816088
 21
37.1581290256686
  0
LINE
  8
_0-0_フレ__ム
  6
CONTINUOUS
 62
    7
 10
63.247614114816088
 20
37.6581290256686
 11
61.465646577686925
 21
37.6581290256686
  0
LINE
  8
_0-0_フレ__ム
  6
CONTINUOUS
 62
    7
 10
61.242039779936931
 20
37.605342621168589
 11
60.424008842945
 21
37.196327152672566
  0
LINE
  8
_0-0_フレ__ム
  6
CONTINUOUS
 62
    7
 10
60.147615640694994
 20
36.749113557172691
 11
60.147615640694994
 21
35.258129407138327
  0
LINE
  8
_0-0_フレ__ム
  6
CONTINUOUS
 62
    7
 10
59.647615640694994
 20
34.758129407138327
 11
54.954720896002641
 21
34.758129407138327
  0
LINE
  8
_0-0_フレ__ム
  6
CONTINUOUS
 62
    7
 10
54.601167505409308
 20
34.904576016545107
 11
53.894060724222641
 21
35.611682797731888
  0
LINE
  8
_0-0_フレ__ム
  6
CONTINUOUS
 62
    7
 10
53.747614114815974
 20
35.965236188325107
 11
53.747614114816088
 21
49.551020718603255
  0
LINE
  8
_0-0_フレ__ム
  6
CONTINUOUS
 62
    7
 10
53.894060724222754
 20
49.904574109196474
 11
54.601167505409308
 21
50.611680890383028
  0
LINE
  8
_0-0_フレ__ム
  6
CONTINUOUS
 62
    7
 10
54.954720896002641
 20
50.758127499789694
 11
59.647614114815894
 21
50.758127499789694
  0
LINE
  8
_0-0_フレ__ム
  6
CONTINUOUS
 62
    7
 10
60.147614114815894
 20
50.258127499789808
 11
60.147614114816065
 21
48.767144494164555
  0
LINE
  8
_0-0_フレ__ム
  6
CONTINUOUS
 62
    7
 10
60.424007317066184
 20
48.31993089866468
 11
61.242041305815917
 21
47.910913904289842
  0
LINE
  8
_0-0_フレ__ム
  6
CONTINUOUS
 62
    7
 10
61.465648103565854
 20
47.85812749978983
 11
63.247614114816201
 21
47.85812749978983
  0
LINE
  8
_0-0_フレ__ム
  6
CONTINUOUS
 62
    7
 10
23.747614114815974
 20
61.258127499789694
 11
23.747614114815974
 21
43.258127499789921
  0
LINE
  8
_0-0_フレ__ム
  6
CONTINUOUS
 62
    7
 10
53.855558912641413
 20
58.586212909418023
 11
53.407915529512138
 21
59.816100175834904
  0
LINE
  8
_0-0_フレ__ム
  6
CONTINUOUS
 62
    7
 10
62.087312700120151
 20
59.816100175834904
 11
61.63966931699099
 21
58.586212909418023
  0
LINE
  8
_0-0_フレ__ム
  6
CONTINUOUS
 62
    7
 10
60.805586790861412
 20
61.097826085093871
 11
59.575705710440047
 21
60.650182701964482
  0
LINE
  8
_0-0_フレ__ム
  6
CONTINUOUS
 62
    7
 10
59.575705710440047
 20
52.866072297614906
 11
60.805586790861412
 21
52.418416542494484
  0
LINE
  8
_0-0_フレ__ム
  6
CONTINUOUS
 62
    7
 10
48.847614114815997
 20
3.2581274997896941
 11
48.847614114815997
 21
5.0400935110394727
  0
LINE
  8
_0-0_フレ__ム
  6
CONTINUOUS
 62
    7
 10
48.900400519315951
 20
5.2637003087893532
 11
49.309417513690903
 21
6.0817342975397111
  0
LINE
  8
_0-0_フレ__ム
  6
CONTINUOUS
 62
    7
 10
49.756631109190891
 20
6.3581274997898305
 11
51.247614114816088
 21
6.3581274997898305
  0
LINE
  8
_0-0_フレ__ム
  6
CONTINUOUS
 62
    7
 10
51.747614114816088
 20
6.8581274997898305
 11
51.747614114816088
 21
11.551020718603482
  0
LINE
  8
_0-0_フレ__ム
  6
CONTINUOUS
 62
    7
 10
51.601167505409308
 20
11.904574109196702
 11
50.894060724222754
 21
12.611680890383255
  0
LINE
  8
_0-0_フレ__ム
  6
CONTINUOUS
 62
    7
 10
50.540507333629535
 20
12.758127499789921
 11
36.954722803351387
 21
12.758127499789921
  0
LINE
  8
_0-0_フレ__ム
  6
CONTINUOUS
 62
    7
 10
36.601169412758054
 20
12.611680890383255
 11
35.894062631571501
 21
11.904574109196702
  0
LINE
  8
_0-0_フレ__ム
  6
CONTINUOUS
 62
    7
 10
35.747616022164834
 20
11.551020718603482
 11
35.747616022164834
 21
6.8581259739110152
  0
LINE
  8
_0-0_フレ__ム
  6
CONTINUOUS
 62
    7
 10
36.247616022164834
 20
6.3581259739110152
 11
37.738600172199028
 21
6.3581259739110152
  0
LINE
  8
_0-0_フレ__ム
  6
CONTINUOUS
 62
    7
 10
38.18581376769896
 20
6.0817327716611231
 11
38.594829236195039
 21
5.2637018346689644
  0
LINE
  8
_0-0_フレ__ム
  6
CONTINUOUS
 62
    7
 10
38.647615640695108
 20
5.0400950369189701
 11
38.647615640695108
 21
3.2581274997899214
  0
LINE
  8
_0-0_フレ__ム
  6
CONTINUOUS
 62
    7
 10
38.147615640695108
 20
2.7581274997899214
 11
29.347612588937295
 21
2.7581274997899214
  0
LINE
  8
_0-0_フレ__ム
  6
CONTINUOUS
 62
    7
 10
28.847612588937295
 20
3.2581274997899214
 11
28.847612588937295
 21
5.0400912222326184
  0
LINE
  8
_0-0_フレ__ム
  6
CONTINUOUS
 62
    7
 10
28.900399410530895
 20
5.2636988541677425
 11
29.309418693717873
 21
6.081733605846253
  0
LINE
  8
_0-0_フレ__ム
  6
CONTINUOUS
 62
    7
 10
29.756631872124217
 20
6.3581259739110152
 11
31.247614114816201
 21
6.3581259739110152
  0
LINE
  8
_0-0_フレ__ム
  6
CONTINUOUS
 62
    7
 10
31.747614114816201
 20
6.8581259739110152
 11
31.747614114816201
 21
11.551020718603482
  0
LINE
  8
_0-0_フレ__ム
  6
CONTINUOUS
 62
    7
 10
31.601167505409421
 20
11.904574109196702
 11
30.894060724222982
 21
12.611680890383028
  0
LINE
  8
_0-0_フレ__ム
  6
CONTINUOUS
 62
    7
 10
30.540507333629762
 20
12.758127499789694
 11
16.954720896002755
 21
12.758127499789921
  0
LINE
  8
_0-0_フレ__ム
  6
CONTINUOUS
 62
    7
 10
16.601167505409421
 20
12.611680890383255
 11
15.894060724222868
 21
11.904574109196702
  0
LINE
  8
_0-0_フレ__ム
  6
CONTINUOUS
 62
    7
 10
15.747614114816145
 20
11.551020718603482
 11
15.747614114815974
 21
6.8581274997897168
  0
LINE
  8
_0-0_フレ__ム
  6
CONTINUOUS
 62
    7
 10
16.247614114815974
 20
6.3581274997897168
 11
17.738597120441284
 21
6.3581274997898305
  0
LINE
  8
_0-0_フレ__ム
  6
CONTINUOUS
 62
    7
 10
18.185810715941329
 20
6.0817342975397111
 11
18.594827710316054
 21
5.263700308789808
  0
LINE
  8
_0-0_フレ__ム
  6
CONTINUOUS
 62
    7
 10
18.647614114816065
 20
5.0400935110399274
 11
18.647614114816065
 21
3.2581274997896941
  0
LINE
  8
_0-0_フレ__ム
  6
CONTINUOUS
 62
    7
 10
18.147614114816065
 20
2.7581274997896941
 11
5.2476141148159741
 21
2.7581274997896941
  0
LINE
  8
_0-0_フレ__ム
  6
CONTINUOUS
 62
    7
 10
5.2476141148159741
 20
42.758127499789921
 11
23.247614114815974
 21
42.758127499789921
  0
LINE
  8
_0-0_フレ__ム
  6
CONTINUOUS
 62
    7
 10
11.57570571043982
 20
4.866072297614906
 11
12.805586790861184
 21
4.4184165424944837
  0
LINE
  8
_0-0_フレ__ム
  6
CONTINUOUS
 62
    7
 10
12.805586790861184
 20
13.097826085093871
 11
11.57570571043982
 21
12.650182701964482
  0
LINE
  8
_0-0_フレ__ム
  6
CONTINUOUS
 62
    7
 10
7.919516333196384
 20
12.650182701964482
 11
6.689635252775247
 21
13.097826085093871
  0
LINE
  8
_0-0_フレ__ム
  6
CONTINUOUS
 62
    7
 10
14.087312700119924
 20
5.7001424517534502
 11
13.639669316990762
 21
6.9300297181703314
  0
LINE
  8
_0-0_フレ__ム
  6
CONTINUOUS
 62
    7
 10
5.855558912641186
 20
10.586212909418023
 11
5.4079155295119108
 21
11.816100175834904
  0
LINE
  8
_0-0_フレ__ム
  6
CONTINUOUS
 62
    7
 10
14.087312700119924
 20
11.816100175834904
 11
13.639669316990762
 21
10.586212909418023
  0
LINE
  8
_0-0_フレ__ム
  6
CONTINUOUS
 62
    7
 10
12.894060724222641
 20
14.904574109196474
 11
13.601167505409194
 21
15.611680890383028
  0
LINE
  8
_0-0_フレ__ム
  6
CONTINUOUS
 62
    7
 10
13.747614114815974
 20
15.965234280976361
 11
13.747614114815974
 21
30.258127499789694
  0
LINE
  8
_0-0_フレ__ム
  6
CONTINUOUS
 62
    7
 10
13.247614114815974
 20
30.758127499789694
 11
7.8476141148158831
 21
30.758127499789694
  0
LINE
  8
_0-0_フレ__ム
  6
CONTINUOUS
 62
    7
 10
7.3476141148158831
 20
30.258127499789694
 11
7.3476141148158831
 21
28.767144494164782
  0
LINE
  8
_0-0_フレ__ム
  6
CONTINUOUS
 62
    7
 10
7.0712209125658205
 20
28.319930898664794
 11
6.253186923816088
 21
27.910913904289956
  0
LINE
  8
_0-0_フレ__ム
  6
CONTINUOUS
 62
    7
 10
6.0295801260660937
 20
27.85812749978983
 11
4.2476141148159741
 21
27.85812749978983
  0
LINE
  8
_0-0_フレ__ム
  6
CONTINUOUS
 62
    7
 10
3.7476141148159741
 20
28.35812749978983
 11
3.7476141148159741
 21
41.258127499789694
  0
LINE
  8
_0-0_フレ__ム
  6
CONTINUOUS
 62
    7
 10
53.407915529512138
 20
53.70014245175345
 11
53.855558912641413
 21
54.930029718170331
  0
LINE
  8
_0-0_フレ__ム
  6
CONTINUOUS
 62
    7
 10
51.747614114815974
 20
53.965234280976361
 11
51.747614114815974
 21
58.658127499789785
  0
LINE
  8
_0-0_フレ__ム
  6
CONTINUOUS
 62
    7
 10
51.247614114815974
 20
59.158127499789785
 11
49.756631109190835
 21
59.158127499789785
  0
LINE
  8
_0-0_フレ__ム
  6
CONTINUOUS
 62
    7
 10
49.309417513690789
 20
59.434520702040018
 11
48.900400519315838
 21
60.25255469079049
  0
LINE
  8
_0-0_フレ__ム
  6
CONTINUOUS
 62
    7
 10
48.847614114815883
 20
60.47616148854037
 11
48.847614114815883
 21
62.258127499789694
  0
LINE
  8
_0-0_フレ__ム
  6
CONTINUOUS
 62
    7
 10
50.540507333629421
 20
52.758127499789694
 11
36.247614114815974
 21
52.758127499789694
  0
LINE
  8
_0-0_フレ__ム
  6
CONTINUOUS
 62
    7
 10
35.747614114815974
 20
53.258127499789694
 11
35.747614114815974
 21
58.658127499789785
  0
LINE
  8
_0-0_フレ__ム
  6
CONTINUOUS
 62
    7
 10
36.247614114815974
 20
59.158127499789785
 11
37.738597120441
 21
59.158127499789785
  0
LINE
  8
_0-0_フレ__ム
  6
CONTINUOUS
 62
    7
 10
38.185810715940931
 20
59.434520702039791
 11
38.59482771031594
 21
60.252554690789353
  0
LINE
  8
_0-0_フレ__ム
  6
CONTINUOUS
 62
    7
 10
38.647614114816065
 20
60.476161488539347
 11
38.647614114816065
 21
62.258127499789694
  0
LINE
  8
_0-0_フレ__ム
  6
CONTINUOUS
 62
    7
 10
38.147614114816065
 20
62.758127499789694
 11
25.247614114815974
 21
62.758127499789694
  0
LINE
  8
_0-0_フレ__ム
  6
CONTINUOUS
 62
    7
 10
5.4079155295119108
 20
5.7001424517534502
 11
5.855558912641186
 21
6.9300297181703314
  0
LINE
  8
_0-0_フレ__ム
  6
CONTINUOUS
 62
    7
 10
6.689635252775247
 20
4.4184165424944837
 11
7.919516333196384
 21
4.866072297614906
  0
LINE
  8
_0-0_フレ__ム
  6
CONTINUOUS
 62
    7
 10
7.3476141148158831
 20
15.258127499789694
 11
7.3476141148158831
 21
16.749110505415061
  0
LINE
  8
_0-0_フレ__ム
  6
CONTINUOUS
 62
    7
 10
7.0712209125658205
 20
17.196324100914936
 11
6.253186923816088
 21
17.605341095289774
  0
LINE
  8
_0-0_フレ__ム
  6
CONTINUOUS
 62
    7
 10
6.0295801260660937
 20
17.658127499789785
 11
4.2476141148159741
 21
17.658127499789785
  0
LINE
  8
_0-0_フレ__ム
  6
CONTINUOUS
 62
    7
 10
3.7476141148159741
 20
17.158127499789785
 11
3.7476141148159741
 21
4.2581274997896941
  0
LINE
  8
_0-0_フレ__ム
  6
CONTINUOUS
 62
    7
 10
7.8476141148158831
 20
14.758127499789694
 11
12.540507333629421
 21
14.758127499789694
  0
LINE
  8
_0-0_フレ__ム
  6
CONTINUOUS
 62
    7
 10
62.087312700120151
 20
5.7001424517534502
 11
61.63966931699099
 21
6.9300297181703314
  0
LINE
  8
_0-0_フレ__ム
  6
CONTINUOUS
 62
    7
 10
53.855558912641413
 20
10.586212909418023
 11
53.407915529512138
 21
11.816100175834904
  0
LINE
  8
_0-0_フレ__ム
  6
CONTINUOUS
 62
    7
 10
62.087312700120151
 20
11.816100175834904
 11
61.63966931699099
 21
10.586212909418023
  0
LINE
  8
_0-0_フレ__ム
  6
CONTINUOUS
 62
    7
 10
60.805586790861412
 20
13.097826085093871
 11
59.575705710440047
 21
12.650182701964482
  0
LINE
  8
_0-0_フレ__ム
  6
CONTINUOUS
 62
    7
 10
60.805586790861412
 20
4.4184165424944837
 11
59.575705710440047
 21
4.866072297614906
  0
LINE
  8
_0-0_フレ__ム
  6
CONTINUOUS
 62
    7
 10
55.919516333196611
 20
4.866072297614906
 11
54.689635252775474
 21
4.4184165424944837
  0
LINE
  8
_0-0_フレ__ム
  6
CONTINUOUS
 62
    7
 10
54.689635252775474
 20
13.097826085093871
 11
55.919516333196611
 21
12.650182701964482
  0
LINE
  8
_0-0_フレ__ム
  6
CONTINUOUS
 62
    7
 10
53.855558912641413
 20
6.9300297181703314
 11
53.407915529512138
 21
5.7001424517534502
  0
LINE
  8
_0-0_フレ__ム
  6
CONTINUOUS
 62
    7
 10
54.689635252775474
 20
61.097826085093871
 11
55.919516333196611
 21
60.650182701964482
  0
LINE
  8
_0-0_フレ__ム
  6
CONTINUOUS
 62
    7
 10
55.919516333196611
 20
52.866072297614906
 11
54.689635252775474
 21
52.418416542494484
  0
LINE
  8
_0-0_フレ__ム
  6
CONTINUOUS
 62
    7
 10
50.894060724222641
 20
52.904574109196474
 11
51.601167505409194
 21
53.611680890383028
  0
LINE
  8
_0-0_フレ__ム
  6
CONTINUOUS
 62
    7
 10
62.087312700120151
 20
53.70014245175345
 11
61.63966931699099
 21
54.930029718170331
  0
ARC
  8
_0-0_フレ__ム
  6
CONTINUOUS
 62
    7
 10
16.247614114815974
 20
6.8581274997897168
 40
0.5
 50
179.99999999999767
 51
270.00000000000557
  0
ARC
  8
_0-0_フレ__ム
  6
CONTINUOUS
 62
    7
 10
61.147616671694323
 20
5.3581187569159425
 40
1.0000000128874909
 50
249.9998779296875
 51
20.0001220703125
  0
ARC
  8
_0-0_フレ__ム
  6
CONTINUOUS
 62
    7
 10
61.147616671694323
 20
12.158123870672412
 40
1.0000000128874909
 50
339.9998779296875
 51
110.0001220703125
  0
ARC
  8
_0-0_フレ__ム
  6
CONTINUOUS
 62
    7
 10
54.34760537194245
 20
12.158123870672412
 40
1.0000000128874909
 50
69.9998779296875
 51
200.0001220703125
  0
ARC
  8
_0-0_フレ__ム
  6
CONTINUOUS
 62
    7
 10
54.34760537194245
 20
5.3581187569159425
 40
1.0000000128874909
 50
159.9998779296875
 51
290.0001220703125
  0
ARC
  8
_0-0_フレ__ム
  6
CONTINUOUS
 62
    7
 10
57.747614114816201
 20
8.7581274997896941
 40
4.3000011186341984
 50
334.84063720703125
 51
25.159362792968746
  0
ARC
  8
_0-0_フレ__ム
  6
CONTINUOUS
 62
    7
 10
57.747614114816201
 20
8.7581274997896941
 40
4.3000011186341984
 50
64.84063720703125
 51
115.15936279296875
  0
ARC
  8
_0-0_フレ__ム
  6
CONTINUOUS
 62
    7
 10
57.747614114816201
 20
8.7581274997896941
 40
4.3000011186341984
 50
154.84063720703125
 51
205.15936279296875
  0
ARC
  8
_0-0_フレ__ム
  6
CONTINUOUS
 62
    7
 10
57.747614114816201
 20
8.7581274997896941
 40
4.3000011186341984
 50
244.84063720703125
 51
295.15936279296875
  0
ARC
  8
_0-0_フレ__ム
  6
CONTINUOUS
 62
    7
 10
13.147616671694095
 20
5.3581187569159425
 40
1.0000000128874909
 50
249.9998779296875
 51
20.0001220703125
  0
ARC
  8
_0-0_フレ__ム
  6
CONTINUOUS
 62
    7
 10
13.147616671694095
 20
12.158123870672412
 40
1.0000000128874909
 50
339.9998779296875
 51
110.0001220703125
  0
ARC
  8
_0-0_フレ__ム
  6
CONTINUOUS
 62
    7
 10
6.3476053719422225
 20
12.158123870672412
 40
1.0000000128874909
 50
69.9998779296875
 51
200.0001220703125
  0
ARC
  8
_0-0_フレ__ム
  6
CONTINUOUS
 62
    7
 10
6.3476053719422225
 20
5.3581187569159425
 40
1.0000000128874909
 50
159.9998779296875
 51
290.0001220703125
  0
ARC
  8
_0-0_フレ__ム
  6
CONTINUOUS
 62
    7
 10
9.7476141148159741
 20
8.7581274997896941
 40
4.3000011186341984
 50
334.84063720703125
 51
25.159362792968746
  0
ARC
  8
_0-0_フレ__ム
  6
CONTINUOUS
 62
    7
 10
9.7476141148159741
 20
8.7581274997896941
 40
4.3000011186341984
 50
64.84063720703125
 51
115.15936279296875
  0
ARC
  8
_0-0_フレ__ム
  6
CONTINUOUS
 62
    7
 10
9.7476141148159741
 20
8.7581274997896941
 40
4.3000011186341984
 50
154.84063720703125
 51
205.15936279296875
  0
ARC
  8
_0-0_フレ__ム
  6
CONTINUOUS
 62
    7
 10
9.7476141148159741
 20
8.7581274997896941
 40
4.3000011186341984
 50
244.84063720703125
 51
295.15936279296875
  0
ARC
  8
_0-0_フレ__ム
  6
CONTINUOUS
 62
    7
 10
61.147616671694323
 20
53.358118756915943
 40
1.0000000128874909
 50
249.9998779296875
 51
20.0001220703125
  0
ARC
  8
_0-0_フレ__ム
  6
CONTINUOUS
 62
    7
 10
61.147616671694323
 20
60.158123870672412
 40
1.0000000128874909
 50
339.9998779296875
 51
110.0001220703125
  0
ARC
  8
_0-0_フレ__ム
  6
CONTINUOUS
 62
    7
 10
54.34760537194245
 20
60.158123870672412
 40
1.0000000128874909
 50
69.9998779296875
 51
200.0001220703125
  0
ARC
  8
_0-0_フレ__ム
  6
CONTINUOUS
 62
    7
 10
54.34760537194245
 20
53.358118756915943
 40
1.0000000128874909
 50
159.9998779296875
 51
290.0001220703125
  0
ARC
  8
_0-0_フレ__ム
  6
CONTINUOUS
 62
    7
 10
57.747614114816201
 20
56.758127499789694
 40
4.3000011186341984
 50
334.84063720703125
 51
25.159362792968746
  0
ARC
  8
_0-0_フレ__ム
  6
CONTINUOUS
 62
    7
 10
57.747614114816201
 20
56.758127499789694
 40
4.3000011186341984
 50
64.84063720703125
 51
115.15936279296875
  0
ARC
  8
_0-0_フレ__ム
  6
CONTINUOUS
 62
    7
 10
57.747614114816201
 20
56.758127499789694
 40
4.3000011186341984
 50
154.84063720703125
 51
205.15936279296875
  0
ARC
  8
_0-0_フレ__ム
  6
CONTINUOUS
 62
    7
 10
57.747614114816201
 20
56.758127499789694
 40
4.3000011186341984
 50
244.84063720703125
 51
295.15936279296875
  0
ARC
  8
_0-0_フレ__ム
  6
CONTINUOUS
 62
    7
 10
25.247614114815974
 20
61.258127499789694
 40
1.5
 50
89.999999999999986
 51
180
  0
ARC
  8
_0-0_フレ__ム
  6
CONTINUOUS
 62
    7
 10
5.2476141148159741
 20
4.2581274997896941
 40
1.5
 50
180
 51
270
  0
ARC
  8
_0-0_フレ__ム
  6
CONTINUOUS
 62
    7
 10
5.2476141148159741
 20
41.258127499789694
 40
1.5
 50
90
 51
180
  0
ARC
  8
_0-0_フレ__ム
  6
CONTINUOUS
 62
    7
 10
23.247614114815974
 20
43.258127499789921
 40
0.5
 50
270
 51
0
  0
ARC
  8
_0-0_フレ__ム
  6
CONTINUOUS
 62
    7
 10
4.2476141148159741
 20
28.35812749978983
 40
0.5
 50
180
 51
270
  0
ARC
  8
_0-0_フレ__ム
  6
CONTINUOUS
 62
    7
 10
6.0295801260660937
 20
28.35812749978983
 40
0.5
 50
270
 51
296.56505117707798
  0
ARC
  8
_0-0_フレ__ム
  6
CONTINUOUS
 62
    7
 10
6.8476141148158831
 20
28.767144494164782
 40
0.5
 50
296.56505117707798
 51
0.0000000000000127
  0
ARC
  8
_0-0_フレ__ム
  6
CONTINUOUS
 62
    7
 10
7.8476141148158831
 20
30.258127499789694
 40
0.5
 50
90
 51
180
  0
ARC
  8
_0-0_フレ__ム
  6
CONTINUOUS
 62
    7
 10
13.247614114815974
 20
30.258127499789694
 40
0.5
 50
0
 51
90
  0
ARC
  8
_0-0_フレ__ム
  6
CONTINUOUS
 62
    7
 10
13.247614114815974
 20
15.965234280976361
 40
0.5
 50
315
 51
0
  0
ARC
  8
_0-0_フレ__ム
  6
CONTINUOUS
 62
    7
 10
12.540507333629421
 20
15.258127499789694
 40
0.5
 50
270
 51
315
  0
ARC
  8
_0-0_フレ__ム
  6
CONTINUOUS
 62
    7
 10
7.8476141148158831
 20
15.258127499789694
 40
0.5
 50
180
 51
270
  0
ARC
  8
_0-0_フレ__ム
  6
CONTINUOUS
 62
    7
 10
6.8476141148158831
 20
16.749110505415061
 40
0.5
 50
0
 51
63.43494882292201
  0
ARC
  8
_0-0_フレ__ム
  6
CONTINUOUS
 62
    7
 10
6.0295801260660937
 20
17.158127499789785
 40
0.5
 50
63.434948822921655
 51
90
  0
ARC
  8
_0-0_フレ__ム
  6
CONTINUOUS
 62
    7
 10
4.2476141148159741
 20
17.158127499789785
 40
0.5
 50
90
 51
180
  0
ARC
  8
_0-0_フレ__ム
  6
CONTINUOUS
 62
    7
 10
16.954720896002698
 20
12.258127499789921
 40
0.5
 50
89.999999999999091
 51
135
  0
ARC
  8
_0-0_フレ__ム
  6
CONTINUOUS
 62
    7
 10
16.247614114816145
 20
11.551020718603482
 40
0.5
 50
135
 51
179.99999999999758
  0
ARC
  8
_0-0_フレ__ム
  6
CONTINUOUS
 62
    7
 10
17.738597120441341
 20
5.8581274997898305
 40
0.5
 50
26.565051177064969
 51
90.0000000000054
  0
ARC
  8
_0-0_フレ__ム
  6
CONTINUOUS
 62
    7
 10
18.147614114816065
 20
5.0400935110399274
 40
0.5
 50
0
 51
26.5650511770653
  0
ARC
  8
_0-0_フレ__ム
  6
CONTINUOUS
 62
    7
 10
18.147614114816065
 20
3.2581274997896941
 40
0.5
 50
270
 51
0
  0
ARC
  8
_0-0_フレ__ム
  6
CONTINUOUS
 62
    7
 10
30.540507333629762
 20
12.258127499789694
 40
0.5
 50
45.000000000003311
 51
89.999999999999105
  0
ARC
  8
_0-0_フレ__ム
  6
CONTINUOUS
 62
    7
 10
31.247614114816201
 20
11.551020718603482
 40
0.5
 50
0
 51
45.000000000002849
  0
ARC
  8
_0-0_フレ__ム
  6
CONTINUOUS
 62
    7
 10
31.247614114816201
 20
6.8581259739110152
 40
0.5
 50
270
 51
0
  0
ARC
  8
_0-0_フレ__ム
  6
CONTINUOUS
 62
    7
 10
29.756631872124217
 20
5.8581259739110152
 40
0.5
 50
89.999999999999929
 51
153.43484194934751
  0
ARC
  8
_0-0_フレ__ム
  6
CONTINUOUS
 62
    7
 10
29.347612588937295
 20
5.0400912222326184
 40
0.5
 50
153.43484194934851
 51
180.00000000000006
  0
ARC
  8
_0-0_フレ__ム
  6
CONTINUOUS
 62
    7
 10
29.347612588937295
 20
3.2581274997899214
 40
0.5
 50
180
 51
270
  0
ARC
  8
_0-0_フレ__ム
  6
CONTINUOUS
 62
    7
 10
38.147615640695108
 20
3.2581274997899214
 40
0.5
 50
270
 51
0
  0
ARC
  8
_0-0_フレ__ム
  6
CONTINUOUS
 62
    7
 10
38.147615640695108
 20
5.0400950369189701
 40
0.5
 50
0
 51
26.565051177077994
  0
ARC
  8
_0-0_フレ__ム
  6
CONTINUOUS
 62
    7
 10
37.738600172199028
 20
5.8581259739110152
 40
0.5
 50
26.565051177078043
 51
90.000000000000057
  0
ARC
  8
_0-0_フレ__ム
  6
CONTINUOUS
 62
    7
 10
36.247616022164834
 20
6.8581259739110152
 40
0.5
 50
180
 51
270
  0
ARC
  8
_0-0_フレ__ム
  6
CONTINUOUS
 62
    7
 10
36.247616022164834
 20
11.551020718603482
 40
0.5
 50
135.00000000000006
 51
180.00000000000006
  0
ARC
  8
_0-0_フレ__ム
  6
CONTINUOUS
 62
    7
 10
36.954722803351387
 20
12.258127499789921
 40
0.5
 50
90
 51
135
  0
ARC
  8
_0-0_フレ__ム
  6
CONTINUOUS
 62
    7
 10
50.540507333629535
 20
12.258127499789921
 40
0.5
 50
44.99999999999995
 51
89.999999999999943
  0
ARC
  8
_0-0_フレ__ム
  6
CONTINUOUS
 62
    7
 10
51.247614114816088
 20
11.551020718603482
 40
0.5
 50
0
 51
45
  0
ARC
  8
_0-0_フレ__ム
  6
CONTINUOUS
 62
    7
 10
51.247614114816088
 20
6.8581274997898305
 40
0.5
 50
270
 51
0
  0
ARC
  8
_0-0_フレ__ム
  6
CONTINUOUS
 62
    7
 10
49.756631109190891
 20
5.8581274997898305
 40
0.5
 50
90
 51
153.43494882293504
  0
ARC
  8
_0-0_フレ__ム
  6
CONTINUOUS
 62
    7
 10
49.347614114815997
 20
5.0400935110394727
 40
0.5
 50
153.43494882293464
 51
179.99999999999997
  0
ARC
  8
_0-0_フレ__ム
  6
CONTINUOUS
 62
    7
 10
49.347614114815997
 20
3.2581274997896941
 40
0.5
 50
180
 51
270
  0
ARC
  8
_0-0_フレ__ム
  6
CONTINUOUS
 62
    7
 10
63.247614114816201
 20
17.158127499789785
 40
0.5
 50
0
 51
90
  0
ARC
  8
_0-0_フレ__ム
  6
CONTINUOUS
 62
    7
 10
61.465648103566309
 20
17.158127499789785
 40
0.5
 50
90
 51
116.56505117706932
  0
ARC
  8
_0-0_フレ__ム
  6
CONTINUOUS
 62
    7
 10
60.647614114816179
 20
16.749110505414833
 40
0.5
 50
116.56505117706908
 51
180.00000000000006
  0
ARC
  8
_0-0_フレ__ム
  6
CONTINUOUS
 62
    7
 10
59.647614114816179
 20
15.258127499789694
 40
0.5
 50
270
 51
0
  0
ARC
  8
_0-0_フレ__ム
  6
CONTINUOUS
 62
    7
 10
54.954720896002527
 20
15.258127499789694
 40
0.5
 50
224.99999999999673
 51
270
  0
ARC
  8
_0-0_フレ__ム
  6
CONTINUOUS
 62
    7
 10
54.247614114816088
 20
15.965234280976247
 40
0.5
 50
180
 51
224.99999999999713
  0
ARC
  8
_0-0_フレ__ム
  6
CONTINUOUS
 62
    7
 10
54.247614114816088
 20
29.551020718603255
 40
0.5
 50
135.00000000000006
 51
180.00000000000006
  0
ARC
  8
_0-0_フレ__ム
  6
CONTINUOUS
 62
    7
 10
54.954720896002641
 20
30.258127499789694
 40
0.5
 50
90
 51
135
  0
ARC
  8
_0-0_フレ__ム
  6
CONTINUOUS
 62
    7
 10
59.647615640694994
 20
30.258127499789694
 40
0.5
 50
0
 51
90
  0
ARC
  8
_0-0_フレ__ム
  6
CONTINUOUS
 62
    7
 10
60.647615640694994
 20
28.767145257097823
 40
0.5
 50
180
 51
243.43484194934106
  0
ARC
  8
_0-0_フレ__ム
  6
CONTINUOUS
 62
    7
 10
61.465650392373391
 20
28.358125973910788
 40
0.5
 50
243.43484194934067
 51
270
  0
ARC
  8
_0-0_フレ__ム
  6
CONTINUOUS
 62
    7
 10
63.247614114816088
 20
28.358125973910788
 40
0.5
 50
270
 51
0
  0
ARC
  8
_0-0_フレ__ム
  6
CONTINUOUS
 62
    7
 10
63.247614114816088
 20
37.1581290256686
 40
0.5
 50
0
 51
90
  0
ARC
  8
_0-0_フレ__ム
  6
CONTINUOUS
 62
    7
 10
61.465646577686925
 20
37.1581290256686
 40
0.5
 50
90
 51
116.56505117708015
  0
ARC
  8
_0-0_フレ__ム
  6
CONTINUOUS
 62
    7
 10
60.647615640694994
 20
36.749113557172691
 40
0.5
 50
116.56505117708038
 51
180
  0
ARC
  8
_0-0_フレ__ム
  6
CONTINUOUS
 62
    7
 10
59.647615640694994
 20
35.258129407138327
 40
0.5
 50
270
 51
0
  0
ARC
  8
_0-0_フレ__ム
  6
CONTINUOUS
 62
    7
 10
54.954720896002641
 20
35.258129407138327
 40
0.5
 50
224.99999999999673
 51
270
  0
ARC
  8
_0-0_フレ__ム
  6
CONTINUOUS
 62
    7
 10
54.247614114815974
 20
35.965236188325107
 40
0.5
 50
179.99999999999955
 51
224.99999999999713
  0
ARC
  8
_0-0_フレ__ム
  6
CONTINUOUS
 62
    7
 10
54.247614114816088
 20
49.551020718603255
 40
0.5
 50
135
 51
179.99999999999955
  0
ARC
  8
_0-0_フレ__ム
  6
CONTINUOUS
 62
    7
 10
54.954720896002641
 20
50.258127499789694
 40
0.5
 50
90
 51
135
  0
ARC
  8
_0-0_フレ__ム
  6
CONTINUOUS
 62
    7
 10
59.647614114815894
 20
50.258127499789694
 40
0.5
 50
0.0000000000084984
 51
90
  0
ARC
  8
_0-0_フレ__ム
  6
CONTINUOUS
 62
    7
 10
60.647614114816065
 20
48.767144494164668
 40
0.5
 50
180.00000000000813
 51
243.4349488229285
  0
ARC
  8
_0-0_フレ__ム
  6
CONTINUOUS
 62
    7
 10
61.465648103565854
 20
48.35812749978983
 40
0.5
 50
243.43494882292839
 51
270
  0
ARC
  8
_0-0_フレ__ム
  6
CONTINUOUS
 62
    7
 10
63.247614114816201
 20
48.35812749978983
 40
0.5
 50
270
 51
0
  0
ARC
  8
_0-0_フレ__ム
  6
CONTINUOUS
 62
    7
 10
49.347614114815883
 20
62.258127499789694
 40
0.5
 50
90
 51
180
  0
ARC
  8
_0-0_フレ__ム
  6
CONTINUOUS
 62
    7
 10
49.347614114815883
 20
60.47616148854037
 40
0.5
 50
180
 51
206.56505117706061
  0
ARC
  8
_0-0_フレ__ム
  6
CONTINUOUS
 62
    7
 10
49.756631109190835
 20
59.658127499789785
 40
0.5
 50
206.56505117706013
 51
270
  0
ARC
  8
_0-0_フレ__ム
  6
CONTINUOUS
 62
    7
 10
51.247614114815974
 20
58.658127499789785
 40
0.5
 50
0
 51
90
  0
ARC
  8
_0-0_フレ__ム
  6
CONTINUOUS
 62
    7
 10
51.247614114815974
 20
53.965234280976361
 40
0.5
 50
315
 51
0
  0
ARC
  8
_0-0_フレ__ム
  6
CONTINUOUS
 62
    7
 10
50.540507333629421
 20
53.258127499789694
 40
0.5
 50
270
 51
315
  0
ARC
  8
_0-0_フレ__ム
  6
CONTINUOUS
 62
    7
 10
36.247614114815974
 20
53.258127499789694
 40
0.5
 50
180
 51
270
  0
ARC
  8
_0-0_フレ__ム
  6
CONTINUOUS
 62
    7
 10
36.247614114815974
 20
58.658127499789785
 40
0.5
 50
90
 51
180
  0
ARC
  8
_0-0_フレ__ム
  6
CONTINUOUS
 62
    7
 10
37.738597120441
 20
59.658127499789785
 40
0.5
 50
270
 51
333.43494882290901
  0
ARC
  8
_0-0_フレ__ム
  6
CONTINUOUS
 62
    7
 10
38.147614114816065
 20
60.476161488539347
 40
0.5
 50
333.43494882290861
 51
0.0000000000000159
  0
ARC
  8
_0-0_フレ__ム
  6
CONTINUOUS
 62
    7
 10
38.147614114816065
 20
62.258127499789694
 40
0.5
 50
0
 51
90
  0
LINE
  8
_0-0_フレ__ム
  6
CONTINUOUS
 62
    7
 10
49.347614114815883
 20
62.758127499789694
 11
62.247614114816201
 21
62.758127499789694
  0
LINE
  8
_0-0_フレ__ム
  6
CONTINUOUS
 62
    7
 10
63.747614114816201
 20
48.35812749978983
 11
63.747614114816201
 21
61.258127499789694
  0
LINE
  8
_0-0_フレ__ム
  6
CONTINUOUS
 62
    7
 10
63.747614114816201
 20
4.2581274997896941
 11
63.747614114816201
 21
17.158127499789785
  0
LINE
  8
_0-0_フレ__ム
  6
CONTINUOUS
 62
    7
 10
62.247614114816201
 20
2.7581274997896941
 11
49.347614114815997
 21
2.7581274997896941
  0
LINE
  8
_0-0_フレ__ム
  6
CONTINUOUS
 62
    7
 10
47.964374401470479
 20
15.5587065923187
 11
46.155998865122115
 21
16.043259356895319
  0
LINE
  8
_0-0_フレ__ム
  6
CONTINUOUS
 62
    7
 10
50.947035022287196
 20
18.541367213135473
 11
50.46248225771069
 21
20.349742749483553
  0
LINE
  8
_0-0_フレ__ム
  6
CONTINUOUS
 62
    7
 10
37.032745971921656
 20
25.16651225009538
 11
36.54819320734498
 21
26.974887786443801
  0
LINE
  8
_0-0_フレ__ム
  6
CONTINUOUS
 62
    7
 10
37.032745971921827
 20
20.349742749483212
 11
36.548193207345435
 21
18.541367213135473
  0
LINE
  8
_0-0_フレ__ム
  6
CONTINUOUS
 62
    7
 10
50.947035022287196
 20
26.974887786443801
 11
50.46248225771069
 21
25.166512250095835
  0
LINE
  8
_0-0_フレ__ム
  6
CONTINUOUS
 62
    7
 10
46.155998865122569
 20
29.472995642684069
 11
47.964374401470479
 21
29.957548407260461
  0
LINE
  8
_0-0_フレ__ム
  6
CONTINUOUS
 62
    7
 10
41.339229364509777
 20
29.472995642684069
 11
39.530853828161753
 21
29.957548407260575
  0
LINE
  8
_0-0_フレ__ム
  6
CONTINUOUS
 62
    7
 10
39.684971689398822
 20
31.469166921417937
 11
39.307974027599471
 21
31.570183140445593
  0
LINE
  8
_0-0_フレ__ム
  6
CONTINUOUS
 62
    7
 10
39.530853828162094
 20
15.5587065923187
 11
41.339229364509947
 21
16.043259356895206
  0
ARC
  8
_0-0_フレ__ム
  6
CONTINUOUS
 62
    7
 10
39.40144430561088
 20
16.041669505463247
 40
0.5
 50
237.09339573203181
 51
284.99999999999949
  0
ARC
  8
_0-0_フレ__ム
  6
CONTINUOUS
 62
    7
 10
43.747614114816315
 20
22.758127499789694
 40
8.5
 50
212.90660426796683
 51
237.09339573203334
  0
ARC
  8
_0-0_フレ__ム
  6
CONTINUOUS
 62
    7
 10
37.031156120489868
 20
18.411957690584259
 40
0.5
 50
165.00000000000051
 51
212.90660426796819
  0
ARC
  8
_0-0_フレ__ム
  6
CONTINUOUS
 62
    7
 10
50.464072109142649
 20
18.411957690584259
 40
0.5
 50
327.09339573203181
 51
14.999999999999487
  0
ARC
  8
_0-0_フレ__ム
  6
CONTINUOUS
 62
    7
 10
43.747614114816315
 20
22.758127499789694
 40
8.5
 50
302.90660426796677
 51
327.09339573203334
  0
ARC
  8
_0-0_フレ__ム
  6
CONTINUOUS
 62
    7
 10
48.093783924021693
 20
16.041669505463247
 40
0.5
 50
255.00000000000057
 51
302.90660426796819
  0
ARC
  8
_0-0_フレ__ム
  6
CONTINUOUS
 62
    7
 10
48.093783924021693
 20
29.474585494116027
 40
0.5
 50
57.09339573203183
 51
104.99999999999947
  0
ARC
  8
_0-0_フレ__ム
  6
CONTINUOUS
 62
    7
 10
43.747614114816315
 20
22.758127499789694
 40
8.5
 50
32.906604267966792
 51
57.093395732033322
  0
ARC
  8
_0-0_フレ__ム
  6
CONTINUOUS
 62
    7
 10
50.464072109142649
 20
27.104297308995015
 40
0.5
 50
345.00000000000057
 51
32.906604267968206
  0
ARC
  8
_0-0_フレ__ム
  6
CONTINUOUS
 62
    7
 10
37.031156120489527
 20
27.104297308995015
 40
0.5
 50
147.09339573203184
 51
194.99999999999946
  0
ARC
  8
_0-0_フレ__ム
  6
CONTINUOUS
 62
    7
 10
43.747614114815917
 20
22.758127499789694
 40
8.5
 50
122.90660426796678
 51
147.09339573203334
  0
ARC
  8
_0-0_フレ__ム
  6
CONTINUOUS
 62
    7
 10
39.401444305610426
 20
29.474585494115914
 40
0.5
 50
75.000000000000554
 51
122.90660426796819
  0
ARC
  8
_0-0_フレ__ム
  6
CONTINUOUS
 62
    7
 10
41.468638887061161
 20
15.560296443750545
 40
0.5
 50
72.431186138553443
 51
104.99999999999525
  0
ARC
  8
_0-0_フレ__ム
  6
CONTINUOUS
 62
    7
 10
36.54978305877728
 20
20.479152272034426
 40
0.5
 50
345.00000000000335
 51
17.568813861450185
  0
ARC
  8
_0-0_フレ__ム
  6
CONTINUOUS
 62
    7
 10
43.747614114815917
 20
22.758127499789694
 40
7.0499999999999998
 50
252.4311861385533
 51
287.56881386144886
  0
ARC
  8
_0-0_フレ__ム
  6
CONTINUOUS
 62
    7
 10
46.026589342570901
 20
15.560296443750772
 40
0.5
 50
75.000000000006992
 51
107.56881386144798
  0
ARC
  8
_0-0_フレ__ム
  6
CONTINUOUS
 62
    7
 10
50.945445170855237
 20
20.479152272034767
 40
0.5
 50
162.43118613855054
 51
194.99999999999662
  0
ARC
  8
_0-0_フレ__ム
  6
CONTINUOUS
 62
    7
 10
43.747614114816258
 20
22.758127499789808
 40
7.0499999999999998
 50
342.4311861385512
 51
17.568813861447442
  0
ARC
  8
_0-0_フレ__ム
  6
CONTINUOUS
 62
    7
 10
50.945445170855237
 20
25.037102727544621
 40
0.5
 50
165.00000000000617
 51
197.56881386144653
  0
ARC
  8
_0-0_フレ__ム
  6
CONTINUOUS
 62
    7
 10
46.026589342571356
 20
29.955958555828616
 40
0.5
 50
252.43118613855054
 51
284.99999999999665
  0
ARC
  8
_0-0_フレ__ム
  6
CONTINUOUS
 62
    7
 10
43.747614114816258
 20
22.758127499789694
 40
7.0499999999999998
 50
72.431186138550686
 51
107.56881386145058
  0
ARC
  8
_0-0_フレ__ム
  6
CONTINUOUS
 62
    7
 10
41.468638887061047
 20
29.955958555828616
 40
0.5
 50
255.00000000000338
 51
287.56881386145091
  0
ARC
  8
_0-0_フレ__ム
  6
CONTINUOUS
 62
    7
 10
43.747614114816258
 20
22.758127499789467
 40
7.0499999999999998
 50
162.43118613855452
 51
197.56881386144954
  0
ARC
  8
_0-0_フレ__ム
  6
CONTINUOUS
 62
    7
 10
36.549783058777166
 20
25.037102727544166
 40
0.5
 50
342.43118613855489
 51
14.999999999999512
  0
ARC
  8
_0-0_フレ__ム
  6
CONTINUOUS
 62
    7
 10
39.1785645050482
 20
31.087220227301046
 40
0.5
 50
75.000000000003382
 51
118.74763569760204
  0
ARC
  8
_0-0_フレ__ム
  6
CONTINUOUS
 62
    7
 10
39.814381211950035
 20
31.952129834562484
 40
0.5
 50
255.00000000000338
 51
293.16144292832865
  0
ARC
  8
_0-0_フレ__ム
  6
CONTINUOUS
 62
    7
 10
35.418521387304509
 20
27.327177109557184
 40
0.5
 50
151.25236430239889
 51
194.99999999999662
  0
ARC
  8
_0-0_フレ__ム
  6
CONTINUOUS
 62
    7
 10
35.418521387305134
 20
18.18907789002391
 40
0.5
 50
165.00000000000341
 51
208.74763569760202
  0
ARC
  8
_0-0_フレ__ム
  6
CONTINUOUS
 62
    7
 10
48.316663724581986
 20
31.087220227300818
 40
0.4999999999999997
 50
61.252364302397972
 51
104.99999999999662
  0
LINE
  8
_0-0_フレ__ム
  6
CONTINUOUS
 62
    7
 10
35.036574693187617
 20
26.820769925206392
 11
34.935558474159961
 21
27.19776758700597
  0
ARC
  8
_0-0_フレ__ム
  6
CONTINUOUS
 62
    7
 10
34.55361178004307
 20
26.691360402655178
 40
0.5
 50
336.83855707167709
 51
14.999999999999526
  0
LINE
  8
_0-0_フレ__ム
  6
CONTINUOUS
 62
    7
 10
34.935558474160587
 20
18.318487412575124
 11
35.036574693187617
 21
18.695485074372769
  0
ARC
  8
_0-0_フレ__ム
  6
CONTINUOUS
 62
    7
 10
43.747614114816315
 20
22.75812749978958
 40
9.5
 50
156.83855707167746
 51
203.16144292832297
  0
ARC
  8
_0-0_フレ__ム
  6
CONTINUOUS
 62
    7
 10
34.55361178004307
 20
18.824894596923983
 40
0.5
 50
345.00000000000222
 51
23.161442928323016
  0
LINE
  8
_0-0_フレ__ム
  6
CONTINUOUS
 62
    7
 10
48.187254202030772
 20
31.570183140445366
 11
47.810256540233183
 21
31.469166921418278
  0
ARC
  8
_0-0_フレ__ム
  6
CONTINUOUS
 62
    7
 10
43.747614114816315
 20
22.75812749978958
 40
9.5
 50
66.838557071677016
 51
113.16144292832716
  0
ARC
  8
_0-0_フレ__ム
  6
CONTINUOUS
 62
    7
 10
47.680847017681913
 20
31.952129834562825
 40
0.5
 50
246.83855707167692
 51
284.99999999999716
  0
ARC
  8
_0-0_フレ__ム
  6
CONTINUOUS
 62
    7
 10
43.747614114816429
 20
22.758127499791627
 40
10
 50
208.74763569760196
 51
219.52119635865532
  0
ARC
  8
_0-0_フレ__ム
  6
CONTINUOUS
 62
    7
 10
35.262332740579495
 20
15.758127499789694
 40
1
 50
269.99999999999898
 51
39.521196358655182
  0
ARC
  8
_0-0_フレ__ム
  6
CONTINUOUS
 62
    7
 10
43.747614114814269
 20
22.758127499789467
 40
9.9999999999999964
 50
50.478803641347035
 51
61.252364302398021
  0
ARC
  8
_0-0_フレ__ム
  6
CONTINUOUS
 62
    7
 10
50.74761411481586
 20
31.243408874026741
 40
1
 50
230.47880364134687
 51
359.99999999999955
  0
ARC
  8
_0-0_フレ__ム
  6
CONTINUOUS
 62
    7
 10
43.747614114815917
 20
22.758127499789694
 40
10
 50
118.74763569760198
 51
124.52431830360982
  0
ARC
  8
_0-0_フレ__ム
  6
CONTINUOUS
 62
    7
 10
37.51329840679989
 20
31.820870332551991
 40
1
 50
224.99999999999949
 51
304.52431830360985
  0
ARC
  8
_0-0_フレ__ム
  6
CONTINUOUS
 62
    7
 10
43.747614114815917
 20
22.758127499789694
 40
10
 50
145.47568169638959
 51
151.25236430239903
  0
ARC
  8
_0-0_フレ__ム
  6
CONTINUOUS
 62
    7
 10
34.684871282053678
 20
28.992443207805778
 40
1
 50
325.4756816963897
 51
44.999999999999808
  0
LINE
  8
_0-0_フレ__ム
  6
CONTINUOUS
 62
    7
 10
26.040507333629421
 20
41.879447843349467
 11
36.806191625613337
 21
31.113763551365437
  0
ARC
  8
_0-0_フレ__ム
  6
CONTINUOUS
 62
    7
 10
26.747614114815974
 20
42.586554624536134
 40
1
 50
180
 51
224.9999999999996
  0
LINE
  8
_0-0_フレ__ム
  6
CONTINUOUS
 62
    7
 10
24.626293771256201
 20
40.465234280976588
 11
35.391978063240231
 21
29.699549988992445
  0
ARC
  8
_0-0_フレ__ム
  6
CONTINUOUS
 62
    7
 10
23.919186990069647
 20
39.758127499789921
 40
1
 50
44.999999999999545
 51
89.999999999999943
  0
ARC
  8
_0-0_フレ__ム
  6
CONTINUOUS
 62
    7
 10
33.247614114815974
 20
60.258127499789694
 40
0.5
 50
0
 51
90
  0
LINE
  8
_0-0_フレ__ム
  6
CONTINUOUS
 62
    7
 10
26.247614114815974
 20
60.758127499789694
 11
33.247614114815974
 21
60.758127499789694
  0
LINE
  8
_0-0_フレ__ム
  6
CONTINUOUS
 62
    7
 10
25.747614114815974
 20
60.258127499789694
 11
25.747614114815974
 21
42.586554624536134
  0
ARC
  8
_0-0_フレ__ム
  6
CONTINUOUS
 62
    7
 10
26.247614114815974
 20
60.258127499789694
 40
0.5
 50
90
 51
180
  0
LINE
  8
_0-0_フレ__ム
  6
CONTINUOUS
 62
    7
 10
33.747614114815974
 20
51.258127499789694
 11
33.747614114815974
 21
60.258127499789694
  0
ARC
  8
_0-0_フレ__ム
  6
CONTINUOUS
 62
    7
 10
34.247614114815974
 20
51.258127499789694
 40
0.5
 50
180
 51
270
  0
LINE
  8
_0-0_フレ__ム
  6
CONTINUOUS
 62
    7
 10
51.747614114816088
 20
50.258127499789694
 11
51.747614114815917
 21
31.243408874026741
  0
LINE
  8
_0-0_フレ__ム
  6
CONTINUOUS
 62
    7
 10
51.247614114816088
 20
50.758127499789694
 11
34.247614114815974
 21
50.758127499789694
  0
ARC
  8
_0-0_フレ__ム
  6
CONTINUOUS
 62
    7
 10
51.247614114816088
 20
50.258127499789694
 40
0.5
 50
359.99999999999955
 51
90
  0
LINE
  8
_0-0_フレ__ム
  6
CONTINUOUS
 62
    7
 10
16.247614114815917
 20
14.758127499789921
 11
35.262332740579438
 21
14.758127499789694
  0
ARC
  8
_0-0_フレ__ム
  6
CONTINUOUS
 62
    7
 10
16.247614114815974
 20
15.258127499789921
 40
0.5
 50
180
 51
269.99999999999903
  0
LINE
  8
_0-0_フレ__ム
  6
CONTINUOUS
 62
    7
 10
15.747614114815974
 20
32.258127499789694
 11
15.747614114815974
 21
15.258127499789921
  0
ARC
  8
_0-0_フレ__ム
  6
CONTINUOUS
 62
    7
 10
15.247614114815974
 20
32.258127499789694
 40
0.5
 50
0
 51
90
  0
LINE
  8
_0-0_フレ__ム
  6
CONTINUOUS
 62
    7
 10
6.2476141148159741
 20
32.758127499789694
 11
15.247614114815974
 21
32.758127499789694
  0
ARC
  8
_0-0_フレ__ム
  6
CONTINUOUS
 62
    7
 10
6.2476141148159741
 20
33.258127499789694
 40
0.5
 50
180
 51
270
  0
LINE
  8
_0-0_フレ__ム
  6
CONTINUOUS
 62
    7
 10
6.2476141148159741
 20
40.758127499789921
 11
23.919186990069647
 21
40.758127499789921
  0
LINE
  8
_0-0_フレ__ム
  6
CONTINUOUS
 62
    7
 10
5.7476141148159741
 20
40.258127499789921
 11
5.7476141148159741
 21
33.258127499789694
  0
ARC
  8
_0-0_フレ__ム
  6
CONTINUOUS
 62
    7
 10
6.2476141148159741
 20
40.258127499789921
 40
0.5
 50
90
 51
180
  0
LINE
  8
_0-1_その他LF______
  6
CENTER1
 62
  152
 10
34.247614114816315
 20
22.75812749978958
 11
63.747614114816088
 21
22.75812749978958
  0
LINE
  8
_0-1_その他LF______
  6
CENTER1
 62
  152
 10
5.4476129961817605
 20
8.7581274997896941
 11
14.047615233450188
 21
8.7581274997896941
  0
LINE
  8
_0-1_その他LF______
  6
CENTER1
 62
  152
 10
9.7476141148159741
 20
13.058128618424021
 11
9.7476141148159741
 21
4.4581263811555942
  0
LINE
  8
_0-1_その他LF______
  6
CENTER1
 62
  152
 10
53.447612996181988
 20
8.7581274997896941
 11
62.047615233450415
 21
8.7581274997896941
  0
LINE
  8
_0-1_その他LF______
  6
CENTER1
 62
  152
 10
57.747614114816201
 20
13.058128618424021
 11
57.747614114816201
 21
4.4581263811555942
  0
LINE
  8
_0-1_その他LF______
  6
CENTER1
 62
  152
 10
53.447612996181988
 20
56.758127499789694
 11
62.047615233450415
 21
56.758127499789694
  0
LINE
  8
_0-1_その他LF______
  6
CENTER1
 62
  152
 10
57.747614114816201
 20
61.058128618424021
 11
57.747614114816201
 21
52.458126381155594
  0
LINE
  8
_0-1_その他LF______
  6
CENTER1
 62
  152
 10
53.747614114816031
 20
42.75812749978958
 11
63.747614114816088
 21
42.75812749978958
  0
LINE
  8
_0-1_その他LF______
  6
CENTER1
 62
  152
 10
23.747614114816315
 20
12.758127499789921
 11
23.747614114816315
 21
2.7581274997899214
  0
LINE
  8
_0-1_その他LF______
  6
CENTER1
 62
  152
 10
43.747614114816201
 20
62.758127499789694
 11
43.747614114816201
 21
52.758127499789694
  0
LINE
  8
_0-1_その他LF______
  6
CENTER1
 62
  152
 10
13.747614114815974
 20
22.758127499789694
 11
3.7476141148159741
 21
22.758127499789694
  0
LINE
  8
_0-1_その他LF______
  6
CENTER1
 62
  152
 10
43.747614114816315
 20
32.25812749978958
 11
43.747614114816315
 21
2.7581274997899214
  0
LINE
  8
ADD_LINE
  6
DOT
 62
  152
 10
57.747614114816201
 20
8.7581274997896941
 11
63.747614114816201
 21
2.7581274997896941
  0
LINE
  8
ADD_LINE
  6
DOT
 62
  152
 10
57.747614114816201
 20
56.758127499789694
 11
63.747614114816201
 21
62.758127499789694
  0
LINE
  8
ADD_LINE
  6
DOT
 62
  152
 10
9.7476141148159741
 20
8.7581274997896941
 11
3.7476141148159741
 21
2.7581274997896941
  0
TEXT
  8
_0-f_集計
 62
    7
 10
8.0820582756785484
 20
51.283528472591769
 40
4.2999999999999998
 41
0.744186046511628
 50
0
  1
F66C
  0
ENDSEC
  0
EOF
