  0
SECTION
  2
HEADER
  9
$ACADVER
  1
AC1009
  9
$INSBASE
 10
0
 20
0
 30
0
  9
$EXTMIN
 10
0
 20
0
  9
$EXTMAX
 10
1189
 20
841
  9
$LIMMIN
 10
0
 20
0
  9
$LIMMAX
 10
1189
 20
841
  9
$LTSCALE
 40
1
  0
ENDSEC
  0
SECTION
  2
TABLES
  0
TABLE
  2
LTYPE
 70
     9
  0
LTYPE
  2
CONTINUOUS
 70
    64
  3
実線
 72
    65
 73
     0
 40
0.0
  0
LTYPE
  2
DASHED1
 70
    64
  3
--  --  --  --  --  --  --  --  
 72
    65
 73
     2
 40
2.5
 49
1.25
 49
-1.25
  0
LTYPE
  2
DASHED2
 70
    64
  3
----    ----    ----    ----    
 72
    65
 73
     2
 40
5.0
 49
2.5
 49
-2.5
  0
LTYPE
  2
DASHED3
 70
    64
  3
------  ------  ------  ------  
 72
    65
 73
     2
 40
5.0
 49
3.75
 49
-1.25
  0
LTYPE
  2
CENTER1
 70
    64
  3
----- - ----- - ----- - ----- - 
 72
    65
 73
     4
 40
10.0
 49
6.25
 49
-1.25
 49
1.25
 49
-1.25
  0
LTYPE
  2
CENTER2
 70
    64
  3
----------  --  ----------  --  
 72
    65
 73
     4
 40
20.0
 49
12.5
 49
-2.5
 49
2.5
 49
-2.5
  0
LTYPE
  2
PHANTOM1
 70
    64
  3
--- - - --- - - --- - - --- - - 
 72
    65
 73
     6
 40
10.0
 49
3.25
 49
-1.25
 49
1.25
 49
-1.25
 49
1.25
 49
-1.25
  0
LTYPE
  2
PHANTOM2
 70
    64
  3
--------  -  -  --------  -  -  
 72
    65
 73
     6
 40
20.0
 49
10.0
 49
-2.5
 49
1.25
 49
-2.5
 49
1.25
 49
-2.5
  0
LTYPE
  2
DOT
 70
    64
  3
-   -   -   -   -   -   -   -   
 72
    65
 73
     2
 40
2.5
 49
0.625
 49
-1.875
  0
LTYPE
  2
DUMMY
 70
    64
  3
ダミー
 72
    65
 73
     0
 40
0.0
  0
LTYPE
  2
RAND1
 70
    64
  3
ランダム線1
 72
    65
 73
     4
 40
10.0
 49
1.0
 49
-2.0
 49
3.0
 49
-4.0
  0
LTYPE
  2
RAND2
 70
    64
  3
ランダム線2
 72
    65
 73
     4
 40
14.0
 49
2.0
 49
-3.0
 49
4.0
 49
-5.0
  0
LTYPE
  2
RAND3
 70
    64
  3
ランダム線3
 72
    65
 73
     4
 40
18.0
 49
3.0
 49
-4.0
 49
5.0
 49
-6.0
  0
LTYPE
  2
RAND4
 70
    64
  3
ランダム線4
 72
    65
 73
     4
 40
22.0
 49
4.0
 49
-5.0
 49
6.0
 49
-7.0
  0
LTYPE
  2
RAND5
 70
    64
  3
ランダム線5
 72
    65
 73
     4
 40
26.0
 49
5.0
 49
-6.0
 49
7.0
 49
-8.0
  0
LTYPE
  2
LONG1
 70
    64
  3
----------  --  ----------  --  
 72
    65
 73
     4
 40
40.0
 49
32.5
 49
-2.5
 49
2.5
 49
-2.5
  0
LTYPE
  2
LONG2
 70
    64
  3
--------  -  -  --------  -  -  
 72
    65
 73
     6
 40
40.0
 49
30.0
 49
-2.5
 49
1.25
 49
-2.5
 49
1.25
 49
-2.5
  0
LTYPE
  2
LONG3
 70
    64
  3
+++++++++++++++..+++++++++++++++
 72
    65
 73
     2
 40
40.0
 49
37.5
 49
-2.5
  0
LTYPE
  2
LONG4
 70
    64
  3
+++++++++++++++..+++++++++++++++
 72
    65
 73
     2
 40
80.0
 49
75.0
 49
-5.0
  0
LTYPE
  2
LONG5
 70
    64
  3
----------  --  ----------  --  
 72
    65
 73
     4
 40
60.0
 49
37.5
 49
-7.5
 49
7.5
 49
-7.5
  0
LTYPE
  2
dashed
 70
   64
  3
-------   -------------   ------
 72
   65
 73
    2
 40
7.5
 49
6
 49
-1.5
  0
LTYPE
  2
dashed_spaced
 70
   64
  3
----        --------        ----
 72
   65
 73
    2
 40
12
 49
6
 49
-6
  0
LTYPE
  2
long_dashed_dotted
 70
   64
  3
------------- --- --------------
 72
   65
 73
    4
 40
15.25
 49
12
 49
-1.5
 49
0.25
 49
-1.5
  0
LTYPE
  2
long_dashed_double-dotted
 70
   64
  3
----------- --- --- ------------
 72
   65
 73
    6
 40
17
 49
12
 49
-1.5
 49
0.25
 49
-1.5
 49
0.25
 49
-1.5
  0
LTYPE
  2
long_dashed_triplicate-dotted
 70
   64
  3
--------- --- --- --- ----------
 72
   65
 73
    8
 40
18.75
 49
12
 49
-1.5
 49
0.25
 49
-1.5
 49
0.25
 49
-1.5
 49
0.25
 49
-1.5
  0
LTYPE
  2
dotted
 70
   64
  3
   -       -       -       -    
 72
   65
 73
    2
 40
1.75
 49
0.25
 49
-1.5
  0
LTYPE
  2
chain
 70
   64
  3
-------------- -- --------------
 72
   65
 73
    4
 40
18.5
 49
12
 49
-1.5
 49
3.5
 49
-1.5
  0
LTYPE
  2
chain_double_dash
 70
   64
  3
------------ -- -- -------------
 72
   65
 73
    6
 40
23.5
 49
12
 49
-1.5
 49
3.5
 49
-1.5
 49
3.5
 49
-1.5
  0
LTYPE
  2
dashed_dotted
 70
   64
  3
-----------     -     ----------
 72
   65
 73
    4
 40
9.25
 49
6
 49
-1.5
 49
0.25
 49
-1.5
  0
LTYPE
  2
double-dashed_dotted
 70
   64
  3
------   -----------   -   -----
 72
   65
 73
    6
 40
16.75
 49
6
 49
-1.5
 49
6
 49
-1.5
 49
0.25
 49
-1.5
  0
LTYPE
  2
dashed_double-dotted
 70
   64
  3
---------    -    -    ---------
 72
   65
 73
    6
 40
11
 49
6
 49
-1.5
 49
0.25
 49
-1.5
 49
0.25
 49
-1.5
  0
LTYPE
  2
double-dashed_double-dotted
 70
   64
  3
-----   ---------   -   -   ----
 72
   65
 73
    8
 40
18.5
 49
6
 49
-1.5
 49
6
 49
-1.5
 49
0.25
 49
-1.5
 49
0.25
 49
-1.5
  0
LTYPE
  2
dashed_triplicate-dotted
 70
   64
  3
-------    -    -    -    ------
 72
   65
 73
    8
 40
12.75
 49
6
 49
-1.5
 49
0.25
 49
-1.5
 49
0.25
 49
-1.5
 49
0.25
 49
-1.5
  0
LTYPE
  2
double-dashed_triplicate-dotted
 70
   64
  3
-----  ---------  -  -  -  -----
 72
   65
 73
   10
 40
20.25
 49
6
 49
-1.5
 49
6
 49
-1.5
 49
0.25
 49
-1.5
 49
0.25
 49
-1.5
 49
0.25
 49
-1.5
  0
LTYPE
  2
undefined
 70
   64
  3
--------------------------------
 72
   65
 73
    0
 40
0
  0
ENDTAB
  0
TABLE
  2
STYLE
  5
3
100
AcDbSymbolTable
 70
     1
  0
STYLE
  5
10
100
AcDbSymbolTableRecord
100
AcDbTextStyleTableRecord
  2
STANDARD
 70
     0
 40
0.0
 41
1.0
 50
0.0
 71
     0
 42
0.2
  3
txt
  4
bigfont.shx
  0
STYLE
  5
26
100
AcDbSymbolTableRecord
100
AcDbTextStyleTableRecord
  2
TATEGAKI
 70
    68
 40
0.0
 41
1.0
 50
0.0
 71
     0
 42
1.0
  3
txt
  4
bigfont.shx
  0
ENDTAB
  0
TABLE
  2
LAYER
 70
    4
  0
LAYER
  2
_0-0_
 70
   64
 62
    7
  6
CONTINUOUS
  0
LAYER
  2
_0-1_
 70
   64
 62
    7
  6
CONTINUOUS
  0
LAYER
  2
_0-f_
 70
   64
 62
    7
  6
CONTINUOUS
  0
LAYER
  2
ADD_LINE
 70
   64
 62
    7
  6
CONTINUOUS
  0
ENDTAB
  0
ENDSEC
  0
SECTION
  2
BLOCKS
  0
ENDSEC
  0
SECTION
  2
ENTITIES
  0
TEXT
  8
_0-f_
 62
    7
 10
1.0043483367171575
 20
1.2145973363822122
 40
4.2999999999999998
 41
0.744186046511628
 50
0
  1
F48M,F48MB
  0
LINE
  8
_0-0_
  6
CONTINUOUS
 62
    7
 10
41.759003015788494
 20
86.012940295271278
 11
41.759003015788494
 21
73.112940295271187
  0
LINE
  8
_0-0_
  6
CONTINUOUS
 62
    7
 10
41.259003015788494
 20
72.612940295271187
 11
39.477037004538488
 21
72.612940295271187
  0
LINE
  8
_0-0_
  6
CONTINUOUS
 62
    7
 10
39.25343020678838
 20
72.665726699771312
 11
38.435396218038477
 21
73.074743694146264
  0
LINE
  8
_0-0_
  6
CONTINUOUS
 62
    7
 10
38.159003015788585
 20
73.521957289646139
 11
38.159003015788585
 21
75.012940295271278
  0
LINE
  8
_0-0_
  6
CONTINUOUS
 62
    7
 10
37.659003015788585
 20
75.512940295271278
 11
33.466109796975161
 21
75.512940295271278
  0
LINE
  8
_0-0_
  6
CONTINUOUS
 62
    7
 10
33.112556406381827
 20
75.366493685864498
 11
31.90544962519516
 21
74.159386904677945
  0
LINE
  8
_0-0_
  6
CONTINUOUS
 62
    7
 10
31.759003015788494
 20
73.805833514084611
 11
31.759003015788494
 21
67.933517431865198
  0
LINE
  8
_0-0_
  6
CONTINUOUS
 62
    7
 10
31.71881063692399
 20
67.783517431865221
 11
31.649195394653361
 21
67.662940295271142
  0
LINE
  8
_0-0_
  6
CONTINUOUS
 62
    7
 10
31.649195394653361
 20
67.362940295271187
 11
31.71881063692399
 21
67.242363158677222
  0
LINE
  8
_0-0_
  6
CONTINUOUS
 62
    7
 10
31.759003015788494
 20
67.092363158677131
 11
31.759003015788494
 21
61.220047076457718
  0
LINE
  8
_0-0_
  6
CONTINUOUS
 62
    7
 10
31.90544962519516
 20
60.866493685864498
 11
33.112556406381827
 21
59.659386904677945
  0
LINE
  8
_0-0_
  6
CONTINUOUS
 62
    7
 10
33.466109796975161
 20
59.512940295271278
 11
37.659003015788585
 21
59.512940295271278
  0
LINE
  8
_0-0_
  6
CONTINUOUS
 62
    7
 10
38.159003015788585
 20
60.012940295271278
 11
38.159003015788585
 21
61.50392330089619
  0
LINE
  8
_0-0_
  6
CONTINUOUS
 62
    7
 10
38.435396218038477
 20
61.951136896396179
 11
39.25343020678838
 21
62.36015389077113
  0
LINE
  8
_0-0_
  6
CONTINUOUS
 62
    7
 10
39.477037004538488
 20
62.412940295271142
 11
41.259003015788494
 21
62.412940295271142
  0
LINE
  8
_0-0_
  6
CONTINUOUS
 62
    7
 10
41.759003015788494
 20
61.912940295271142
 11
41.759003015788494
 21
53.112940295271187
  0
LINE
  8
_0-0_
  6
CONTINUOUS
 62
    7
 10
41.259003015788494
 20
52.612940295271187
 11
39.477037004538488
 21
52.612940295271187
  0
LINE
  8
_0-0_
  6
CONTINUOUS
 62
    7
 10
39.25343020678838
 20
52.665726699771312
 11
38.435396218038477
 21
53.074743694146264
  0
LINE
  8
_0-0_
  6
CONTINUOUS
 62
    7
 10
38.159003015788585
 20
53.521957289646139
 11
38.159003015788585
 21
55.012940295271278
  0
LINE
  8
_0-0_
  6
CONTINUOUS
 62
    7
 10
37.659003015788585
 20
55.512940295271278
 11
33.466109796975161
 21
55.512940295271278
  0
LINE
  8
_0-0_
  6
CONTINUOUS
 62
    7
 10
33.112556406381827
 20
55.366493685864498
 11
31.90544962519516
 21
54.159386904677945
  0
LINE
  8
_0-0_
  6
CONTINUOUS
 62
    7
 10
31.759003015788494
 20
53.805833514084611
 11
31.759003015788494
 21
47.933517431865198
  0
LINE
  8
_0-0_
  6
CONTINUOUS
 62
    7
 10
31.71881063692399
 20
47.783517431865221
 11
31.649195394653361
 21
47.662940295271142
  0
LINE
  8
_0-0_
  6
CONTINUOUS
 62
    7
 10
31.649195394653361
 20
47.362940295271187
 11
31.71881063692399
 21
47.242363158677222
  0
LINE
  8
_0-0_
  6
CONTINUOUS
 62
    7
 10
31.759003015788494
 20
47.092363158677131
 11
31.759003015788494
 21
41.220047076457718
  0
LINE
  8
_0-0_
  6
CONTINUOUS
 62
    7
 10
31.90544962519516
 20
40.866493685864498
 11
33.112556406381827
 21
39.659386904677945
  0
LINE
  8
_0-0_
  6
CONTINUOUS
 62
    7
 10
33.466109796975161
 20
39.512940295271278
 11
37.659003015788585
 21
39.512940295271278
  0
LINE
  8
_0-0_
  6
CONTINUOUS
 62
    7
 10
38.159003015788585
 20
40.012940295271278
 11
38.159003015788585
 21
41.50392330089619
  0
LINE
  8
_0-0_
  6
CONTINUOUS
 62
    7
 10
38.435396218038477
 20
41.951136896396179
 11
39.25343020678838
 21
42.36015389077113
  0
LINE
  8
_0-0_
  6
CONTINUOUS
 62
    7
 10
39.477037004538488
 20
42.412940295271142
 11
41.259003015788494
 21
42.412940295271142
  0
LINE
  8
_0-0_
  6
CONTINUOUS
 62
    7
 10
41.759003015788494
 20
41.912940295271142
 11
41.759003015788494
 21
33.112940295271187
  0
LINE
  8
_0-0_
  6
CONTINUOUS
 62
    7
 10
41.259003015788494
 20
32.612940295271187
 11
39.477037004538488
 21
32.612940295271187
  0
LINE
  8
_0-0_
  6
CONTINUOUS
 62
    7
 10
39.25343020678838
 20
32.665726699771312
 11
38.435396218038477
 21
33.074743694146264
  0
LINE
  8
_0-0_
  6
CONTINUOUS
 62
    7
 10
38.159003015788585
 20
33.521957289646139
 11
38.159003015788585
 21
35.012940295271278
  0
LINE
  8
_0-0_
  6
CONTINUOUS
 62
    7
 10
37.659003015788585
 20
35.512940295271278
 11
33.466109796975161
 21
35.512940295271278
  0
LINE
  8
_0-0_
  6
CONTINUOUS
 62
    7
 10
33.112556406381827
 20
35.366493685864498
 11
31.90544962519516
 21
34.159386904677945
  0
LINE
  8
_0-0_
  6
CONTINUOUS
 62
    7
 10
31.759003015788494
 20
33.805833514084611
 11
31.759003015788494
 21
27.933517431865198
  0
LINE
  8
_0-0_
  6
CONTINUOUS
 62
    7
 10
31.71881063692399
 20
27.783517431865221
 11
31.649195394653361
 21
27.662940295271142
  0
LINE
  8
_0-0_
  6
CONTINUOUS
 62
    7
 10
31.649195394653361
 20
27.362940295271187
 11
31.71881063692399
 21
27.242363158677222
  0
LINE
  8
_0-0_
  6
CONTINUOUS
 62
    7
 10
31.759003015788494
 20
27.092363158677131
 11
31.759003015788494
 21
21.220047076457718
  0
LINE
  8
_0-0_
  6
CONTINUOUS
 62
    7
 10
31.90544962519516
 20
20.866493685864498
 11
33.112556406381827
 21
19.659386904677945
  0
LINE
  8
_0-0_
  6
CONTINUOUS
 62
    7
 10
33.466109796975161
 20
19.512940295271278
 11
37.659003015788585
 21
19.512940295271278
  0
LINE
  8
_0-0_
  6
CONTINUOUS
 62
    7
 10
38.159003015788585
 20
20.012940295271278
 11
38.159003015788585
 21
21.50392330089619
  0
LINE
  8
_0-0_
  6
CONTINUOUS
 62
    7
 10
38.435396218038477
 20
21.951136896396179
 11
39.25343020678838
 21
22.36015389077113
  0
LINE
  8
_0-0_
  6
CONTINUOUS
 62
    7
 10
39.477037004538488
 20
22.412940295271142
 11
41.259003015788494
 21
22.412940295271142
  0
LINE
  8
_0-0_
  6
CONTINUOUS
 62
    7
 10
41.759003015788494
 20
21.912940295271142
 11
41.759003015788494
 21
9.012940295271278
  0
LINE
  8
_0-0_
  6
CONTINUOUS
 62
    7
 10
40.259003015788494
 20
7.512940295271278
 11
27.359003015788403
 21
7.512940295271278
  0
LINE
  8
_0-0_
  6
CONTINUOUS
 62
    7
 10
26.859003015788403
 20
8.012940295271278
 11
26.859003015788403
 21
9.794906306521284
  0
LINE
  8
_0-0_
  6
CONTINUOUS
 62
    7
 10
26.911789420288642
 20
10.018513104271392
 11
27.320806414663366
 21
10.836547093021181
  0
LINE
  8
_0-0_
  6
CONTINUOUS
 62
    7
 10
27.768020010163582
 20
11.112940295271187
 11
29.259003015788494
 21
11.112940295271187
  0
LINE
  8
_0-0_
  6
CONTINUOUS
 62
    7
 10
29.759003015788494
 20
11.612940295271187
 11
29.759003015788494
 21
15.805833514084611
  0
LINE
  8
_0-0_
  6
CONTINUOUS
 62
    7
 10
29.612556406381827
 20
16.159386904677945
 11
28.40544962519516
 21
17.366493685864498
  0
LINE
  8
_0-0_
  6
CONTINUOUS
 62
    7
 10
28.051896234601827
 20
17.512940295271278
 11
15.466109796975161
 21
17.512940295271278
  0
LINE
  8
_0-0_
  6
CONTINUOUS
 62
    7
 10
15.112556406381827
 20
17.366493685864498
 11
13.90544962519516
 21
16.159386904677945
  0
LINE
  8
_0-0_
  6
CONTINUOUS
 62
    7
 10
13.759003015788494
 20
15.805833514084611
 11
13.759003015788494
 21
11.612940295271187
  0
LINE
  8
_0-0_
  6
CONTINUOUS
 62
    7
 10
14.259003015788494
 20
11.112940295271187
 11
15.749986021413406
 21
11.112940295271187
  0
LINE
  8
_0-0_
  6
CONTINUOUS
 62
    7
 10
16.197199616913622
 20
10.836547093021181
 11
16.606216611288346
 21
10.018513104271392
  0
LINE
  8
_0-0_
  6
CONTINUOUS
 62
    7
 10
16.659003015788585
 20
9.794906306521284
 11
16.659003015788585
 21
8.012940295271278
  0
LINE
  8
_0-0_
  6
CONTINUOUS
 62
    7
 10
16.159003015788585
 20
7.512940295271278
 11
3.2590030157884939
 21
7.512940295271278
  0
LINE
  8
_0-0_
  6
CONTINUOUS
 62
    7
 10
1.7590030157884939
 20
9.012940295271278
 11
1.7590030157884939
 21
21.912940295271142
  0
LINE
  8
_0-0_
  6
CONTINUOUS
 62
    7
 10
2.2590030157884939
 20
22.412940295271142
 11
4.0409690270384999
 21
22.412940295271142
  0
LINE
  8
_0-0_
  6
CONTINUOUS
 62
    7
 10
4.2645758247886079
 20
22.36015389077113
 11
5.0826098135385109
 21
21.951136896396179
  0
LINE
  8
_0-0_
  6
CONTINUOUS
 62
    7
 10
5.359003015788403
 20
21.50392330089619
 11
5.359003015788403
 21
20.012940295271278
  0
LINE
  8
_0-0_
  6
CONTINUOUS
 62
    7
 10
5.859003015788403
 20
19.512940295271278
 11
10.051896234601827
 21
19.512940295271278
  0
LINE
  8
_0-0_
  6
CONTINUOUS
 62
    7
 10
10.40544962519516
 20
19.659386904677945
 11
11.612556406381827
 21
20.866493685864498
  0
LINE
  8
_0-0_
  6
CONTINUOUS
 62
    7
 10
11.759003015788494
 20
21.220047076457718
 11
11.759003015788494
 21
27.092363158677131
  0
LINE
  8
_0-0_
  6
CONTINUOUS
 62
    7
 10
11.799195394652997
 20
27.242363158677222
 11
11.868810636923627
 21
27.362940295271187
  0
LINE
  8
_0-0_
  6
CONTINUOUS
 62
    7
 10
11.868810636923627
 20
27.662940295271142
 11
11.799195394652997
 21
27.783517431865221
  0
LINE
  8
_0-0_
  6
CONTINUOUS
 62
    7
 10
11.759003015788494
 20
27.933517431865198
 11
11.759003015788494
 21
33.805833514084611
  0
LINE
  8
_0-0_
  6
CONTINUOUS
 62
    7
 10
11.612556406381827
 20
34.159386904677945
 11
10.40544962519516
 21
35.366493685864498
  0
LINE
  8
_0-0_
  6
CONTINUOUS
 62
    7
 10
10.051896234601827
 20
35.512940295271278
 11
5.859003015788403
 21
35.512940295271278
  0
LINE
  8
_0-0_
  6
CONTINUOUS
 62
    7
 10
5.359003015788403
 20
35.012940295271278
 11
5.359003015788403
 21
33.521957289646139
  0
LINE
  8
_0-0_
  6
CONTINUOUS
 62
    7
 10
5.0826098135385109
 20
33.074743694146264
 11
4.2645758247886079
 21
32.665726699771312
  0
LINE
  8
_0-0_
  6
CONTINUOUS
 62
    7
 10
4.0409690270384999
 20
32.612940295271187
 11
2.2590030157884939
 21
32.612940295271187
  0
LINE
  8
_0-0_
  6
CONTINUOUS
 62
    7
 10
1.7590030157884939
 20
33.112940295271187
 11
1.7590030157884939
 21
41.912940295271142
  0
LINE
  8
_0-0_
  6
CONTINUOUS
 62
    7
 10
2.2590030157884939
 20
42.412940295271142
 11
4.0409690270384999
 21
42.412940295271142
  0
LINE
  8
_0-0_
  6
CONTINUOUS
 62
    7
 10
4.2645758247886079
 20
42.36015389077113
 11
5.0826098135385109
 21
41.951136896396179
  0
LINE
  8
_0-0_
  6
CONTINUOUS
 62
    7
 10
5.359003015788403
 20
41.50392330089619
 11
5.359003015788403
 21
40.012940295271278
  0
LINE
  8
_0-0_
  6
CONTINUOUS
 62
    7
 10
5.859003015788403
 20
39.512940295271278
 11
10.051896234601827
 21
39.512940295271278
  0
LINE
  8
_0-0_
  6
CONTINUOUS
 62
    7
 10
10.40544962519516
 20
39.659386904677945
 11
11.612556406381827
 21
40.866493685864498
  0
LINE
  8
_0-0_
  6
CONTINUOUS
 62
    7
 10
11.759003015788494
 20
41.220047076457718
 11
11.759003015788494
 21
47.092363158677131
  0
LINE
  8
_0-0_
  6
CONTINUOUS
 62
    7
 10
11.799195394652997
 20
47.242363158677222
 11
11.868810636923627
 21
47.362940295271187
  0
LINE
  8
_0-0_
  6
CONTINUOUS
 62
    7
 10
11.868810636923627
 20
47.662940295271142
 11
11.799195394652997
 21
47.783517431865221
  0
LINE
  8
_0-0_
  6
CONTINUOUS
 62
    7
 10
11.759003015788494
 20
47.933517431865198
 11
11.759003015788494
 21
53.805833514084611
  0
LINE
  8
_0-0_
  6
CONTINUOUS
 62
    7
 10
11.612556406381827
 20
54.159386904677945
 11
10.40544962519516
 21
55.366493685864498
  0
LINE
  8
_0-0_
  6
CONTINUOUS
 62
    7
 10
10.051896234601827
 20
55.512940295271278
 11
5.859003015788403
 21
55.512940295271278
  0
LINE
  8
_0-0_
  6
CONTINUOUS
 62
    7
 10
5.359003015788403
 20
55.012940295271278
 11
5.359003015788403
 21
53.521957289646139
  0
LINE
  8
_0-0_
  6
CONTINUOUS
 62
    7
 10
5.0826098135385109
 20
53.074743694146264
 11
4.2645758247886079
 21
52.665726699771312
  0
LINE
  8
_0-0_
  6
CONTINUOUS
 62
    7
 10
4.0409690270384999
 20
52.612940295271187
 11
2.2590030157884939
 21
52.612940295271187
  0
LINE
  8
_0-0_
  6
CONTINUOUS
 62
    7
 10
1.7590030157884939
 20
53.112940295271187
 11
1.7590030157884939
 21
61.912940295271142
  0
LINE
  8
_0-0_
  6
CONTINUOUS
 62
    7
 10
2.2590030157884939
 20
62.412940295271142
 11
4.0409690270384999
 21
62.412940295271142
  0
LINE
  8
_0-0_
  6
CONTINUOUS
 62
    7
 10
4.2645758247886079
 20
62.36015389077113
 11
5.0826098135385109
 21
61.951136896396179
  0
LINE
  8
_0-0_
  6
CONTINUOUS
 62
    7
 10
5.359003015788403
 20
61.50392330089619
 11
5.359003015788403
 21
60.012940295271278
  0
LINE
  8
_0-0_
  6
CONTINUOUS
 62
    7
 10
5.859003015788403
 20
59.512940295271278
 11
10.051896234601827
 21
59.512940295271278
  0
LINE
  8
_0-0_
  6
CONTINUOUS
 62
    7
 10
10.40544962519516
 20
59.659386904677945
 11
11.612556406381827
 21
60.866493685864498
  0
LINE
  8
_0-0_
  6
CONTINUOUS
 62
    7
 10
11.759003015788494
 20
61.220047076457718
 11
11.759003015788494
 21
67.092363158677131
  0
LINE
  8
_0-0_
  6
CONTINUOUS
 62
    7
 10
11.799195394652997
 20
67.242363158677222
 11
11.868810636923627
 21
67.362940295271187
  0
LINE
  8
_0-0_
  6
CONTINUOUS
 62
    7
 10
11.868810636923627
 20
67.662940295271142
 11
11.799195394652997
 21
67.783517431865221
  0
LINE
  8
_0-0_
  6
CONTINUOUS
 62
    7
 10
11.759003015788494
 20
67.933517431865198
 11
11.759003015788494
 21
73.805833514084611
  0
LINE
  8
_0-0_
  6
CONTINUOUS
 62
    7
 10
11.612556406381827
 20
74.159386904677945
 11
10.40544962519516
 21
75.366493685864498
  0
LINE
  8
_0-0_
  6
CONTINUOUS
 62
    7
 10
10.051896234601827
 20
75.512940295271278
 11
5.859003015788403
 21
75.512940295271278
  0
LINE
  8
_0-0_
  6
CONTINUOUS
 62
    7
 10
5.359003015788403
 20
75.012940295271278
 11
5.359003015788403
 21
73.521957289646139
  0
LINE
  8
_0-0_
  6
CONTINUOUS
 62
    7
 10
5.0826098135385109
 20
73.074743694146264
 11
4.2645758247886079
 21
72.665726699771312
  0
LINE
  8
_0-0_
  6
CONTINUOUS
 62
    7
 10
4.0409690270384999
 20
72.612940295271187
 11
2.2590030157884939
 21
72.612940295271187
  0
LINE
  8
_0-0_
  6
CONTINUOUS
 62
    7
 10
1.7590030157884939
 20
73.112940295271187
 11
1.7590030157884939
 21
86.012940295271278
  0
LINE
  8
_0-0_
  6
CONTINUOUS
 62
    7
 10
3.2590030157884939
 20
87.512940295271278
 11
16.159003015788585
 21
87.512940295271278
  0
LINE
  8
_0-0_
  6
CONTINUOUS
 62
    7
 10
16.659003015788585
 20
87.012940295271278
 11
16.659003015788585
 21
85.230974284021158
  0
LINE
  8
_0-0_
  6
CONTINUOUS
 62
    7
 10
16.606216611288346
 20
85.007367486271164
 11
16.197199616913622
 21
84.189333497521261
  0
LINE
  8
_0-0_
  6
CONTINUOUS
 62
    7
 10
15.749986021413406
 20
83.912940295271142
 11
14.259003015788494
 21
83.912940295271142
  0
LINE
  8
_0-0_
  6
CONTINUOUS
 62
    7
 10
13.759003015788494
 20
83.412940295271142
 11
13.759003015788494
 21
79.220047076457718
  0
LINE
  8
_0-0_
  6
CONTINUOUS
 62
    7
 10
13.90544962519516
 20
78.866493685864498
 11
15.112556406381827
 21
77.659386904677945
  0
LINE
  8
_0-0_
  6
CONTINUOUS
 62
    7
 10
15.466109796975161
 20
77.512940295271278
 11
28.051896234601827
 21
77.512940295271278
  0
LINE
  8
_0-0_
  6
CONTINUOUS
 62
    7
 10
28.40544962519516
 20
77.659386904677945
 11
29.612556406381827
 21
78.866493685864498
  0
LINE
  8
_0-0_
  6
CONTINUOUS
 62
    7
 10
29.759003015788494
 20
79.220047076457718
 11
29.759003015788494
 21
83.412940295271142
  0
LINE
  8
_0-0_
  6
CONTINUOUS
 62
    7
 10
29.259003015788494
 20
83.912940295271142
 11
27.768020010163582
 21
83.912940295271142
  0
LINE
  8
_0-0_
  6
CONTINUOUS
 62
    7
 10
27.320806414663366
 20
84.189333497521261
 11
26.911789420288642
 21
85.007367486271164
  0
LINE
  8
_0-0_
  6
CONTINUOUS
 62
    7
 10
26.859003015788403
 20
85.230974284021045
 11
26.859003015788403
 21
87.012940295271278
  0
LINE
  8
_0-0_
  6
CONTINUOUS
 62
    7
 10
27.359003015788403
 20
87.512940295271278
 11
40.259003015788494
 21
87.512940295271278
  0
LINE
  8
_0-0_
  6
CONTINUOUS
 62
    7
 10
29.259003015788494
 20
74.912940295271142
 11
29.259003015788494
 21
73.764606345110792
  0
LINE
  8
_0-0_
  6
CONTINUOUS
 62
    7
 10
29.009003015788494
 20
73.331593643218525
 11
26.359003015788403
 21
71.801615429866047
  0
LINE
  8
_0-0_
  6
CONTINUOUS
 62
    7
 10
25.859003015788403
 20
70.935590026081513
 11
25.859003015788403
 21
64.090290564460815
  0
LINE
  8
_0-0_
  6
CONTINUOUS
 62
    7
 10
26.359003015788403
 20
63.224265160676396
 11
29.009003015788494
 21
61.694286947323803
  0
LINE
  8
_0-0_
  6
CONTINUOUS
 62
    7
 10
29.259003015788494
 20
61.26127424543165
 11
29.259003015788494
 21
53.764606345110792
  0
LINE
  8
_0-0_
  6
CONTINUOUS
 62
    7
 10
29.009003015788494
 20
53.331593643218525
 11
26.359003015788403
 21
51.801615429866047
  0
LINE
  8
_0-0_
  6
CONTINUOUS
 62
    7
 10
25.859003015788403
 20
50.935590026081513
 11
25.859003015788403
 21
44.090290564460815
  0
LINE
  8
_0-0_
  6
CONTINUOUS
 62
    7
 10
26.359003015788403
 20
43.224265160676396
 11
29.009003015788494
 21
41.694286947323803
  0
LINE
  8
_0-0_
  6
CONTINUOUS
 62
    7
 10
29.259003015788494
 20
41.26127424543165
 11
29.259003015788494
 21
33.764606345110792
  0
LINE
  8
_0-0_
  6
CONTINUOUS
 62
    7
 10
29.009003015788494
 20
33.331593643218525
 11
26.359003015788403
 21
31.801615429866047
  0
LINE
  8
_0-0_
  6
CONTINUOUS
 62
    7
 10
25.859003015788403
 20
30.935590026081513
 11
25.859003015788403
 21
24.090290564460815
  0
LINE
  8
_0-0_
  6
CONTINUOUS
 62
    7
 10
26.359003015788403
 20
23.224265160676396
 11
29.009003015788494
 21
21.694286947323803
  0
LINE
  8
_0-0_
  6
CONTINUOUS
 62
    7
 10
29.259003015788494
 20
21.26127424543165
 11
29.259003015788494
 21
20.112940295271187
  0
LINE
  8
_0-0_
  6
CONTINUOUS
 62
    7
 10
28.759003015788494
 20
19.612940295271187
 11
14.759003015788494
 21
19.612940295271187
  0
LINE
  8
_0-0_
  6
CONTINUOUS
 62
    7
 10
14.259003015788494
 20
20.112940295271187
 11
14.259003015788494
 21
21.26127424543165
  0
LINE
  8
_0-0_
  6
CONTINUOUS
 62
    7
 10
14.509003015788494
 20
21.694286947323803
 11
17.159003015788585
 21
23.224265160676396
  0
LINE
  8
_0-0_
  6
CONTINUOUS
 62
    7
 10
17.659003015788585
 20
24.090290564460815
 11
17.659003015788585
 21
30.935590026081513
  0
LINE
  8
_0-0_
  6
CONTINUOUS
 62
    7
 10
17.159003015788585
 20
31.801615429866047
 11
14.509003015788494
 21
33.331593643218525
  0
LINE
  8
_0-0_
  6
CONTINUOUS
 62
    7
 10
14.259003015788494
 20
33.764606345110792
 11
14.259003015788494
 21
41.261274245431764
  0
LINE
  8
_0-0_
  6
CONTINUOUS
 62
    7
 10
14.509003015788494
 20
41.694286947323917
 11
17.159003015788585
 21
43.224265160676396
  0
LINE
  8
_0-0_
  6
CONTINUOUS
 62
    7
 10
17.659003015788585
 20
44.090290564460815
 11
17.659003015788585
 21
50.935590026081513
  0
LINE
  8
_0-0_
  6
CONTINUOUS
 62
    7
 10
17.159003015788585
 20
51.801615429866047
 11
14.509003015788494
 21
53.331593643218525
  0
LINE
  8
_0-0_
  6
CONTINUOUS
 62
    7
 10
14.259003015788494
 20
53.764606345110792
 11
14.259003015788494
 21
61.26127424543165
  0
LINE
  8
_0-0_
  6
CONTINUOUS
 62
    7
 10
14.509003015788494
 20
61.694286947323803
 11
17.159003015788585
 21
63.224265160676396
  0
LINE
  8
_0-0_
  6
CONTINUOUS
 62
    7
 10
17.659003015788585
 20
64.090290564460815
 11
17.659003015788585
 21
70.935590026081513
  0
LINE
  8
_0-0_
  6
CONTINUOUS
 62
    7
 10
17.159003015788585
 20
71.801615429866047
 11
14.509003015788494
 21
73.331593643218525
  0
LINE
  8
_0-0_
  6
CONTINUOUS
 62
    7
 10
14.259003015788494
 20
73.764606345110792
 11
14.259003015788494
 21
74.912940295271142
  0
LINE
  8
_0-0_
  6
CONTINUOUS
 62
    7
 10
14.759003015788494
 20
75.412940295271142
 11
28.759003015788494
 21
75.412940295271142
  0
ARC
  8
_0-0_
  6
CONTINUOUS
 62
    7
 10
41.259003015788494
 20
61.912940295271142
 40
0.5
 50
0
 51
90
  0
ARC
  8
_0-0_
  6
CONTINUOUS
 62
    7
 10
39.477037004538488
 20
61.912940295271142
 40
0.5
 50
90
 51
116.56505117707799
  0
ARC
  8
_0-0_
  6
CONTINUOUS
 62
    7
 10
38.659003015788585
 20
61.50392330089619
 40
0.5
 50
116.56505117707805
 51
180.00000000000006
  0
ARC
  8
_0-0_
  6
CONTINUOUS
 62
    7
 10
37.659003015788585
 20
60.012940295271278
 40
0.5
 50
270
 51
0
  0
ARC
  8
_0-0_
  6
CONTINUOUS
 62
    7
 10
33.466109796975161
 20
60.012940295271278
 40
0.5
 50
225
 51
270
  0
ARC
  8
_0-0_
  6
CONTINUOUS
 62
    7
 10
32.259003015788494
 20
61.220047076457718
 40
0.5
 50
180
 51
225
  0
ARC
  8
_0-0_
  6
CONTINUOUS
 62
    7
 10
32.259003015788494
 20
73.805833514084611
 40
0.5
 50
134.99999999999994
 51
179.99999999999994
  0
ARC
  8
_0-0_
  6
CONTINUOUS
 62
    7
 10
33.466109796975161
 20
75.012940295271278
 40
0.5
 50
90
 51
135
  0
ARC
  8
_0-0_
  6
CONTINUOUS
 62
    7
 10
37.659003015788585
 20
75.012940295271278
 40
0.5
 50
0
 51
89.999999999999986
  0
ARC
  8
_0-0_
  6
CONTINUOUS
 62
    7
 10
38.659003015788585
 20
73.521957289646139
 40
0.5
 50
180
 51
243.43494882292094
  0
ARC
  8
_0-0_
  6
CONTINUOUS
 62
    7
 10
39.477037004538488
 20
73.112940295271187
 40
0.5
 50
243.43494882292063
 51
270
  0
ARC
  8
_0-0_
  6
CONTINUOUS
 62
    7
 10
41.259003015788494
 20
73.112940295271187
 40
0.5
 50
270
 51
0
  0
ARC
  8
_0-0_
  6
CONTINUOUS
 62
    7
 10
31.459003015788767
 20
67.092363158677131
 40
0.2999999999999998
 50
0
 51
29.999999999998007
  0
ARC
  8
_0-0_
  6
CONTINUOUS
 62
    7
 10
31.459003015788767
 20
67.933517431865198
 40
0.2999999999999998
 50
329.99999999999989
 51
0
  0
ARC
  8
_0-0_
  6
CONTINUOUS
 62
    7
 10
31.909003015788585
 20
67.512940295271278
 40
0.3000000000000113
 50
150.00000000000432
 51
209.99999999999298
  0
ARC
  8
_0-0_
  6
CONTINUOUS
 62
    7
 10
41.259003015788494
 20
21.912940295271142
 40
0.5
 50
0
 51
90
  0
ARC
  8
_0-0_
  6
CONTINUOUS
 62
    7
 10
39.477037004538488
 20
21.912940295271142
 40
0.5
 50
90
 51
116.56505117707799
  0
ARC
  8
_0-0_
  6
CONTINUOUS
 62
    7
 10
38.659003015788585
 20
21.50392330089619
 40
0.5
 50
116.56505117707805
 51
180.00000000000006
  0
ARC
  8
_0-0_
  6
CONTINUOUS
 62
    7
 10
37.659003015788585
 20
20.012940295271278
 40
0.5
 50
270
 51
0
  0
ARC
  8
_0-0_
  6
CONTINUOUS
 62
    7
 10
33.466109796975161
 20
20.012940295271278
 40
0.5
 50
225
 51
270
  0
ARC
  8
_0-0_
  6
CONTINUOUS
 62
    7
 10
32.259003015788494
 20
21.220047076457718
 40
0.5
 50
180
 51
225
  0
ARC
  8
_0-0_
  6
CONTINUOUS
 62
    7
 10
32.259003015788494
 20
33.805833514084611
 40
0.5
 50
134.99999999999994
 51
179.99999999999994
  0
ARC
  8
_0-0_
  6
CONTINUOUS
 62
    7
 10
33.466109796975161
 20
35.012940295271278
 40
0.5
 50
90
 51
135
  0
ARC
  8
_0-0_
  6
CONTINUOUS
 62
    7
 10
37.659003015788585
 20
35.012940295271278
 40
0.5
 50
0
 51
89.999999999999986
  0
ARC
  8
_0-0_
  6
CONTINUOUS
 62
    7
 10
38.659003015788585
 20
33.521957289646139
 40
0.5
 50
180
 51
243.43494882292094
  0
ARC
  8
_0-0_
  6
CONTINUOUS
 62
    7
 10
39.477037004538488
 20
33.112940295271187
 40
0.5
 50
243.43494882292063
 51
270
  0
ARC
  8
_0-0_
  6
CONTINUOUS
 62
    7
 10
41.259003015788494
 20
33.112940295271187
 40
0.5
 50
270
 51
0
  0
ARC
  8
_0-0_
  6
CONTINUOUS
 62
    7
 10
31.459003015788767
 20
27.092363158677131
 40
0.2999999999999998
 50
0
 51
29.999999999998007
  0
ARC
  8
_0-0_
  6
CONTINUOUS
 62
    7
 10
31.459003015788767
 20
27.933517431865198
 40
0.2999999999999998
 50
329.99999999999989
 51
0
  0
ARC
  8
_0-0_
  6
CONTINUOUS
 62
    7
 10
31.909003015788585
 20
27.512940295271278
 40
0.3000000000000113
 50
150.00000000000432
 51
209.99999999999298
  0
ARC
  8
_0-0_
  6
CONTINUOUS
 62
    7
 10
26.859003015788403
 20
70.935590026081513
 40
1
 50
120.00000000000017
 51
180
  0
ARC
  8
_0-0_
  6
CONTINUOUS
 62
    7
 10
26.859003015788403
 20
64.090290564460815
 40
1
 50
180
 51
239.99999999999983
  0
ARC
  8
_0-0_
  6
CONTINUOUS
 62
    7
 10
26.859003015788403
 20
50.935590026081513
 40
1
 50
119.99999999999946
 51
180
  0
ARC
  8
_0-0_
  6
CONTINUOUS
 62
    7
 10
26.859003015788403
 20
44.090290564460815
 40
1
 50
180
 51
239.99999999999983
  0
ARC
  8
_0-0_
  6
CONTINUOUS
 62
    7
 10
26.859003015788403
 20
30.935590026081513
 40
1
 50
120.00000000000017
 51
180
  0
ARC
  8
_0-0_
  6
CONTINUOUS
 62
    7
 10
26.859003015788403
 20
24.090290564460815
 40
1
 50
180
 51
239.99999999999983
  0
ARC
  8
_0-0_
  6
CONTINUOUS
 62
    7
 10
28.759003015788494
 20
73.764606345110792
 40
0.5
 50
300.00000000000006
 51
0.0000000000000127
  0
ARC
  8
_0-0_
  6
CONTINUOUS
 62
    7
 10
28.759003015788494
 20
61.26127424543165
 40
0.5
 50
0
 51
59.999999999999957
  0
ARC
  8
_0-0_
  6
CONTINUOUS
 62
    7
 10
28.759003015788494
 20
53.764606345110792
 40
0.5
 50
299.99999999999915
 51
0.0000000000000127
  0
ARC
  8
_0-0_
  6
CONTINUOUS
 62
    7
 10
28.759003015788494
 20
41.26127424543165
 40
0.5
 50
0
 51
59.999999999999957
  0
ARC
  8
_0-0_
  6
CONTINUOUS
 62
    7
 10
28.759003015788494
 20
33.764606345110792
 40
0.5
 50
300.00000000000006
 51
0.0000000000000127
  0
ARC
  8
_0-0_
  6
CONTINUOUS
 62
    7
 10
28.759003015788494
 20
21.26127424543165
 40
0.5
 50
0
 51
59.999999999999957
  0
ARC
  8
_0-0_
  6
CONTINUOUS
 62
    7
 10
28.759003015788494
 20
74.912940295271142
 40
0.5
 50
0
 51
90
  0
ARC
  8
_0-0_
  6
CONTINUOUS
 62
    7
 10
16.659003015788585
 20
24.090290564460815
 40
1
 50
300.00000000000017
 51
0
  0
ARC
  8
_0-0_
  6
CONTINUOUS
 62
    7
 10
16.659003015788585
 20
30.935590026081513
 40
1
 50
0
 51
59.999999999999829
  0
ARC
  8
_0-0_
  6
CONTINUOUS
 62
    7
 10
16.659003015788585
 20
44.090290564460815
 40
1
 50
299.99999999999943
 51
0
  0
ARC
  8
_0-0_
  6
CONTINUOUS
 62
    7
 10
14.759003015788494
 20
21.26127424543165
 40
0.5
 50
120.00000000000004
 51
180
  0
ARC
  8
_0-0_
  6
CONTINUOUS
 62
    7
 10
14.759003015788494
 20
33.764606345110792
 40
0.5
 50
180
 51
239.99999999999994
  0
ARC
  8
_0-0_
  6
CONTINUOUS
 62
    7
 10
14.759003015788494
 20
41.261274245431764
 40
0.5
 50
119.99999999999915
 51
179.99999999999997
  0
ARC
  8
_0-0_
  6
CONTINUOUS
 62
    7
 10
14.759003015788494
 20
20.112940295271187
 40
0.5
 50
180
 51
270
  0
ARC
  8
_0-0_
  6
CONTINUOUS
 62
    7
 10
16.659003015788585
 20
70.935590026081513
 40
1
 50
0
 51
59.999999999999829
  0
ARC
  8
_0-0_
  6
CONTINUOUS
 62
    7
 10
16.659003015788585
 20
64.090290564460815
 40
1
 50
300.00000000000017
 51
0
  0
ARC
  8
_0-0_
  6
CONTINUOUS
 62
    7
 10
16.659003015788585
 20
50.935590026081513
 40
1
 50
0
 51
60.000000000000533
  0
ARC
  8
_0-0_
  6
CONTINUOUS
 62
    7
 10
14.759003015788494
 20
73.764606345110792
 40
0.5
 50
179.99999999999997
 51
239.99999999999994
  0
ARC
  8
_0-0_
  6
CONTINUOUS
 62
    7
 10
14.759003015788494
 20
61.26127424543165
 40
0.5
 50
120.00000000000004
 51
180
  0
ARC
  8
_0-0_
  6
CONTINUOUS
 62
    7
 10
14.759003015788494
 20
53.764606345110792
 40
0.5
 50
180.00000000000006
 51
240.00000000000088
  0
ARC
  8
_0-0_
  6
CONTINUOUS
 62
    7
 10
14.759003015788494
 20
74.912940295271142
 40
0.5
 50
90
 51
180
  0
ARC
  8
_0-0_
  6
CONTINUOUS
 62
    7
 10
28.759003015788494
 20
20.112940295271187
 40
0.5
 50
270
 51
0
  0
ARC
  8
_0-0_
  6
CONTINUOUS
 62
    7
 10
31.909003015788585
 20
47.512940295271278
 40
0.3000000000000113
 50
150.00000000000432
 51
209.99999999999298
  0
ARC
  8
_0-0_
  6
CONTINUOUS
 62
    7
 10
31.459003015788767
 20
47.933517431865198
 40
0.2999999999999998
 50
329.99999999999989
 51
0
  0
ARC
  8
_0-0_
  6
CONTINUOUS
 62
    7
 10
31.459003015788767
 20
47.092363158677131
 40
0.2999999999999998
 50
0
 51
29.999999999998007
  0
ARC
  8
_0-0_
  6
CONTINUOUS
 62
    7
 10
41.259003015788494
 20
53.112940295271187
 40
0.5
 50
270
 51
0
  0
ARC
  8
_0-0_
  6
CONTINUOUS
 62
    7
 10
39.477037004538488
 20
53.112940295271187
 40
0.5
 50
243.43494882292063
 51
270
  0
ARC
  8
_0-0_
  6
CONTINUOUS
 62
    7
 10
38.659003015788585
 20
53.521957289646139
 40
0.5
 50
180
 51
243.43494882292094
  0
ARC
  8
_0-0_
  6
CONTINUOUS
 62
    7
 10
37.659003015788585
 20
55.012940295271278
 40
0.5
 50
0
 51
89.999999999999986
  0
ARC
  8
_0-0_
  6
CONTINUOUS
 62
    7
 10
33.466109796975161
 20
55.012940295271278
 40
0.5
 50
90
 51
135
  0
ARC
  8
_0-0_
  6
CONTINUOUS
 62
    7
 10
32.259003015788494
 20
53.805833514084611
 40
0.5
 50
134.99999999999994
 51
179.99999999999994
  0
ARC
  8
_0-0_
  6
CONTINUOUS
 62
    7
 10
32.259003015788494
 20
41.220047076457718
 40
0.5
 50
180
 51
225
  0
ARC
  8
_0-0_
  6
CONTINUOUS
 62
    7
 10
33.466109796975161
 20
40.012940295271278
 40
0.5
 50
225
 51
270
  0
ARC
  8
_0-0_
  6
CONTINUOUS
 62
    7
 10
37.659003015788585
 20
40.012940295271278
 40
0.5
 50
270
 51
0
  0
ARC
  8
_0-0_
  6
CONTINUOUS
 62
    7
 10
38.659003015788585
 20
41.50392330089619
 40
0.5
 50
116.56505117707805
 51
180.00000000000006
  0
ARC
  8
_0-0_
  6
CONTINUOUS
 62
    7
 10
39.477037004538488
 20
41.912940295271142
 40
0.5
 50
90
 51
116.56505117707799
  0
ARC
  8
_0-0_
  6
CONTINUOUS
 62
    7
 10
41.259003015788494
 20
41.912940295271142
 40
0.5
 50
0
 51
90
  0
CIRCLE
  8
_0-0_
  6
CONTINUOUS
 62
    7
 10
35.759003015788494
 20
81.512940295271278
 40
3.3999999999999999
  0
ARC
  8
_0-0_
  6
CONTINUOUS
 62
    7
 10
40.259003015788494
 20
86.012940295271278
 40
1.5
 50
0
 51
90
  0
ARC
  8
_0-0_
  6
CONTINUOUS
 62
    7
 10
27.359003015788403
 20
87.012940295271278
 40
0.5
 50
90
 51
180
  0
ARC
  8
_0-0_
  6
CONTINUOUS
 62
    7
 10
27.359003015788403
 20
85.230974284021045
 40
0.5
 50
180
 51
206.565051177078
  0
ARC
  8
_0-0_
  6
CONTINUOUS
 62
    7
 10
27.768020010163582
 20
84.412940295271142
 40
0.5
 50
206.565051177078
 51
270.00000000000006
  0
ARC
  8
_0-0_
  6
CONTINUOUS
 62
    7
 10
29.259003015788494
 20
83.412940295271142
 40
0.5
 50
0
 51
90
  0
ARC
  8
_0-0_
  6
CONTINUOUS
 62
    7
 10
29.259003015788494
 20
79.220047076457718
 40
0.5
 50
315
 51
0
  0
ARC
  8
_0-0_
  6
CONTINUOUS
 62
    7
 10
28.051896234601827
 20
78.012940295271278
 40
0.5
 50
270
 51
315
  0
ARC
  8
_0-0_
  6
CONTINUOUS
 62
    7
 10
15.466109796975161
 20
78.012940295271278
 40
0.5
 50
224.99999999999994
 51
269.99999999999994
  0
ARC
  8
_0-0_
  6
CONTINUOUS
 62
    7
 10
14.259003015788494
 20
79.220047076457718
 40
0.5
 50
180
 51
225
  0
ARC
  8
_0-0_
  6
CONTINUOUS
 62
    7
 10
14.259003015788494
 20
83.412940295271142
 40
0.5
 50
90
 51
180
  0
ARC
  8
_0-0_
  6
CONTINUOUS
 62
    7
 10
15.749986021413406
 20
84.412940295271142
 40
0.5
 50
270
 51
333.43494882292094
  0
ARC
  8
_0-0_
  6
CONTINUOUS
 62
    7
 10
16.159003015788585
 20
85.230974284021158
 40
0.5
 50
333.43494882292066
 51
0
  0
ARC
  8
_0-0_
  6
CONTINUOUS
 62
    7
 10
16.159003015788585
 20
87.012940295271278
 40
0.5
 50
0
 51
90
  0
CIRCLE
  8
_0-0_
  6
CONTINUOUS
 62
    7
 10
35.759003015788494
 20
13.512940295271278
 40
3.3999999999999999
  0
ARC
  8
_0-0_
  6
CONTINUOUS
 62
    7
 10
40.259003015788494
 20
9.012940295271278
 40
1.5
 50
270
 51
0
  0
ARC
  8
_0-0_
  6
CONTINUOUS
 62
    7
 10
27.359003015788403
 20
8.012940295271278
 40
0.5
 50
180
 51
270
  0
ARC
  8
_0-0_
  6
CONTINUOUS
 62
    7
 10
27.359003015788403
 20
9.794906306521284
 40
0.5
 50
153.434948822922
 51
179.99999999999994
  0
ARC
  8
_0-0_
  6
CONTINUOUS
 62
    7
 10
27.768020010163582
 20
10.612940295271187
 40
0.5
 50
89.999999999999929
 51
153.434948822922
  0
ARC
  8
_0-0_
  6
CONTINUOUS
 62
    7
 10
29.259003015788494
 20
11.612940295271187
 40
0.5
 50
270
 51
0
  0
ARC
  8
_0-0_
  6
CONTINUOUS
 62
    7
 10
29.259003015788494
 20
15.805833514084611
 40
0.5
 50
0
 51
45
  0
ARC
  8
_0-0_
  6
CONTINUOUS
 62
    7
 10
28.051896234601827
 20
17.012940295271278
 40
0.5
 50
45
 51
90
  0
ARC
  8
_0-0_
  6
CONTINUOUS
 62
    7
 10
2.2590030157884939
 20
61.912940295271142
 40
0.5
 50
90
 51
180
  0
ARC
  8
_0-0_
  6
CONTINUOUS
 62
    7
 10
4.0409690270384999
 20
61.912940295271142
 40
0.5
 50
63.43494882292201
 51
90
  0
ARC
  8
_0-0_
  6
CONTINUOUS
 62
    7
 10
4.859003015788403
 20
61.50392330089619
 40
0.5
 50
359.99999999999994
 51
63.434948822921967
  0
ARC
  8
_0-0_
  6
CONTINUOUS
 62
    7
 10
5.859003015788403
 20
60.012940295271278
 40
0.5
 50
180
 51
270
  0
ARC
  8
_0-0_
  6
CONTINUOUS
 62
    7
 10
10.051896234601827
 20
60.012940295271278
 40
0.5
 50
270
 51
315
  0
ARC
  8
_0-0_
  6
CONTINUOUS
 62
    7
 10
11.259003015788494
 20
61.220047076457718
 40
0.5
 50
315
 51
0
  0
ARC
  8
_0-0_
  6
CONTINUOUS
 62
    7
 10
11.259003015788494
 20
73.805833514084611
 40
0.5
 50
0.0000000000000508
 51
45.00000000000005
  0
ARC
  8
_0-0_
  6
CONTINUOUS
 62
    7
 10
10.051896234601827
 20
75.012940295271278
 40
0.5
 50
45
 51
90
  0
ARC
  8
_0-0_
  6
CONTINUOUS
 62
    7
 10
5.859003015788403
 20
75.012940295271278
 40
0.5
 50
90.000000000000028
 51
180
  0
ARC
  8
_0-0_
  6
CONTINUOUS
 62
    7
 10
4.859003015788403
 20
73.521957289646139
 40
0.5
 50
296.56505117707906
 51
0
  0
ARC
  8
_0-0_
  6
CONTINUOUS
 62
    7
 10
4.0409690270384999
 20
73.112940295271187
 40
0.5
 50
270
 51
296.56505117707934
  0
ARC
  8
_0-0_
  6
CONTINUOUS
 62
    7
 10
2.2590030157884939
 20
73.112940295271187
 40
0.5
 50
180
 51
270
  0
ARC
  8
_0-0_
  6
CONTINUOUS
 62
    7
 10
12.059003015788676
 20
67.092363158677131
 40
0.2999999999999998
 50
150.00000000000199
 51
180
  0
ARC
  8
_0-0_
  6
CONTINUOUS
 62
    7
 10
12.059003015788676
 20
67.933517431865198
 40
0.2999999999999998
 50
180
 51
210.00000000000011
  0
ARC
  8
_0-0_
  6
CONTINUOUS
 62
    7
 10
11.609003015788403
 20
67.512940295271278
 40
0.3000000000000113
 50
330.00000000000699
 51
29.999999999995691
  0
ARC
  8
_0-0_
  6
CONTINUOUS
 62
    7
 10
2.2590030157884939
 20
21.912940295271142
 40
0.5
 50
90
 51
180
  0
ARC
  8
_0-0_
  6
CONTINUOUS
 62
    7
 10
4.0409690270384999
 20
21.912940295271142
 40
0.5
 50
63.43494882292201
 51
90
  0
ARC
  8
_0-0_
  6
CONTINUOUS
 62
    7
 10
4.859003015788403
 20
21.50392330089619
 40
0.5
 50
359.99999999999994
 51
63.434948822921967
  0
ARC
  8
_0-0_
  6
CONTINUOUS
 62
    7
 10
5.859003015788403
 20
20.012940295271278
 40
0.5
 50
180
 51
270
  0
ARC
  8
_0-0_
  6
CONTINUOUS
 62
    7
 10
10.051896234601827
 20
20.012940295271278
 40
0.5
 50
270
 51
315
  0
ARC
  8
_0-0_
  6
CONTINUOUS
 62
    7
 10
11.259003015788494
 20
21.220047076457718
 40
0.5
 50
315
 51
0
  0
ARC
  8
_0-0_
  6
CONTINUOUS
 62
    7
 10
11.259003015788494
 20
33.805833514084611
 40
0.5
 50
0.0000000000000508
 51
45.00000000000005
  0
ARC
  8
_0-0_
  6
CONTINUOUS
 62
    7
 10
10.051896234601827
 20
35.012940295271278
 40
0.5
 50
45
 51
90
  0
ARC
  8
_0-0_
  6
CONTINUOUS
 62
    7
 10
5.859003015788403
 20
35.012940295271278
 40
0.5
 50
90.000000000000028
 51
180
  0
ARC
  8
_0-0_
  6
CONTINUOUS
 62
    7
 10
4.859003015788403
 20
33.521957289646139
 40
0.5
 50
296.56505117707906
 51
0
  0
ARC
  8
_0-0_
  6
CONTINUOUS
 62
    7
 10
4.0409690270384999
 20
33.112940295271187
 40
0.5
 50
270
 51
296.56505117707934
  0
ARC
  8
_0-0_
  6
CONTINUOUS
 62
    7
 10
2.2590030157884939
 20
33.112940295271187
 40
0.5
 50
180
 51
270
  0
ARC
  8
_0-0_
  6
CONTINUOUS
 62
    7
 10
12.059003015788221
 20
27.092363158677131
 40
0.2999999999999998
 50
150.00000000000199
 51
180
  0
ARC
  8
_0-0_
  6
CONTINUOUS
 62
    7
 10
12.059003015788221
 20
27.933517431865198
 40
0.2999999999999998
 50
180
 51
210.00000000000011
  0
ARC
  8
_0-0_
  6
CONTINUOUS
 62
    7
 10
11.609003015788403
 20
27.512940295271278
 40
0.3000000000000113
 50
330.00000000000699
 51
29.999999999995691
  0
ARC
  8
_0-0_
  6
CONTINUOUS
 62
    7
 10
11.609003015788403
 20
47.512940295271278
 40
0.3000000000000113
 50
330.00000000000699
 51
29.999999999995691
  0
ARC
  8
_0-0_
  6
CONTINUOUS
 62
    7
 10
12.059003015788676
 20
47.933517431865198
 40
0.2999999999999998
 50
180
 51
210.00000000000011
  0
ARC
  8
_0-0_
  6
CONTINUOUS
 62
    7
 10
12.059003015788676
 20
47.092363158677131
 40
0.2999999999999998
 50
150.00000000000199
 51
180
  0
ARC
  8
_0-0_
  6
CONTINUOUS
 62
    7
 10
2.2590030157884939
 20
53.112940295271187
 40
0.5
 50
180
 51
270
  0
ARC
  8
_0-0_
  6
CONTINUOUS
 62
    7
 10
4.0409690270384999
 20
53.112940295271187
 40
0.5
 50
270
 51
296.56505117707934
  0
ARC
  8
_0-0_
  6
CONTINUOUS
 62
    7
 10
4.859003015788403
 20
53.521957289646139
 40
0.5
 50
296.56505117707906
 51
0
  0
ARC
  8
_0-0_
  6
CONTINUOUS
 62
    7
 10
5.859003015788403
 20
55.012940295271278
 40
0.5
 50
90.000000000000028
 51
180
  0
ARC
  8
_0-0_
  6
CONTINUOUS
 62
    7
 10
10.051896234601827
 20
55.012940295271278
 40
0.5
 50
45
 51
90
  0
ARC
  8
_0-0_
  6
CONTINUOUS
 62
    7
 10
11.259003015788494
 20
53.805833514084611
 40
0.5
 50
0.0000000000000508
 51
45.00000000000005
  0
ARC
  8
_0-0_
  6
CONTINUOUS
 62
    7
 10
11.259003015788494
 20
41.220047076457718
 40
0.5
 50
315
 51
0
  0
ARC
  8
_0-0_
  6
CONTINUOUS
 62
    7
 10
10.051896234601827
 20
40.012940295271278
 40
0.5
 50
270
 51
315
  0
ARC
  8
_0-0_
  6
CONTINUOUS
 62
    7
 10
5.859003015788403
 20
40.012940295271278
 40
0.5
 50
180
 51
270
  0
ARC
  8
_0-0_
  6
CONTINUOUS
 62
    7
 10
4.859003015788403
 20
41.50392330089619
 40
0.5
 50
359.99999999999994
 51
63.434948822921967
  0
ARC
  8
_0-0_
  6
CONTINUOUS
 62
    7
 10
4.0409690270384999
 20
41.912940295271142
 40
0.5
 50
63.43494882292201
 51
90
  0
ARC
  8
_0-0_
  6
CONTINUOUS
 62
    7
 10
2.2590030157884939
 20
41.912940295271142
 40
0.5
 50
90
 51
180
  0
CIRCLE
  8
_0-0_
  6
CONTINUOUS
 62
    7
 10
7.7590030157884939
 20
81.512940295271278
 40
3.3999999999999999
  0
ARC
  8
_0-0_
  6
CONTINUOUS
 62
    7
 10
3.2590030157884939
 20
86.012940295271278
 40
1.5
 50
90
 51
180
  0
CIRCLE
  8
_0-0_
  6
CONTINUOUS
 62
    7
 10
7.7590030157884939
 20
13.512940295271278
 40
3.3999999999999999
  0
ARC
  8
_0-0_
  6
CONTINUOUS
 62
    7
 10
3.2590030157884939
 20
9.012940295271278
 40
1.5
 50
180
 51
270
  0
ARC
  8
_0-0_
  6
CONTINUOUS
 62
    7
 10
16.159003015788585
 20
8.012940295271278
 40
0.5
 50
270
 51
0
  0
ARC
  8
_0-0_
  6
CONTINUOUS
 62
    7
 10
16.159003015788585
 20
9.794906306521284
 40
0.5
 50
359.99999999999994
 51
26.565051177077983
  0
ARC
  8
_0-0_
  6
CONTINUOUS
 62
    7
 10
15.749986021413406
 20
10.612940295271187
 40
0.5
 50
26.565051177078018
 51
90.000000000000028
  0
ARC
  8
_0-0_
  6
CONTINUOUS
 62
    7
 10
14.259003015788494
 20
11.612940295271187
 40
0.5
 50
179.99999999999997
 51
270
  0
ARC
  8
_0-0_
  6
CONTINUOUS
 62
    7
 10
14.259003015788494
 20
15.805833514084611
 40
0.5
 50
134.99999999999997
 51
179.99999999999997
  0
ARC
  8
_0-0_
  6
CONTINUOUS
 62
    7
 10
15.466109796975161
 20
17.012940295271278
 40
0.5
 50
89.999999999999972
 51
134.99999999999997
  0
LINE
  8
_0-1_
  6
CENTER1
 62
  152
 10
39.159003015788585
 20
81.512940295271278
 11
32.359003015788403
 21
81.512940295271278
  0
LINE
  8
_0-1_
  6
CENTER1
 62
  152
 10
35.759003015788494
 20
78.112940295271187
 11
35.759003015788494
 21
84.912940295271142
  0
LINE
  8
_0-1_
  6
CENTER1
 62
  152
 10
21.759003015788494
 20
87.512940295271278
 11
21.759003015788494
 21
7.512940295271278
  0
LINE
  8
_0-1_
  6
CENTER1
 62
  152
 10
11.159003015788585
 20
13.512940295271278
 11
4.359003015788403
 21
13.512940295271278
  0
LINE
  8
_0-1_
  6
CENTER1
 62
  152
 10
7.7590030157884939
 20
10.112940295271187
 11
7.7590030157884939
 21
16.912940295271142
  0
LINE
  8
_0-1_
  6
CENTER1
 62
  152
 10
1.7590130157886961
 20
27.512940295271278
 11
41.759004015788378
 21
27.512940295271278
  0
LINE
  8
_0-1_
  6
CENTER1
 62
  152
 10
39.159003015788585
 20
13.512940295271278
 11
32.359003015788403
 21
13.512940295271278
  0
LINE
  8
_0-1_
  6
CENTER1
 62
  152
 10
35.759003015788494
 20
10.112940295271187
 11
35.759003015788494
 21
16.912940295271142
  0
LINE
  8
_0-1_
  6
CENTER1
 62
  152
 10
41.759004015788378
 20
47.512940295271278
 11
1.7590130157886961
 21
47.512940295271278
  0
LINE
  8
_0-1_
  6
CENTER1
 62
  152
 10
1.7590130157886961
 20
67.512940295271278
 11
41.759004015788378
 21
67.512940295271278
  0
LINE
  8
_0-1_
  6
CENTER1
 62
  152
 10
4.359003015788403
 20
81.512940295271278
 11
11.159003015788585
 21
81.512940295271278
  0
LINE
  8
_0-1_
  6
CENTER1
 62
  152
 10
7.7590030157884939
 20
78.112940295271187
 11
7.7590030157884939
 21
84.912940295271142
  0
ENDSEC
  0
EOF
