  0
SECTION
  2
HEADER
  9
$ACADVER
  1
AC1009
  9
$INSBASE
 10
0
 20
0
 30
0
  9
$EXTMIN
 10
0
 20
0
  9
$EXTMAX
 10
1189
 20
841
  9
$LIMMIN
 10
0
 20
0
  9
$LIMMAX
 10
1189
 20
841
  9
$LTSCALE
 40
1
  0
ENDSEC
  0
SECTION
  2
TABLES
  0
TABLE
  2
LTYPE
 70
     9
  0
LTYPE
  2
CONTINUOUS
 70
    64
  3
実線
 72
    65
 73
     0
 40
0.0
  0
LTYPE
  2
DASHED1
 70
    64
  3
--  --  --  --  --  --  --  --  
 72
    65
 73
     2
 40
2.5
 49
1.25
 49
-1.25
  0
LTYPE
  2
DASHED2
 70
    64
  3
----    ----    ----    ----    
 72
    65
 73
     2
 40
5.0
 49
2.5
 49
-2.5
  0
LTYPE
  2
DASHED3
 70
    64
  3
------  ------  ------  ------  
 72
    65
 73
     2
 40
5.0
 49
3.75
 49
-1.25
  0
LTYPE
  2
CENTER1
 70
    64
  3
----- - ----- - ----- - ----- - 
 72
    65
 73
     4
 40
10.0
 49
6.25
 49
-1.25
 49
1.25
 49
-1.25
  0
LTYPE
  2
CENTER2
 70
    64
  3
----------  --  ----------  --  
 72
    65
 73
     4
 40
20.0
 49
12.5
 49
-2.5
 49
2.5
 49
-2.5
  0
LTYPE
  2
PHANTOM1
 70
    64
  3
--- - - --- - - --- - - --- - - 
 72
    65
 73
     6
 40
10.0
 49
3.25
 49
-1.25
 49
1.25
 49
-1.25
 49
1.25
 49
-1.25
  0
LTYPE
  2
PHANTOM2
 70
    64
  3
--------  -  -  --------  -  -  
 72
    65
 73
     6
 40
20.0
 49
10.0
 49
-2.5
 49
1.25
 49
-2.5
 49
1.25
 49
-2.5
  0
LTYPE
  2
DOT
 70
    64
  3
-   -   -   -   -   -   -   -   
 72
    65
 73
     2
 40
2.5
 49
0.625
 49
-1.875
  0
LTYPE
  2
DUMMY
 70
    64
  3
ダミー
 72
    65
 73
     0
 40
0.0
  0
LTYPE
  2
RAND1
 70
    64
  3
ランダム線1
 72
    65
 73
     4
 40
10.0
 49
1.0
 49
-2.0
 49
3.0
 49
-4.0
  0
LTYPE
  2
RAND2
 70
    64
  3
ランダム線2
 72
    65
 73
     4
 40
14.0
 49
2.0
 49
-3.0
 49
4.0
 49
-5.0
  0
LTYPE
  2
RAND3
 70
    64
  3
ランダム線3
 72
    65
 73
     4
 40
18.0
 49
3.0
 49
-4.0
 49
5.0
 49
-6.0
  0
LTYPE
  2
RAND4
 70
    64
  3
ランダム線4
 72
    65
 73
     4
 40
22.0
 49
4.0
 49
-5.0
 49
6.0
 49
-7.0
  0
LTYPE
  2
RAND5
 70
    64
  3
ランダム線5
 72
    65
 73
     4
 40
26.0
 49
5.0
 49
-6.0
 49
7.0
 49
-8.0
  0
LTYPE
  2
LONG1
 70
    64
  3
----------  --  ----------  --  
 72
    65
 73
     4
 40
40.0
 49
32.5
 49
-2.5
 49
2.5
 49
-2.5
  0
LTYPE
  2
LONG2
 70
    64
  3
--------  -  -  --------  -  -  
 72
    65
 73
     6
 40
40.0
 49
30.0
 49
-2.5
 49
1.25
 49
-2.5
 49
1.25
 49
-2.5
  0
LTYPE
  2
LONG3
 70
    64
  3
+++++++++++++++..+++++++++++++++
 72
    65
 73
     2
 40
40.0
 49
37.5
 49
-2.5
  0
LTYPE
  2
LONG4
 70
    64
  3
+++++++++++++++..+++++++++++++++
 72
    65
 73
     2
 40
80.0
 49
75.0
 49
-5.0
  0
LTYPE
  2
LONG5
 70
    64
  3
----------  --  ----------  --  
 72
    65
 73
     4
 40
60.0
 49
37.5
 49
-7.5
 49
7.5
 49
-7.5
  0
LTYPE
  2
dashed
 70
   64
  3
-------   -------------   ------
 72
   65
 73
    2
 40
7.5
 49
6
 49
-1.5
  0
LTYPE
  2
dashed_spaced
 70
   64
  3
----        --------        ----
 72
   65
 73
    2
 40
12
 49
6
 49
-6
  0
LTYPE
  2
long_dashed_dotted
 70
   64
  3
------------- --- --------------
 72
   65
 73
    4
 40
15.25
 49
12
 49
-1.5
 49
0.25
 49
-1.5
  0
LTYPE
  2
long_dashed_double-dotted
 70
   64
  3
----------- --- --- ------------
 72
   65
 73
    6
 40
17
 49
12
 49
-1.5
 49
0.25
 49
-1.5
 49
0.25
 49
-1.5
  0
LTYPE
  2
long_dashed_triplicate-dotted
 70
   64
  3
--------- --- --- --- ----------
 72
   65
 73
    8
 40
18.75
 49
12
 49
-1.5
 49
0.25
 49
-1.5
 49
0.25
 49
-1.5
 49
0.25
 49
-1.5
  0
LTYPE
  2
dotted
 70
   64
  3
   -       -       -       -    
 72
   65
 73
    2
 40
1.75
 49
0.25
 49
-1.5
  0
LTYPE
  2
chain
 70
   64
  3
-------------- -- --------------
 72
   65
 73
    4
 40
18.5
 49
12
 49
-1.5
 49
3.5
 49
-1.5
  0
LTYPE
  2
chain_double_dash
 70
   64
  3
------------ -- -- -------------
 72
   65
 73
    6
 40
23.5
 49
12
 49
-1.5
 49
3.5
 49
-1.5
 49
3.5
 49
-1.5
  0
LTYPE
  2
dashed_dotted
 70
   64
  3
-----------     -     ----------
 72
   65
 73
    4
 40
9.25
 49
6
 49
-1.5
 49
0.25
 49
-1.5
  0
LTYPE
  2
double-dashed_dotted
 70
   64
  3
------   -----------   -   -----
 72
   65
 73
    6
 40
16.75
 49
6
 49
-1.5
 49
6
 49
-1.5
 49
0.25
 49
-1.5
  0
LTYPE
  2
dashed_double-dotted
 70
   64
  3
---------    -    -    ---------
 72
   65
 73
    6
 40
11
 49
6
 49
-1.5
 49
0.25
 49
-1.5
 49
0.25
 49
-1.5
  0
LTYPE
  2
double-dashed_double-dotted
 70
   64
  3
-----   ---------   -   -   ----
 72
   65
 73
    8
 40
18.5
 49
6
 49
-1.5
 49
6
 49
-1.5
 49
0.25
 49
-1.5
 49
0.25
 49
-1.5
  0
LTYPE
  2
dashed_triplicate-dotted
 70
   64
  3
-------    -    -    -    ------
 72
   65
 73
    8
 40
12.75
 49
6
 49
-1.5
 49
0.25
 49
-1.5
 49
0.25
 49
-1.5
 49
0.25
 49
-1.5
  0
LTYPE
  2
double-dashed_triplicate-dotted
 70
   64
  3
-----  ---------  -  -  -  -----
 72
   65
 73
   10
 40
20.25
 49
6
 49
-1.5
 49
6
 49
-1.5
 49
0.25
 49
-1.5
 49
0.25
 49
-1.5
 49
0.25
 49
-1.5
  0
LTYPE
  2
undefined
 70
   64
  3
--------------------------------
 72
   65
 73
    0
 40
0
  0
ENDTAB
  0
TABLE
  2
STYLE
  5
3
100
AcDbSymbolTable
 70
     1
  0
STYLE
  5
10
100
AcDbSymbolTableRecord
100
AcDbTextStyleTableRecord
  2
STANDARD
 70
     0
 40
0.0
 41
1.0
 50
0.0
 71
     0
 42
0.2
  3
txt
  4
bigfont.shx
  0
STYLE
  5
26
100
AcDbSymbolTableRecord
100
AcDbTextStyleTableRecord
  2
TATEGAKI
 70
    68
 40
0.0
 41
1.0
 50
0.0
 71
     0
 42
1.0
  3
txt
  4
bigfont.shx
  0
ENDTAB
  0
TABLE
  2
LAYER
 70
    4
  0
LAYER
  2
_0-0_
 70
   64
 62
    7
  6
CONTINUOUS
  0
LAYER
  2
_0-1_
 70
   64
 62
    7
  6
CONTINUOUS
  0
LAYER
  2
_0-f_
 70
   64
 62
    7
  6
CONTINUOUS
  0
LAYER
  2
ADD_LINE
 70
   64
 62
    7
  6
CONTINUOUS
  0
ENDTAB
  0
ENDSEC
  0
SECTION
  2
BLOCKS
  0
ENDSEC
  0
SECTION
  2
ENTITIES
  0
TEXT
  8
_0-f_
 62
    7
 10
1.1820745372835972
 20
1.3439859164645895
 40
4.2999999999999998
 41
0.744186046511628
 50
0
  1
F48L
  0
LINE
  8
_0-0_
  6
CONTINUOUS
 62
    7
 10
41.032404943528036
 20
8.1398645851813285
 11
28.132404943527945
 21
8.1398645851813285
  0
LINE
  8
_0-0_
  6
CONTINUOUS
 62
    7
 10
27.632404943527945
 20
8.6398645851813285
 11
27.632404943527945
 21
10.421830596431334
  0
LINE
  8
_0-0_
  6
CONTINUOUS
 62
    7
 10
27.685191348028184
 20
10.645437394181442
 11
28.094208342403363
 21
11.463471382931345
  0
LINE
  8
_0-0_
  6
CONTINUOUS
 62
    7
 10
28.541421937903124
 20
11.739864585181238
 11
30.032404943528036
 21
11.739864585181238
  0
LINE
  8
_0-0_
  6
CONTINUOUS
 62
    7
 10
30.532404943528036
 20
12.239864585181238
 11
30.532404943528036
 21
16.432757803994662
  0
LINE
  8
_0-0_
  6
CONTINUOUS
 62
    7
 10
30.385958334121369
 20
16.786311194587995
 11
29.178851552934702
 21
17.993417975774662
  0
LINE
  8
_0-0_
  6
CONTINUOUS
 62
    7
 10
28.825298162341369
 20
18.139864585181328
 11
16.239511724714703
 21
18.139864585181328
  0
LINE
  8
_0-0_
  6
CONTINUOUS
 62
    7
 10
15.885958334121369
 20
17.993417975774662
 11
14.678851552934702
 21
16.786311194587995
  0
LINE
  8
_0-0_
  6
CONTINUOUS
 62
    7
 10
14.532404943528036
 20
16.432757803994662
 11
14.532404943528036
 21
12.239864585181238
  0
LINE
  8
_0-0_
  6
CONTINUOUS
 62
    7
 10
15.032404943528036
 20
11.739864585181238
 11
16.523387949153403
 21
11.739864585181238
  0
LINE
  8
_0-0_
  6
CONTINUOUS
 62
    7
 10
16.970601544653164
 20
11.463471382931345
 11
17.379618539027888
 21
10.645437394181442
  0
LINE
  8
_0-0_
  6
CONTINUOUS
 62
    7
 10
17.432404943528127
 20
10.421830596431334
 11
17.432404943528127
 21
8.6398645851813285
  0
LINE
  8
_0-0_
  6
CONTINUOUS
 62
    7
 10
16.932404943528127
 20
8.1398645851813285
 11
4.0324049435280358
 21
8.1398645851813285
  0
LINE
  8
_0-0_
  6
CONTINUOUS
 62
    7
 10
4.1324049435279449
 20
10.239864585181238
 11
4.1324049435279449
 21
18.039864585181419
  0
LINE
  8
_0-0_
  6
CONTINUOUS
 62
    7
 10
4.6324049435279449
 20
18.539864585181419
 11
12.432404943528127
 21
18.539864585181419
  0
LINE
  8
_0-0_
  6
CONTINUOUS
 62
    7
 10
12.932404943528127
 20
18.039864585181419
 11
12.932404943528127
 21
10.239864585181238
  0
LINE
  8
_0-0_
  6
CONTINUOUS
 62
    7
 10
12.432404943528127
 20
9.7398645851812375
 11
4.6324049435279449
 21
9.7398645851812375
  0
LINE
  8
_0-0_
  6
CONTINUOUS
 62
    7
 10
2.5324049435280358
 20
9.6398645851813285
 11
2.5324049435280358
 21
22.539864585181419
  0
LINE
  8
_0-0_
  6
CONTINUOUS
 62
    7
 10
3.0324049435280358
 20
23.039864585181419
 11
4.8143709547784965
 21
23.039864585181419
  0
LINE
  8
_0-0_
  6
CONTINUOUS
 62
    7
 10
5.0379777525281497
 20
22.987078180681181
 11
5.8560117412780528
 21
22.578061186306456
  0
LINE
  8
_0-0_
  6
CONTINUOUS
 62
    7
 10
6.1324049435279449
 20
22.130847590806241
 11
6.1324049435279449
 21
20.639864585181328
  0
LINE
  8
_0-0_
  6
CONTINUOUS
 62
    7
 10
6.6324049435279449
 20
20.139864585181328
 11
10.825298162341369
 21
20.139864585181328
  0
LINE
  8
_0-0_
  6
CONTINUOUS
 62
    7
 10
11.178851552934702
 20
20.286311194587995
 11
11.676329994180378
 21
20.783789635833898
  0
LINE
  8
_0-0_
  6
CONTINUOUS
 62
    7
 10
11.676329994180378
 20
20.783789635833898
 11
11.888465946334691
 21
20.783789635833898
  0
LINE
  8
_0-0_
  6
CONTINUOUS
 62
    7
 10
11.888465946334691
 20
20.783789635833898
 11
11.888465946334691
 21
20.99592558798787
  0
LINE
  8
_0-0_
  6
CONTINUOUS
 62
    7
 10
11.888465946334691
 20
20.99592558798787
 11
12.385958334121369
 21
21.493417975774662
  0
LINE
  8
_0-0_
  6
CONTINUOUS
 62
    7
 10
12.532404943528036
 20
21.846971366367995
 11
12.532404943528036
 21
27.719287448587181
  0
LINE
  8
_0-0_
  6
CONTINUOUS
 62
    7
 10
12.572597322392539
 20
27.869287448587158
 11
12.642212564663168
 21
27.989864585181238
  0
LINE
  8
_0-0_
  6
CONTINUOUS
 62
    7
 10
12.642212564663168
 20
28.289864585181192
 11
12.572597322392539
 21
28.410441721775385
  0
LINE
  8
_0-0_
  6
CONTINUOUS
 62
    7
 10
12.532404943528036
 20
28.560441721775248
 11
12.532404943528036
 21
35.639864585181328
  0
LINE
  8
_0-0_
  6
CONTINUOUS
 62
    7
 10
12.032404943528036
 20
36.139864585181328
 11
6.6324049435279449
 21
36.139864585181328
  0
LINE
  8
_0-0_
  6
CONTINUOUS
 62
    7
 10
6.1324049435279449
 20
35.639864585181328
 11
6.1324049435279449
 21
34.148881579556416
  0
LINE
  8
_0-0_
  6
CONTINUOUS
 62
    7
 10
5.8560117412780528
 20
33.701667984056201
 11
5.0379777525281497
 21
33.292650989681476
  0
LINE
  8
_0-0_
  6
CONTINUOUS
 62
    7
 10
4.8143709547784965
 20
33.239864585181238
 11
3.0324049435280358
 21
33.239864585181238
  0
LINE
  8
_0-0_
  6
CONTINUOUS
 62
    7
 10
2.5324049435280358
 20
33.739864585181238
 11
2.5324049435280358
 21
62.539864585181419
  0
LINE
  8
_0-0_
  6
CONTINUOUS
 62
    7
 10
3.0324049435280358
 20
63.039864585181419
 11
4.8143709547784965
 21
63.039864585181419
  0
LINE
  8
_0-0_
  6
CONTINUOUS
 62
    7
 10
5.0379777525281497
 20
62.987078180681408
 11
5.8560117412780528
 21
62.578061186306456
  0
LINE
  8
_0-0_
  6
CONTINUOUS
 62
    7
 10
6.1324049435279449
 20
62.130847590806468
 11
6.1324049435279449
 21
60.639864585181328
  0
LINE
  8
_0-0_
  6
CONTINUOUS
 62
    7
 10
6.6324049435279449
 20
60.139864585181328
 11
12.032404943528036
 21
60.139864585181328
  0
LINE
  8
_0-0_
  6
CONTINUOUS
 62
    7
 10
12.532404943528036
 20
60.639864585181328
 11
12.532404943528036
 21
67.719287448587181
  0
LINE
  8
_0-0_
  6
CONTINUOUS
 62
    7
 10
12.572597322392994
 20
67.869287448587158
 11
12.642212564663623
 21
67.989864585181238
  0
LINE
  8
_0-0_
  6
CONTINUOUS
 62
    7
 10
12.642212564663623
 20
68.289864585181192
 11
12.572597322392994
 21
68.410441721775385
  0
LINE
  8
_0-0_
  6
CONTINUOUS
 62
    7
 10
12.532404943528036
 20
68.560441721775248
 11
12.532404943528036
 21
74.432757803994662
  0
LINE
  8
_0-0_
  6
CONTINUOUS
 62
    7
 10
12.385958334121369
 20
74.786311194587995
 11
11.178851552935157
 21
75.993417975774662
  0
LINE
  8
_0-0_
  6
CONTINUOUS
 62
    7
 10
10.825298162341824
 20
76.139864585181328
 11
6.6324049435279449
 21
76.139864585181328
  0
LINE
  8
_0-0_
  6
CONTINUOUS
 62
    7
 10
6.1324049435279449
 20
75.639864585181328
 11
6.1324049435279449
 21
74.148881579556416
  0
LINE
  8
_0-0_
  6
CONTINUOUS
 62
    7
 10
5.8560117412780528
 20
73.701667984056201
 11
5.0379777525281497
 21
73.292650989681476
  0
LINE
  8
_0-0_
  6
CONTINUOUS
 62
    7
 10
4.8143709547784965
 20
73.239864585181238
 11
3.0324049435280358
 21
73.239864585181238
  0
LINE
  8
_0-0_
  6
CONTINUOUS
 62
    7
 10
2.5324049435280358
 20
73.739864585181238
 11
2.5324049435280358
 21
86.639864585181328
  0
LINE
  8
_0-0_
  6
CONTINUOUS
 62
    7
 10
4.1324049435279449
 20
86.039864585181419
 11
4.1324049435279449
 21
78.239864585181238
  0
LINE
  8
_0-0_
  6
CONTINUOUS
 62
    7
 10
4.6324049435279449
 20
77.739864585181238
 11
12.432404943528127
 21
77.739864585181238
  0
LINE
  8
_0-0_
  6
CONTINUOUS
 62
    7
 10
12.932404943528127
 20
78.239864585181238
 11
12.932404943528127
 21
86.039864585181419
  0
LINE
  8
_0-0_
  6
CONTINUOUS
 62
    7
 10
12.432404943528127
 20
86.539864585181419
 11
4.6324049435279449
 21
86.539864585181419
  0
LINE
  8
_0-0_
  6
CONTINUOUS
 62
    7
 10
4.0324049435280358
 20
88.139864585181328
 11
16.932404943528127
 21
88.139864585181328
  0
LINE
  8
_0-0_
  6
CONTINUOUS
 62
    7
 10
17.432404943528127
 20
87.639864585181328
 11
17.432404943528127
 21
85.857898573931323
  0
LINE
  8
_0-0_
  6
CONTINUOUS
 62
    7
 10
17.379618539028343
 20
85.634291776181215
 11
16.970601544653164
 21
84.816257787431311
  0
LINE
  8
_0-0_
  6
CONTINUOUS
 62
    7
 10
16.523387949153403
 20
84.539864585181419
 11
15.032404943528036
 21
84.539864585181419
  0
LINE
  8
_0-0_
  6
CONTINUOUS
 62
    7
 10
14.532404943528036
 20
84.039864585181419
 11
14.532404943528036
 21
79.846971366367995
  0
LINE
  8
_0-0_
  6
CONTINUOUS
 62
    7
 10
14.678851552935157
 20
79.493417975774662
 11
15.885958334121369
 21
78.286311194588222
  0
LINE
  8
_0-0_
  6
CONTINUOUS
 62
    7
 10
16.239511724714703
 20
78.139864585181328
 11
28.825298162341824
 21
78.139864585181328
  0
LINE
  8
_0-0_
  6
CONTINUOUS
 62
    7
 10
29.178851552935157
 20
78.286311194588222
 11
30.385958334121369
 21
79.493417975774662
  0
LINE
  8
_0-0_
  6
CONTINUOUS
 62
    7
 10
30.532404943528036
 20
79.846971366367995
 11
30.532404943528036
 21
84.039864585181419
  0
LINE
  8
_0-0_
  6
CONTINUOUS
 62
    7
 10
30.032404943528036
 20
84.539864585181419
 11
28.541421937903124
 21
84.539864585181419
  0
LINE
  8
_0-0_
  6
CONTINUOUS
 62
    7
 10
28.094208342403363
 20
84.816257787431311
 11
27.685191348028184
 21
85.634291776181215
  0
LINE
  8
_0-0_
  6
CONTINUOUS
 62
    7
 10
27.632404943527945
 20
85.857898573931323
 11
27.632404943527945
 21
87.639864585181328
  0
LINE
  8
_0-0_
  6
CONTINUOUS
 62
    7
 10
28.132404943527945
 20
88.139864585181328
 11
41.032404943528036
 21
88.139864585181328
  0
LINE
  8
_0-0_
  6
CONTINUOUS
 62
    7
 10
40.932404943528127
 20
86.039864585181419
 11
40.932404943528127
 21
78.239864585181238
  0
LINE
  8
_0-0_
  6
CONTINUOUS
 62
    7
 10
40.432404943528127
 20
77.739864585181238
 11
32.632404943527945
 21
77.739864585181238
  0
LINE
  8
_0-0_
  6
CONTINUOUS
 62
    7
 10
32.132404943527945
 20
78.239864585181238
 11
32.132404943527945
 21
86.039864585181419
  0
LINE
  8
_0-0_
  6
CONTINUOUS
 62
    7
 10
32.632404943527945
 20
86.539864585181419
 11
40.432404943528127
 21
86.539864585181419
  0
LINE
  8
_0-0_
  6
CONTINUOUS
 62
    7
 10
42.532404943528036
 20
86.639864585181328
 11
42.532404943528036
 21
73.739864585181238
  0
LINE
  8
_0-0_
  6
CONTINUOUS
 62
    7
 10
42.032404943528036
 20
73.239864585181238
 11
40.25043893227803
 21
73.239864585181238
  0
LINE
  8
_0-0_
  6
CONTINUOUS
 62
    7
 10
40.026832134527922
 20
73.292650989681476
 11
39.208798145778019
 21
73.701667984056201
  0
LINE
  8
_0-0_
  6
CONTINUOUS
 62
    7
 10
38.932404943528127
 20
74.148881579556416
 11
38.932404943528127
 21
75.639864585181328
  0
LINE
  8
_0-0_
  6
CONTINUOUS
 62
    7
 10
38.432404943528127
 20
76.139864585181328
 11
34.239511724714703
 21
76.139864585181328
  0
LINE
  8
_0-0_
  6
CONTINUOUS
 62
    7
 10
33.885958334121369
 20
75.993417975774662
 11
33.388479892875694
 21
75.495939534528645
  0
LINE
  8
_0-0_
  6
CONTINUOUS
 62
    7
 10
33.388479892875694
 20
75.495939534528645
 11
33.176343940721381
 21
75.495939534528645
  0
LINE
  8
_0-0_
  6
CONTINUOUS
 62
    7
 10
33.176343940721381
 20
75.495939534528645
 11
33.176343940721381
 21
75.283803582374674
  0
LINE
  8
_0-0_
  6
CONTINUOUS
 62
    7
 10
33.176343940721381
 20
75.283803582374674
 11
32.678851552935157
 21
74.786311194587995
  0
LINE
  8
_0-0_
  6
CONTINUOUS
 62
    7
 10
32.532404943528036
 20
74.432757803994662
 11
32.532404943528036
 21
68.560441721775362
  0
LINE
  8
_0-0_
  6
CONTINUOUS
 62
    7
 10
32.492212564663532
 20
68.410441721775385
 11
32.422597322392903
 21
68.289864585181306
  0
LINE
  8
_0-0_
  6
CONTINUOUS
 62
    7
 10
32.422597322392903
 20
67.989864585181238
 11
32.492212564663532
 21
67.869287448587272
  0
LINE
  8
_0-0_
  6
CONTINUOUS
 62
    7
 10
32.532404943528036
 20
67.719287448587181
 11
32.532404943528036
 21
60.639864585181328
  0
LINE
  8
_0-0_
  6
CONTINUOUS
 62
    7
 10
33.032404943528036
 20
60.139864585181328
 11
38.432404943528127
 21
60.139864585181328
  0
LINE
  8
_0-0_
  6
CONTINUOUS
 62
    7
 10
38.932404943528127
 20
60.639864585181328
 11
38.932404943528127
 21
62.130847590806468
  0
LINE
  8
_0-0_
  6
CONTINUOUS
 62
    7
 10
39.208798145778019
 20
62.578061186306456
 11
40.026832134527922
 21
62.987078180681181
  0
LINE
  8
_0-0_
  6
CONTINUOUS
 62
    7
 10
40.25043893227803
 20
63.039864585181419
 11
42.032404943528036
 21
63.039864585181419
  0
LINE
  8
_0-0_
  6
CONTINUOUS
 62
    7
 10
42.532404943528036
 20
62.539864585181419
 11
42.532404943528036
 21
33.739864585181238
  0
LINE
  8
_0-0_
  6
CONTINUOUS
 62
    7
 10
42.032404943528036
 20
33.239864585181238
 11
40.25043893227803
 21
33.239864585181238
  0
LINE
  8
_0-0_
  6
CONTINUOUS
 62
    7
 10
40.026832134527922
 20
33.292650989681476
 11
39.208798145778019
 21
33.701667984056201
  0
LINE
  8
_0-0_
  6
CONTINUOUS
 62
    7
 10
38.932404943528127
 20
34.148881579556416
 11
38.932404943528127
 21
35.639864585181328
  0
LINE
  8
_0-0_
  6
CONTINUOUS
 62
    7
 10
38.432404943528127
 20
36.139864585181328
 11
33.032404943528036
 21
36.139864585181328
  0
LINE
  8
_0-0_
  6
CONTINUOUS
 62
    7
 10
32.532404943528036
 20
35.639864585181328
 11
32.532404943528036
 21
28.560441721775362
  0
LINE
  8
_0-0_
  6
CONTINUOUS
 62
    7
 10
32.492212564663532
 20
28.410441721775385
 11
32.422597322392903
 21
28.289864585181306
  0
LINE
  8
_0-0_
  6
CONTINUOUS
 62
    7
 10
32.422597322392903
 20
27.989864585181238
 11
32.492212564663532
 21
27.869287448587272
  0
LINE
  8
_0-0_
  6
CONTINUOUS
 62
    7
 10
32.532404943528036
 20
27.719287448587181
 11
32.532404943528036
 21
21.846971366367995
  0
LINE
  8
_0-0_
  6
CONTINUOUS
 62
    7
 10
32.678851552934702
 20
21.493417975774662
 11
33.885958334121369
 21
20.286311194587995
  0
LINE
  8
_0-0_
  6
CONTINUOUS
 62
    7
 10
34.239511724714703
 20
20.139864585181328
 11
38.432404943528127
 21
20.139864585181328
  0
LINE
  8
_0-0_
  6
CONTINUOUS
 62
    7
 10
38.932404943528127
 20
20.639864585181328
 11
38.932404943528127
 21
22.130847590806241
  0
LINE
  8
_0-0_
  6
CONTINUOUS
 62
    7
 10
39.208798145778019
 20
22.578061186306456
 11
40.026832134527922
 21
22.987078180681181
  0
LINE
  8
_0-0_
  6
CONTINUOUS
 62
    7
 10
40.25043893227803
 20
23.039864585181419
 11
42.032404943528036
 21
23.039864585181419
  0
LINE
  8
_0-0_
  6
CONTINUOUS
 62
    7
 10
42.532404943528036
 20
22.539864585181419
 11
42.532404943528036
 21
9.6398645851813285
  0
LINE
  8
_0-0_
  6
CONTINUOUS
 62
    7
 10
40.932404943528127
 20
10.239864585181238
 11
40.932404943528127
 21
18.039864585181419
  0
LINE
  8
_0-0_
  6
CONTINUOUS
 62
    7
 10
40.432404943528127
 20
18.539864585181419
 11
32.632404943527945
 21
18.539864585181419
  0
LINE
  8
_0-0_
  6
CONTINUOUS
 62
    7
 10
32.132404943527945
 20
18.039864585181419
 11
32.132404943527945
 21
10.239864585181238
  0
LINE
  8
_0-0_
  6
CONTINUOUS
 62
    7
 10
32.632404943527945
 20
9.7398645851812375
 11
40.432404943528127
 21
9.7398645851812375
  0
LINE
  8
_0-0_
  6
CONTINUOUS
 62
    7
 10
15.232404943528309
 20
76.139864585181328
 11
29.832404943528218
 21
76.139864585181328
  0
LINE
  8
_0-0_
  6
CONTINUOUS
 62
    7
 10
30.332404943528218
 20
75.639864585181328
 11
30.332404943528218
 21
73.514940091165897
  0
LINE
  8
_0-0_
  6
CONTINUOUS
 62
    7
 10
29.961814466079431
 20
73.03197717802135
 11
27.002995420976731
 21
72.239164004336487
  0
LINE
  8
_0-0_
  6
CONTINUOUS
 62
    7
 10
26.632404943527945
 20
71.75620109119194
 11
26.632404943527945
 21
64.523528079170717
  0
LINE
  8
_0-0_
  6
CONTINUOUS
 62
    7
 10
27.002995420976731
 20
64.04056516602617
 11
29.961814466079431
 21
63.247751992341307
  0
LINE
  8
_0-0_
  6
CONTINUOUS
 62
    7
 10
30.332404943528218
 20
62.76478907919676
 11
30.332404943528218
 21
33.514940091165897
  0
LINE
  8
_0-0_
  6
CONTINUOUS
 62
    7
 10
29.961814466079431
 20
33.03197717802135
 11
27.002995420976731
 21
32.239164004336487
  0
LINE
  8
_0-0_
  6
CONTINUOUS
 62
    7
 10
26.632404943527945
 20
31.75620109119194
 11
26.632404943527945
 21
24.523528079170717
  0
LINE
  8
_0-0_
  6
CONTINUOUS
 62
    7
 10
27.002995420976731
 20
24.04056516602617
 11
29.961814466079431
 21
23.247751992341307
  0
LINE
  8
_0-0_
  6
CONTINUOUS
 62
    7
 10
30.332404943528218
 20
22.76478907919676
 11
30.332404943528218
 21
20.639864585181328
  0
LINE
  8
_0-0_
  6
CONTINUOUS
 62
    7
 10
29.832404943528218
 20
20.139864585181328
 11
15.232404943528309
 21
20.139864585181328
  0
LINE
  8
_0-0_
  6
CONTINUOUS
 62
    7
 10
14.732404943528309
 20
20.639864585181328
 11
14.732404943528309
 21
22.76478907919676
  0
LINE
  8
_0-0_
  6
CONTINUOUS
 62
    7
 10
15.102995420977095
 20
23.247751992341307
 11
18.06181446607934
 21
24.04056516602617
  0
LINE
  8
_0-0_
  6
CONTINUOUS
 62
    7
 10
18.432404943528127
 20
24.523528079170717
 11
18.432404943528127
 21
31.75620109119194
  0
LINE
  8
_0-0_
  6
CONTINUOUS
 62
    7
 10
18.06181446607934
 20
32.239164004336487
 11
15.102995420977095
 21
33.03197717802135
  0
LINE
  8
_0-0_
  6
CONTINUOUS
 62
    7
 10
14.732404943528309
 20
33.514940091165897
 11
14.732404943528309
 21
62.76478907919676
  0
LINE
  8
_0-0_
  6
CONTINUOUS
 62
    7
 10
15.102995420977095
 20
63.247751992341307
 11
18.06181446607934
 21
64.04056516602617
  0
LINE
  8
_0-0_
  6
CONTINUOUS
 62
    7
 10
18.432404943528127
 20
64.523528079170717
 11
18.432404943528127
 21
71.75620109119194
  0
LINE
  8
_0-0_
  6
CONTINUOUS
 62
    7
 10
18.06181446607934
 20
72.239164004336487
 11
15.102995420977095
 21
73.03197717802135
  0
LINE
  8
_0-0_
  6
CONTINUOUS
 62
    7
 10
14.732404943528309
 20
73.514940091165897
 11
14.732404943528309
 21
75.639864585181328
  0
LINE
  8
_0-0_
  6
CONTINUOUS
 62
    7
 10
13.132404943527945
 20
58.039864585181419
 11
13.132404943527945
 21
38.239864585181238
  0
LINE
  8
_0-0_
  6
CONTINUOUS
 62
    7
 10
12.632404943527945
 20
37.739864585181238
 11
4.6324049435279449
 21
37.739864585181238
  0
LINE
  8
_0-0_
  6
CONTINUOUS
 62
    7
 10
4.1324049435279449
 20
38.239864585181238
 11
4.1324049435279449
 21
58.039864585181419
  0
LINE
  8
_0-0_
  6
CONTINUOUS
 62
    7
 10
4.6324049435279449
 20
58.539864585181419
 11
12.632404943527945
 21
58.539864585181419
  0
LINE
  8
_0-0_
  6
CONTINUOUS
 62
    7
 10
40.432404943528127
 20
58.539864585181419
 11
32.432404943528127
 21
58.539864585181419
  0
LINE
  8
_0-0_
  6
CONTINUOUS
 62
    7
 10
31.932404943528127
 20
58.039864585181419
 11
31.932404943528127
 21
38.239864585181238
  0
LINE
  8
_0-0_
  6
CONTINUOUS
 62
    7
 10
32.432404943528127
 20
37.739864585181238
 11
40.432404943528127
 21
37.739864585181238
  0
LINE
  8
_0-0_
  6
CONTINUOUS
 62
    7
 10
40.932404943528127
 20
38.239864585181238
 11
40.932404943528127
 21
58.039864585181419
  0
ARC
  8
_0-0_
  6
CONTINUOUS
 62
    7
 10
27.132404943527945
 20
24.523528079170717
 40
0.5
 50
180
 51
255.00000000000003
  0
ARC
  8
_0-0_
  6
CONTINUOUS
 62
    7
 10
4.0324049435280358
 20
9.6398645851813285
 40
1.5
 50
180
 51
270
  0
ARC
  8
_0-0_
  6
CONTINUOUS
 62
    7
 10
16.932404943528127
 20
8.6398645851813285
 40
0.5
 50
270
 51
0
  0
ARC
  8
_0-0_
  6
CONTINUOUS
 62
    7
 10
16.523387949153403
 20
11.239864585181238
 40
0.5
 50
26.565051177079088
 51
90
  0
ARC
  8
_0-0_
  6
CONTINUOUS
 62
    7
 10
16.932404943528127
 20
10.421830596431334
 40
0.5
 50
0
 51
26.565051177079393
  0
ARC
  8
_0-0_
  6
CONTINUOUS
 62
    7
 10
15.032404943528036
 20
12.239864585181238
 40
0.5
 50
180
 51
270
  0
ARC
  8
_0-0_
  6
CONTINUOUS
 62
    7
 10
6.6324049435279449
 20
20.639864585181328
 40
0.5
 50
180
 51
270
  0
ARC
  8
_0-0_
  6
CONTINUOUS
 62
    7
 10
5.6324049435279449
 20
22.130847590806241
 40
0.5
 50
0
 51
63.43494882292201
  0
ARC
  8
_0-0_
  6
CONTINUOUS
 62
    7
 10
4.8143709547784965
 20
22.539864585181419
 40
0.5
 50
63.43494882292201
 51
90
  0
ARC
  8
_0-0_
  6
CONTINUOUS
 62
    7
 10
3.0324049435280358
 20
22.539864585181419
 40
0.5
 50
90
 51
180
  0
ARC
  8
_0-0_
  6
CONTINUOUS
 62
    7
 10
17.932404943528127
 20
24.523528079170717
 40
0.5
 50
285
 51
0
  0
ARC
  8
_0-0_
  6
CONTINUOUS
 62
    7
 10
17.932404943528127
 20
31.75620109119194
 40
0.5
 50
0
 51
75.000000000000114
  0
ARC
  8
_0-0_
  6
CONTINUOUS
 62
    7
 10
15.232404943528309
 20
22.76478907919676
 40
0.5
 50
105.00000000000009
 51
180
  0
ARC
  8
_0-0_
  6
CONTINUOUS
 62
    7
 10
3.0324049435280358
 20
33.739864585181238
 40
0.5
 50
180
 51
270
  0
ARC
  8
_0-0_
  6
CONTINUOUS
 62
    7
 10
4.8143709547784965
 20
33.739864585181238
 40
0.5
 50
270
 51
296.56505117707798
  0
ARC
  8
_0-0_
  6
CONTINUOUS
 62
    7
 10
5.6324049435279449
 20
34.148881579556416
 40
0.5
 50
296.56505117707798
 51
0.0000000000000127
  0
ARC
  8
_0-0_
  6
CONTINUOUS
 62
    7
 10
15.232404943528309
 20
20.639864585181328
 40
0.5
 50
180
 51
270
  0
ARC
  8
_0-0_
  6
CONTINUOUS
 62
    7
 10
15.232404943528309
 20
33.514940091165897
 40
0.5
 50
180
 51
254.99999999999991
  0
ARC
  8
_0-0_
  6
CONTINUOUS
 62
    7
 10
12.432404943528127
 20
10.239864585181238
 40
0.5
 50
270
 51
0
  0
ARC
  8
_0-0_
  6
CONTINUOUS
 62
    7
 10
12.432404943528127
 20
18.039864585181419
 40
0.5
 50
0
 51
90
  0
ARC
  8
_0-0_
  6
CONTINUOUS
 62
    7
 10
4.6324049435279449
 20
18.039864585181419
 40
0.5
 50
90
 51
180
  0
ARC
  8
_0-0_
  6
CONTINUOUS
 62
    7
 10
4.6324049435279449
 20
10.239864585181238
 40
0.5
 50
180
 51
270
  0
ARC
  8
_0-0_
  6
CONTINUOUS
 62
    7
 10
41.032404943528036
 20
9.6398645851813285
 40
1.5
 50
270
 51
0
  0
ARC
  8
_0-0_
  6
CONTINUOUS
 62
    7
 10
28.132404943527945
 20
8.6398645851813285
 40
0.5
 50
180
 51
270
  0
ARC
  8
_0-0_
  6
CONTINUOUS
 62
    7
 10
28.541421937903124
 20
11.239864585181238
 40
0.5
 50
90
 51
153.43494882292092
  0
ARC
  8
_0-0_
  6
CONTINUOUS
 62
    7
 10
28.132404943527945
 20
10.421830596431334
 40
0.5
 50
153.43494882292057
 51
180
  0
ARC
  8
_0-0_
  6
CONTINUOUS
 62
    7
 10
30.032404943528036
 20
12.239864585181238
 40
0.5
 50
270
 51
0
  0
ARC
  8
_0-0_
  6
CONTINUOUS
 62
    7
 10
38.432404943528127
 20
20.639864585181328
 40
0.5
 50
270
 51
0
  0
ARC
  8
_0-0_
  6
CONTINUOUS
 62
    7
 10
39.432404943528127
 20
22.130847590806241
 40
0.5
 50
116.56505117707802
 51
180
  0
ARC
  8
_0-0_
  6
CONTINUOUS
 62
    7
 10
40.25043893227803
 20
22.539864585181419
 40
0.5
 50
90
 51
116.56505117707799
  0
ARC
  8
_0-0_
  6
CONTINUOUS
 62
    7
 10
42.032404943528036
 20
22.539864585181419
 40
0.5
 50
0
 51
90
  0
ARC
  8
_0-0_
  6
CONTINUOUS
 62
    7
 10
27.132404943527945
 20
31.75620109119194
 40
0.5
 50
104.99999999999989
 51
180
  0
ARC
  8
_0-0_
  6
CONTINUOUS
 62
    7
 10
29.832404943528218
 20
22.76478907919676
 40
0.5
 50
0
 51
74.999999999999915
  0
ARC
  8
_0-0_
  6
CONTINUOUS
 62
    7
 10
42.032404943528036
 20
33.739864585181238
 40
0.5
 50
270
 51
0
  0
ARC
  8
_0-0_
  6
CONTINUOUS
 62
    7
 10
40.25043893227803
 20
33.739864585181238
 40
0.5
 50
243.43494882292197
 51
270
  0
ARC
  8
_0-0_
  6
CONTINUOUS
 62
    7
 10
39.432404943528127
 20
34.148881579556416
 40
0.5
 50
179.99999999999997
 51
243.43494882292197
  0
ARC
  8
_0-0_
  6
CONTINUOUS
 62
    7
 10
29.832404943528218
 20
33.514940091165897
 40
0.5
 50
285.00000000000011
 51
0
  0
ARC
  8
_0-0_
  6
CONTINUOUS
 62
    7
 10
32.632404943527945
 20
10.239864585181238
 40
0.5
 50
180
 51
270
  0
ARC
  8
_0-0_
  6
CONTINUOUS
 62
    7
 10
32.632404943527945
 20
18.039864585181419
 40
0.5
 50
90
 51
180
  0
ARC
  8
_0-0_
  6
CONTINUOUS
 62
    7
 10
40.432404943528127
 20
18.039864585181419
 40
0.5
 50
0
 51
90
  0
ARC
  8
_0-0_
  6
CONTINUOUS
 62
    7
 10
40.432404943528127
 20
10.239864585181238
 40
0.5
 50
270
 51
0
  0
ARC
  8
_0-0_
  6
CONTINUOUS
 62
    7
 10
29.832404943528218
 20
20.639864585181328
 40
0.5
 50
270
 51
0
  0
ARC
  8
_0-0_
  6
CONTINUOUS
 62
    7
 10
38.432404943528127
 20
35.639864585181328
 40
0.5
 50
0
 51
90
  0
ARC
  8
_0-0_
  6
CONTINUOUS
 62
    7
 10
6.6324049435279449
 20
35.639864585181328
 40
0.5
 50
90
 51
180
  0
ARC
  8
_0-0_
  6
CONTINUOUS
 62
    7
 10
4.0324049435280358
 20
86.639864585181328
 40
1.5
 50
89.999999999999986
 51
180
  0
ARC
  8
_0-0_
  6
CONTINUOUS
 62
    7
 10
16.932404943528127
 20
87.639864585181328
 40
0.5
 50
0
 51
90
  0
ARC
  8
_0-0_
  6
CONTINUOUS
 62
    7
 10
16.523387949153403
 20
85.039864585181419
 40
0.5
 50
270
 51
333.43494882292094
  0
ARC
  8
_0-0_
  6
CONTINUOUS
 62
    7
 10
16.932404943528127
 20
85.857898573931323
 40
0.5
 50
333.43494882292066
 51
0.0000000000000286
  0
ARC
  8
_0-0_
  6
CONTINUOUS
 62
    7
 10
15.032404943528036
 20
84.039864585181419
 40
0.5
 50
89.999999999999986
 51
180
  0
ARC
  8
_0-0_
  6
CONTINUOUS
 62
    7
 10
6.6324049435279449
 20
75.639864585181328
 40
0.5
 50
89.999999999999986
 51
180
  0
ARC
  8
_0-0_
  6
CONTINUOUS
 62
    7
 10
5.6324049435279449
 20
74.148881579556416
 40
0.5
 50
296.56505117707798
 51
0.0000000000000127
  0
ARC
  8
_0-0_
  6
CONTINUOUS
 62
    7
 10
4.8143709547784965
 20
73.739864585181238
 40
0.5
 50
270
 51
296.56505117707798
  0
ARC
  8
_0-0_
  6
CONTINUOUS
 62
    7
 10
3.0324049435280358
 20
73.739864585181238
 40
0.5
 50
180
 51
270
  0
ARC
  8
_0-0_
  6
CONTINUOUS
 62
    7
 10
17.932404943528127
 20
71.75620109119194
 40
0.5
 50
0
 51
75
  0
ARC
  8
_0-0_
  6
CONTINUOUS
 62
    7
 10
17.932404943528127
 20
64.523528079170717
 40
0.5
 50
284.99999999999989
 51
0
  0
ARC
  8
_0-0_
  6
CONTINUOUS
 62
    7
 10
15.232404943528309
 20
73.514940091165897
 40
0.5
 50
180
 51
254.99999999999991
  0
ARC
  8
_0-0_
  6
CONTINUOUS
 62
    7
 10
3.0324049435280358
 20
62.539864585181419
 40
0.4999999999999997
 50
90
 51
180
  0
ARC
  8
_0-0_
  6
CONTINUOUS
 62
    7
 10
4.8143709547784965
 20
62.539864585181419
 40
0.4999999999999997
 50
63.43494882292201
 51
90
  0
ARC
  8
_0-0_
  6
CONTINUOUS
 62
    7
 10
5.6324049435279449
 20
62.130847590806468
 40
0.4999999999999997
 50
0
 51
63.43494882292201
  0
ARC
  8
_0-0_
  6
CONTINUOUS
 62
    7
 10
15.232404943528309
 20
75.639864585181328
 40
0.5
 50
89.999999999999986
 51
180
  0
ARC
  8
_0-0_
  6
CONTINUOUS
 62
    7
 10
15.232404943528309
 20
62.76478907919676
 40
0.5
 50
105.00000000000011
 51
180
  0
ARC
  8
_0-0_
  6
CONTINUOUS
 62
    7
 10
12.432404943528127
 20
86.039864585181419
 40
0.5
 50
0
 51
90
  0
ARC
  8
_0-0_
  6
CONTINUOUS
 62
    7
 10
12.432404943528127
 20
78.239864585181238
 40
0.5
 50
270
 51
0
  0
ARC
  8
_0-0_
  6
CONTINUOUS
 62
    7
 10
4.6324049435279449
 20
78.239864585181238
 40
0.5
 50
180
 51
270
  0
ARC
  8
_0-0_
  6
CONTINUOUS
 62
    7
 10
4.6324049435279449
 20
86.039864585181419
 40
0.5
 50
90
 51
180
  0
ARC
  8
_0-0_
  6
CONTINUOUS
 62
    7
 10
41.032404943528036
 20
86.639864585181328
 40
1.5
 50
0
 51
90.000000000000028
  0
ARC
  8
_0-0_
  6
CONTINUOUS
 62
    7
 10
28.132404943527945
 20
87.639864585181328
 40
0.5
 50
90
 51
180
  0
ARC
  8
_0-0_
  6
CONTINUOUS
 62
    7
 10
28.541421937903124
 20
85.039864585181419
 40
0.5
 50
206.56505117707906
 51
270
  0
ARC
  8
_0-0_
  6
CONTINUOUS
 62
    7
 10
28.132404943527945
 20
85.857898573931323
 40
0.5
 50
180
 51
206.56505117707943
  0
ARC
  8
_0-0_
  6
CONTINUOUS
 62
    7
 10
30.032404943528036
 20
84.039864585181419
 40
0.5
 50
0
 51
90.000000000000028
  0
ARC
  8
_0-0_
  6
CONTINUOUS
 62
    7
 10
38.432404943528127
 20
75.639864585181328
 40
0.5
 50
0
 51
90.000000000000028
  0
ARC
  8
_0-0_
  6
CONTINUOUS
 62
    7
 10
39.432404943528127
 20
74.148881579556416
 40
0.5
 50
180
 51
243.434948822922
  0
ARC
  8
_0-0_
  6
CONTINUOUS
 62
    7
 10
40.25043893227803
 20
73.739864585181238
 40
0.5
 50
243.43494882292202
 51
270
  0
ARC
  8
_0-0_
  6
CONTINUOUS
 62
    7
 10
42.032404943528036
 20
73.739864585181238
 40
0.5
 50
270
 51
0
  0
ARC
  8
_0-0_
  6
CONTINUOUS
 62
    7
 10
27.132404943527945
 20
71.75620109119194
 40
0.5
 50
104.99999999999999
 51
180
  0
ARC
  8
_0-0_
  6
CONTINUOUS
 62
    7
 10
27.132404943527945
 20
64.523528079170717
 40
0.5
 50
180
 51
255.00000000000011
  0
ARC
  8
_0-0_
  6
CONTINUOUS
 62
    7
 10
29.832404943528218
 20
73.514940091165897
 40
0.5
 50
285.00000000000011
 51
0
  0
ARC
  8
_0-0_
  6
CONTINUOUS
 62
    7
 10
42.032404943528036
 20
62.539864585181419
 40
0.4999999999999997
 50
0.0000000000000318
 51
90.000000000000028
  0
ARC
  8
_0-0_
  6
CONTINUOUS
 62
    7
 10
40.25043893227803
 20
62.539864585181419
 40
0.4999999999999997
 50
90.000000000000028
 51
116.56505117707802
  0
ARC
  8
_0-0_
  6
CONTINUOUS
 62
    7
 10
39.432404943528127
 20
62.130847590806468
 40
0.4999999999999997
 50
116.56505117707802
 51
180.00000000000003
  0
ARC
  8
_0-0_
  6
CONTINUOUS
 62
    7
 10
29.832404943528218
 20
62.76478907919676
 40
0.5
 50
0
 51
74.999999999999886
  0
ARC
  8
_0-0_
  6
CONTINUOUS
 62
    7
 10
32.632404943527945
 20
86.039864585181419
 40
0.5
 50
90
 51
180
  0
ARC
  8
_0-0_
  6
CONTINUOUS
 62
    7
 10
32.632404943527945
 20
78.239864585181238
 40
0.5
 50
180
 51
270
  0
ARC
  8
_0-0_
  6
CONTINUOUS
 62
    7
 10
40.432404943528127
 20
78.239864585181238
 40
0.5
 50
270
 51
0
  0
ARC
  8
_0-0_
  6
CONTINUOUS
 62
    7
 10
40.432404943528127
 20
86.039864585181419
 40
0.5
 50
0
 51
90
  0
ARC
  8
_0-0_
  6
CONTINUOUS
 62
    7
 10
29.832404943528218
 20
75.639864585181328
 40
0.5
 50
0
 51
90
  0
ARC
  8
_0-0_
  6
CONTINUOUS
 62
    7
 10
38.432404943528127
 20
60.639864585181328
 40
0.5
 50
270
 51
0
  0
ARC
  8
_0-0_
  6
CONTINUOUS
 62
    7
 10
6.6324049435279449
 20
60.639864585181328
 40
0.5
 50
180
 51
270
  0
ARC
  8
_0-0_
  6
CONTINUOUS
 62
    7
 10
40.432404943528127
 20
38.239864585181238
 40
0.5
 50
270
 51
0
  0
ARC
  8
_0-0_
  6
CONTINUOUS
 62
    7
 10
32.432404943528127
 20
38.239864585181238
 40
0.5
 50
180
 51
270
  0
ARC
  8
_0-0_
  6
CONTINUOUS
 62
    7
 10
32.432404943528127
 20
58.039864585181419
 40
0.5
 50
90
 51
180
  0
ARC
  8
_0-0_
  6
CONTINUOUS
 62
    7
 10
40.432404943528127
 20
58.039864585181419
 40
0.5
 50
0
 51
90
  0
ARC
  8
_0-0_
  6
CONTINUOUS
 62
    7
 10
4.6324049435279449
 20
58.039864585181419
 40
0.5
 50
90
 51
180
  0
ARC
  8
_0-0_
  6
CONTINUOUS
 62
    7
 10
4.6324049435279449
 20
38.239864585181238
 40
0.5
 50
180
 51
270
  0
ARC
  8
_0-0_
  6
CONTINUOUS
 62
    7
 10
12.632404943527945
 20
38.239864585181238
 40
0.5
 50
270
 51
0
  0
ARC
  8
_0-0_
  6
CONTINUOUS
 62
    7
 10
12.632404943527945
 20
58.039864585181419
 40
0.5
 50
0
 51
90
  0
ARC
  8
_0-0_
  6
CONTINUOUS
 62
    7
 10
33.032404943528036
 20
35.639864585181328
 40
0.5
 50
90
 51
180
  0
ARC
  8
_0-0_
  6
CONTINUOUS
 62
    7
 10
12.032404943528036
 20
35.639864585181328
 40
0.5
 50
0
 51
90
  0
ARC
  8
_0-0_
  6
CONTINUOUS
 62
    7
 10
12.032404943528036
 20
60.639864585181328
 40
0.5
 50
270
 51
0
  0
ARC
  8
_0-0_
  6
CONTINUOUS
 62
    7
 10
33.032404943528036
 20
60.639864585181328
 40
0.5
 50
180
 51
270
  0
ARC
  8
_0-0_
  6
CONTINUOUS
 62
    7
 10
10.825298162341369
 20
20.639864585181328
 40
0.5
 50
270
 51
315
  0
ARC
  8
_0-0_
  6
CONTINUOUS
 62
    7
 10
12.032404943528036
 20
21.846971366367995
 40
0.5
 50
315
 51
359.99999999999955
  0
ARC
  8
_0-0_
  6
CONTINUOUS
 62
    7
 10
15.032404943528036
 20
16.432757803994662
 40
0.5
 50
135.00000000000006
 51
180.00000000000006
  0
ARC
  8
_0-0_
  6
CONTINUOUS
 62
    7
 10
16.239511724714703
 20
17.639864585181328
 40
0.5
 50
90
 51
135
  0
ARC
  8
_0-0_
  6
CONTINUOUS
 62
    7
 10
30.032404943528036
 20
16.432757803994662
 40
0.5
 50
0
 51
45
  0
ARC
  8
_0-0_
  6
CONTINUOUS
 62
    7
 10
28.825298162341369
 20
17.639864585181328
 40
0.5
 50
45
 51
90
  0
ARC
  8
_0-0_
  6
CONTINUOUS
 62
    7
 10
34.239511724714703
 20
20.639864585181328
 40
0.5
 50
225
 51
270
  0
ARC
  8
_0-0_
  6
CONTINUOUS
 62
    7
 10
33.032404943528036
 20
21.846971366367995
 40
0.5
 50
179.99999999999955
 51
225
  0
ARC
  8
_0-0_
  6
CONTINUOUS
 62
    7
 10
33.032404943528036
 20
74.432757803994662
 40
0.5
 50
135.00000000000006
 51
180.00000000000006
  0
ARC
  8
_0-0_
  6
CONTINUOUS
 62
    7
 10
34.239511724714703
 20
75.639864585181328
 40
0.5
 50
90
 51
135
  0
ARC
  8
_0-0_
  6
CONTINUOUS
 62
    7
 10
30.032404943528036
 20
79.846971366367995
 40
0.5
 50
315
 51
0
  0
ARC
  8
_0-0_
  6
CONTINUOUS
 62
    7
 10
28.825298162341824
 20
78.639864585181328
 40
0.5
 50
270
 51
315
  0
ARC
  8
_0-0_
  6
CONTINUOUS
 62
    7
 10
16.239511724714703
 20
78.639864585181328
 40
0.5
 50
225
 51
270
  0
ARC
  8
_0-0_
  6
CONTINUOUS
 62
    7
 10
15.032404943528036
 20
79.846971366367995
 40
0.5
 50
180
 51
225
  0
ARC
  8
_0-0_
  6
CONTINUOUS
 62
    7
 10
12.032404943528036
 20
74.432757803994662
 40
0.5
 50
0
 51
45
  0
ARC
  8
_0-0_
  6
CONTINUOUS
 62
    7
 10
10.825298162341824
 20
75.639864585181328
 40
0.5
 50
45
 51
90
  0
ARC
  8
_0-0_
  6
CONTINUOUS
 62
    7
 10
12.382404943527945
 20
68.139864585181328
 40
0.2999999999999998
 50
329.99999999999983
 51
30.00000000000097
  0
ARC
  8
_0-0_
  6
CONTINUOUS
 62
    7
 10
12.832404943528218
 20
68.560441721775248
 40
0.2999999999999998
 50
180
 51
209.99999999999363
  0
ARC
  8
_0-0_
  6
CONTINUOUS
 62
    7
 10
12.832404943528218
 20
67.719287448587181
 40
0.2999999999999998
 50
150.00000000000634
 51
180
  0
ARC
  8
_0-0_
  6
CONTINUOUS
 62
    7
 10
12.382404943527945
 20
28.139864585181328
 40
0.2999999999999998
 50
329.99999999999983
 51
30.00000000000097
  0
ARC
  8
_0-0_
  6
CONTINUOUS
 62
    7
 10
12.832404943528218
 20
28.560441721775248
 40
0.2999999999999998
 50
180
 51
209.99999999999363
  0
ARC
  8
_0-0_
  6
CONTINUOUS
 62
    7
 10
12.832404943528218
 20
27.719287448587181
 40
0.2999999999999998
 50
150.00000000000634
 51
180
  0
ARC
  8
_0-0_
  6
CONTINUOUS
 62
    7
 10
32.682404943528127
 20
28.139864585181328
 40
0.2999999999999998
 50
149.99999999999983
 51
210.00000000000099
  0
ARC
  8
_0-0_
  6
CONTINUOUS
 62
    7
 10
32.232404943528309
 20
27.719287448587181
 40
0.2999999999999998
 50
0
 51
29.99999999999363
  0
ARC
  8
_0-0_
  6
CONTINUOUS
 62
    7
 10
32.232404943528309
 20
28.560441721775362
 40
0.2999999999999998
 50
330.00000000000637
 51
0.0000000000000254
  0
ARC
  8
_0-0_
  6
CONTINUOUS
 62
    7
 10
32.682404943528127
 20
68.139864585181328
 40
0.2999999999999998
 50
149.99999999999983
 51
210.00000000000099
  0
ARC
  8
_0-0_
  6
CONTINUOUS
 62
    7
 10
32.232404943528309
 20
67.719287448587181
 40
0.2999999999999998
 50
0
 51
29.99999999999363
  0
ARC
  8
_0-0_
  6
CONTINUOUS
 62
    7
 10
32.232404943528309
 20
68.560441721775362
 40
0.2999999999999998
 50
330.00000000000637
 51
0.0000000000000254
  0
LINE
  8
_0-1_
  6
CENTER1
 62
  152
 10
2.5324049435280358
 20
68.139864585181328
 11
42.532404943528036
 21
68.139864585181328
  0
LINE
  8
_0-1_
  6
CENTER1
 62
  152
 10
22.532404943528036
 20
8.1398645851811011
 11
22.532404943528036
 21
88.139864585181328
  0
LINE
  8
_0-1_
  6
CENTER1
 62
  152
 10
42.532404943528036
 20
28.139864585181328
 11
2.5324049435280358
 21
28.139864585181328
  0
ENDSEC
  0
EOF
