  0
SECTION
  2
HEADER
  9
$ACADVER
  1
AC1009
  9
$INSBASE
 10
0
 20
0
 30
0
  9
$EXTMIN
 10
0
 20
0
  9
$EXTMAX
 10
1189
 20
841
  9
$LIMMIN
 10
0
 20
0
  9
$LIMMAX
 10
1189
 20
841
  9
$LTSCALE
 40
1
  0
ENDSEC
  0
SECTION
  2
TABLES
  0
TABLE
  2
LTYPE
 70
     9
  0
LTYPE
  2
CONTINUOUS
 70
    64
  3
実線
 72
    65
 73
     0
 40
0.0
  0
LTYPE
  2
DASHED1
 70
    64
  3
--  --  --  --  --  --  --  --  
 72
    65
 73
     2
 40
2.5
 49
1.25
 49
-1.25
  0
LTYPE
  2
DASHED2
 70
    64
  3
----    ----    ----    ----    
 72
    65
 73
     2
 40
5.0
 49
2.5
 49
-2.5
  0
LTYPE
  2
DASHED3
 70
    64
  3
------  ------  ------  ------  
 72
    65
 73
     2
 40
5.0
 49
3.75
 49
-1.25
  0
LTYPE
  2
CENTER1
 70
    64
  3
----- - ----- - ----- - ----- - 
 72
    65
 73
     4
 40
10.0
 49
6.25
 49
-1.25
 49
1.25
 49
-1.25
  0
LTYPE
  2
CENTER2
 70
    64
  3
----------  --  ----------  --  
 72
    65
 73
     4
 40
20.0
 49
12.5
 49
-2.5
 49
2.5
 49
-2.5
  0
LTYPE
  2
PHANTOM1
 70
    64
  3
--- - - --- - - --- - - --- - - 
 72
    65
 73
     6
 40
10.0
 49
3.25
 49
-1.25
 49
1.25
 49
-1.25
 49
1.25
 49
-1.25
  0
LTYPE
  2
PHANTOM2
 70
    64
  3
--------  -  -  --------  -  -  
 72
    65
 73
     6
 40
20.0
 49
10.0
 49
-2.5
 49
1.25
 49
-2.5
 49
1.25
 49
-2.5
  0
LTYPE
  2
DOT
 70
    64
  3
-   -   -   -   -   -   -   -   
 72
    65
 73
     2
 40
2.5
 49
0.625
 49
-1.875
  0
LTYPE
  2
DUMMY
 70
    64
  3
ダミー
 72
    65
 73
     0
 40
0.0
  0
LTYPE
  2
RAND1
 70
    64
  3
ランダム線1
 72
    65
 73
     4
 40
10.0
 49
1.0
 49
-2.0
 49
3.0
 49
-4.0
  0
LTYPE
  2
RAND2
 70
    64
  3
ランダム線2
 72
    65
 73
     4
 40
14.0
 49
2.0
 49
-3.0
 49
4.0
 49
-5.0
  0
LTYPE
  2
RAND3
 70
    64
  3
ランダム線3
 72
    65
 73
     4
 40
18.0
 49
3.0
 49
-4.0
 49
5.0
 49
-6.0
  0
LTYPE
  2
RAND4
 70
    64
  3
ランダム線4
 72
    65
 73
     4
 40
22.0
 49
4.0
 49
-5.0
 49
6.0
 49
-7.0
  0
LTYPE
  2
RAND5
 70
    64
  3
ランダム線5
 72
    65
 73
     4
 40
26.0
 49
5.0
 49
-6.0
 49
7.0
 49
-8.0
  0
LTYPE
  2
LONG1
 70
    64
  3
----------  --  ----------  --  
 72
    65
 73
     4
 40
40.0
 49
32.5
 49
-2.5
 49
2.5
 49
-2.5
  0
LTYPE
  2
LONG2
 70
    64
  3
--------  -  -  --------  -  -  
 72
    65
 73
     6
 40
40.0
 49
30.0
 49
-2.5
 49
1.25
 49
-2.5
 49
1.25
 49
-2.5
  0
LTYPE
  2
LONG3
 70
    64
  3
+++++++++++++++..+++++++++++++++
 72
    65
 73
     2
 40
40.0
 49
37.5
 49
-2.5
  0
LTYPE
  2
LONG4
 70
    64
  3
+++++++++++++++..+++++++++++++++
 72
    65
 73
     2
 40
80.0
 49
75.0
 49
-5.0
  0
LTYPE
  2
LONG5
 70
    64
  3
----------  --  ----------  --  
 72
    65
 73
     4
 40
60.0
 49
37.5
 49
-7.5
 49
7.5
 49
-7.5
  0
LTYPE
  2
dashed
 70
   64
  3
-------   -------------   ------
 72
   65
 73
    2
 40
7.5
 49
6
 49
-1.5
  0
LTYPE
  2
dashed_spaced
 70
   64
  3
----        --------        ----
 72
   65
 73
    2
 40
12
 49
6
 49
-6
  0
LTYPE
  2
long_dashed_dotted
 70
   64
  3
------------- --- --------------
 72
   65
 73
    4
 40
15.25
 49
12
 49
-1.5
 49
0.25
 49
-1.5
  0
LTYPE
  2
long_dashed_double-dotted
 70
   64
  3
----------- --- --- ------------
 72
   65
 73
    6
 40
17
 49
12
 49
-1.5
 49
0.25
 49
-1.5
 49
0.25
 49
-1.5
  0
LTYPE
  2
long_dashed_triplicate-dotted
 70
   64
  3
--------- --- --- --- ----------
 72
   65
 73
    8
 40
18.75
 49
12
 49
-1.5
 49
0.25
 49
-1.5
 49
0.25
 49
-1.5
 49
0.25
 49
-1.5
  0
LTYPE
  2
dotted
 70
   64
  3
   -       -       -       -    
 72
   65
 73
    2
 40
1.75
 49
0.25
 49
-1.5
  0
LTYPE
  2
chain
 70
   64
  3
-------------- -- --------------
 72
   65
 73
    4
 40
18.5
 49
12
 49
-1.5
 49
3.5
 49
-1.5
  0
LTYPE
  2
chain_double_dash
 70
   64
  3
------------ -- -- -------------
 72
   65
 73
    6
 40
23.5
 49
12
 49
-1.5
 49
3.5
 49
-1.5
 49
3.5
 49
-1.5
  0
LTYPE
  2
dashed_dotted
 70
   64
  3
-----------     -     ----------
 72
   65
 73
    4
 40
9.25
 49
6
 49
-1.5
 49
0.25
 49
-1.5
  0
LTYPE
  2
double-dashed_dotted
 70
   64
  3
------   -----------   -   -----
 72
   65
 73
    6
 40
16.75
 49
6
 49
-1.5
 49
6
 49
-1.5
 49
0.25
 49
-1.5
  0
LTYPE
  2
dashed_double-dotted
 70
   64
  3
---------    -    -    ---------
 72
   65
 73
    6
 40
11
 49
6
 49
-1.5
 49
0.25
 49
-1.5
 49
0.25
 49
-1.5
  0
LTYPE
  2
double-dashed_double-dotted
 70
   64
  3
-----   ---------   -   -   ----
 72
   65
 73
    8
 40
18.5
 49
6
 49
-1.5
 49
6
 49
-1.5
 49
0.25
 49
-1.5
 49
0.25
 49
-1.5
  0
LTYPE
  2
dashed_triplicate-dotted
 70
   64
  3
-------    -    -    -    ------
 72
   65
 73
    8
 40
12.75
 49
6
 49
-1.5
 49
0.25
 49
-1.5
 49
0.25
 49
-1.5
 49
0.25
 49
-1.5
  0
LTYPE
  2
double-dashed_triplicate-dotted
 70
   64
  3
-----  ---------  -  -  -  -----
 72
   65
 73
   10
 40
20.25
 49
6
 49
-1.5
 49
6
 49
-1.5
 49
0.25
 49
-1.5
 49
0.25
 49
-1.5
 49
0.25
 49
-1.5
  0
LTYPE
  2
undefined
 70
   64
  3
--------------------------------
 72
   65
 73
    0
 40
0
  0
ENDTAB
  0
TABLE
  2
STYLE
  5
3
100
AcDbSymbolTable
 70
     1
  0
STYLE
  5
10
100
AcDbSymbolTableRecord
100
AcDbTextStyleTableRecord
  2
STANDARD
 70
     0
 40
0.0
 41
1.0
 50
0.0
 71
     0
 42
0.2
  3
txt
  4
bigfont.shx
  0
STYLE
  5
26
100
AcDbSymbolTableRecord
100
AcDbTextStyleTableRecord
  2
TATEGAKI
 70
    68
 40
0.0
 41
1.0
 50
0.0
 71
     0
 42
1.0
  3
txt
  4
bigfont.shx
  0
ENDTAB
  0
TABLE
  2
LAYER
 70
    4
  0
LAYER
  2
_0-0_
 70
   64
 62
    7
  6
CONTINUOUS
  0
LAYER
  2
_0-1_
 70
   64
 62
    7
  6
CONTINUOUS
  0
LAYER
  2
_0-f_
 70
   64
 62
    7
  6
CONTINUOUS
  0
LAYER
  2
ADD_LINE
 70
   64
 62
    7
  6
CONTINUOUS
  0
ENDTAB
  0
ENDSEC
  0
SECTION
  2
BLOCKS
  0
ENDSEC
  0
SECTION
  2
ENTITIES
  0
TEXT
  8
_0-f_
 62
    7
 10
0.9960479372400641
 20
1.5212238582382724
 40
4.2999999999999998
 41
0.744186046511628
 50
0
  1
F46M,F46MB
  0
LINE
  8
_0-0_
  6
CONTINUOUS
 62
    7
 10
3.9269410442907429
 20
7.7868251433978912
 11
16.826941044290834
 21
7.7868251433978912
  0
LINE
  8
_0-0_
  6
CONTINUOUS
 62
    7
 10
17.326941044290834
 20
8.2868251433978912
 11
17.326941044290834
 21
10.068791154647897
  0
LINE
  8
_0-0_
  6
CONTINUOUS
 62
    7
 10
17.274154639790595
 20
10.292397952398005
 11
16.865137645415871
 21
11.110431941147908
  0
LINE
  8
_0-0_
  6
CONTINUOUS
 62
    7
 10
16.417924049915655
 20
11.3868251433978
 11
14.926941044290743
 21
11.3868251433978
  0
LINE
  8
_0-0_
  6
CONTINUOUS
 62
    7
 10
14.426941044290743
 20
11.8868251433978
 11
14.426941044290743
 21
15.579718362211224
  0
LINE
  8
_0-0_
  6
CONTINUOUS
 62
    7
 10
14.573387653697409
 20
15.933271752804558
 11
16.280494434884076
 21
17.640378533991111
  0
LINE
  8
_0-0_
  6
CONTINUOUS
 62
    7
 10
16.63404782547741
 20
17.786825143397891
 11
28.219834263104076
 21
17.786825143397891
  0
LINE
  8
_0-0_
  6
CONTINUOUS
 62
    7
 10
28.573387653697409
 20
17.640378533991111
 11
30.280494434884076
 21
15.933271752804558
  0
LINE
  8
_0-0_
  6
CONTINUOUS
 62
    7
 10
30.426941044290743
 20
15.579718362211224
 11
30.426941044290743
 21
11.8868251433978
  0
LINE
  8
_0-0_
  6
CONTINUOUS
 62
    7
 10
29.926941044290743
 20
11.3868251433978
 11
28.435958038665831
 21
11.3868251433978
  0
LINE
  8
_0-0_
  6
CONTINUOUS
 62
    7
 10
27.988744443165615
 20
11.110431941147908
 11
27.579727448790891
 21
10.292397952398005
  0
LINE
  8
_0-0_
  6
CONTINUOUS
 62
    7
 10
27.526941044290652
 20
10.068791154647897
 11
27.526941044290652
 21
8.2868251433978912
  0
LINE
  8
_0-0_
  6
CONTINUOUS
 62
    7
 10
28.026941044290652
 20
7.7868251433978912
 11
40.926941044290743
 21
7.7868251433978912
  0
LINE
  8
_0-0_
  6
CONTINUOUS
 62
    7
 10
42.426941044290743
 20
9.2868251433978912
 11
42.426941044290743
 21
22.186825143397755
  0
LINE
  8
_0-0_
  6
CONTINUOUS
 62
    7
 10
41.926941044290743
 20
22.686825143397755
 11
40.144975033040737
 21
22.686825143397755
  0
LINE
  8
_0-0_
  6
CONTINUOUS
 62
    7
 10
39.921368235290629
 20
22.634038738897743
 11
39.103334246540726
 21
22.225021744522792
  0
LINE
  8
_0-0_
  6
CONTINUOUS
 62
    7
 10
38.826941044290834
 20
21.777808149022803
 11
38.826941044290834
 21
20.286825143397891
  0
LINE
  8
_0-0_
  6
CONTINUOUS
 62
    7
 10
38.326941044290834
 20
19.786825143397891
 11
34.63404782547741
 21
19.786825143397891
  0
LINE
  8
_0-0_
  6
CONTINUOUS
 62
    7
 10
34.280494434884076
 20
19.933271752804558
 11
32.573387653697409
 21
21.640378533991111
  0
LINE
  8
_0-0_
  6
CONTINUOUS
 62
    7
 10
32.426941044290743
 20
21.993931924584331
 11
32.426941044290743
 21
27.072611581024717
  0
LINE
  8
_0-0_
  6
CONTINUOUS
 62
    7
 10
32.280494434884076
 20
27.426164971617936
 11
32.273387653697682
 21
27.433271752804558
  0
LINE
  8
_0-0_
  6
CONTINUOUS
 62
    7
 10
32.273387653697682
 20
28.140378533991111
 11
32.280494434884076
 21
28.147485315177619
  0
LINE
  8
_0-0_
  6
CONTINUOUS
 62
    7
 10
32.426941044290743
 20
28.501038705770952
 11
32.426941044290743
 21
33.579718362211224
  0
LINE
  8
_0-0_
  6
CONTINUOUS
 62
    7
 10
32.573387653697409
 20
33.933271752804558
 11
34.280494434884076
 21
35.640378533991111
  0
LINE
  8
_0-0_
  6
CONTINUOUS
 62
    7
 10
34.63404782547741
 20
35.786825143397891
 11
38.326941044290834
 21
35.786825143397891
  0
LINE
  8
_0-0_
  6
CONTINUOUS
 62
    7
 10
38.826941044290834
 20
35.286825143397891
 11
38.826941044290834
 21
33.795842137772752
  0
LINE
  8
_0-0_
  6
CONTINUOUS
 62
    7
 10
39.103334246540726
 20
33.348628542272877
 11
39.921368235290629
 21
32.939611547897925
  0
LINE
  8
_0-0_
  6
CONTINUOUS
 62
    7
 10
40.144975033040737
 20
32.8868251433978
 11
41.926941044290743
 21
32.8868251433978
  0
LINE
  8
_0-0_
  6
CONTINUOUS
 62
    7
 10
42.426941044290743
 20
33.3868251433978
 11
42.426941044290743
 21
42.186825143397755
  0
LINE
  8
_0-0_
  6
CONTINUOUS
 62
    7
 10
41.926941044290743
 20
42.686825143397755
 11
40.144975033040737
 21
42.686825143397755
  0
LINE
  8
_0-0_
  6
CONTINUOUS
 62
    7
 10
39.921368235290629
 20
42.634038738897743
 11
39.103334246540726
 21
42.225021744522792
  0
LINE
  8
_0-0_
  6
CONTINUOUS
 62
    7
 10
38.826941044290834
 20
41.777808149022803
 11
38.826941044290834
 21
40.286825143397891
  0
LINE
  8
_0-0_
  6
CONTINUOUS
 62
    7
 10
38.326941044290834
 20
39.786825143397891
 11
34.63404782547741
 21
39.786825143397891
  0
LINE
  8
_0-0_
  6
CONTINUOUS
 62
    7
 10
34.280494434884076
 20
39.933271752804558
 11
32.573387653697409
 21
41.640378533991111
  0
LINE
  8
_0-0_
  6
CONTINUOUS
 62
    7
 10
32.426941044290743
 20
41.993931924584331
 11
32.426941044290743
 21
47.072611581024717
  0
LINE
  8
_0-0_
  6
CONTINUOUS
 62
    7
 10
32.280494434884076
 20
47.426164971617936
 11
32.273387653697682
 21
47.433271752804558
  0
LINE
  8
_0-0_
  6
CONTINUOUS
 62
    7
 10
32.273387653697682
 20
48.140378533991111
 11
32.280494434884076
 21
48.147485315177619
  0
LINE
  8
_0-0_
  6
CONTINUOUS
 62
    7
 10
32.426941044290743
 20
48.501038705770952
 11
32.426941044290743
 21
53.579718362211224
  0
LINE
  8
_0-0_
  6
CONTINUOUS
 62
    7
 10
32.573387653697409
 20
53.933271752804558
 11
34.280494434884076
 21
55.640378533991111
  0
LINE
  8
_0-0_
  6
CONTINUOUS
 62
    7
 10
34.63404782547741
 20
55.786825143397891
 11
38.326941044290834
 21
55.786825143397891
  0
LINE
  8
_0-0_
  6
CONTINUOUS
 62
    7
 10
38.826941044290834
 20
55.286825143397891
 11
38.826941044290834
 21
53.795842137772752
  0
LINE
  8
_0-0_
  6
CONTINUOUS
 62
    7
 10
39.103334246540726
 20
53.348628542272877
 11
39.921368235290629
 21
52.939611547897925
  0
LINE
  8
_0-0_
  6
CONTINUOUS
 62
    7
 10
40.144975033040737
 20
52.8868251433978
 11
41.926941044290743
 21
52.8868251433978
  0
LINE
  8
_0-0_
  6
CONTINUOUS
 62
    7
 10
42.426941044290743
 20
53.3868251433978
 11
42.426941044290743
 21
66.286825143397891
  0
LINE
  8
_0-0_
  6
CONTINUOUS
 62
    7
 10
40.926941044290743
 20
67.786825143397891
 11
28.026941044290652
 21
67.786825143397891
  0
LINE
  8
_0-0_
  6
CONTINUOUS
 62
    7
 10
27.526941044290652
 20
67.286825143397891
 11
27.526941044290652
 21
65.504859132147658
  0
LINE
  8
_0-0_
  6
CONTINUOUS
 62
    7
 10
27.579727448790891
 20
65.281252334397777
 11
27.988744443165615
 21
64.463218345647874
  0
LINE
  8
_0-0_
  6
CONTINUOUS
 62
    7
 10
28.435958038665831
 20
64.186825143397755
 11
29.926941044290743
 21
64.186825143397755
  0
LINE
  8
_0-0_
  6
CONTINUOUS
 62
    7
 10
30.426941044290743
 20
63.686825143397755
 11
30.426941044290743
 21
59.993931924584331
  0
LINE
  8
_0-0_
  6
CONTINUOUS
 62
    7
 10
30.280494434884076
 20
59.640378533991111
 11
28.573387653697409
 21
57.933271752804558
  0
LINE
  8
_0-0_
  6
CONTINUOUS
 62
    7
 10
28.219834263104076
 20
57.786825143397891
 11
16.63404782547741
 21
57.786825143397891
  0
LINE
  8
_0-0_
  6
CONTINUOUS
 62
    7
 10
16.280494434884076
 20
57.933271752804558
 11
14.573387653697409
 21
59.640378533991111
  0
LINE
  8
_0-0_
  6
CONTINUOUS
 62
    7
 10
14.426941044290743
 20
59.993931924584331
 11
14.426941044290743
 21
63.686825143397755
  0
LINE
  8
_0-0_
  6
CONTINUOUS
 62
    7
 10
14.926941044290743
 20
64.186825143397755
 11
16.417924049915655
 21
64.186825143397755
  0
LINE
  8
_0-0_
  6
CONTINUOUS
 62
    7
 10
16.865137645415871
 20
64.463218345647874
 11
17.274154639790595
 21
65.281252334397777
  0
LINE
  8
_0-0_
  6
CONTINUOUS
 62
    7
 10
17.326941044290834
 20
65.504859132147658
 11
17.326941044290834
 21
67.286825143397891
  0
LINE
  8
_0-0_
  6
CONTINUOUS
 62
    7
 10
16.826941044290834
 20
67.786825143397891
 11
3.9269410442907429
 21
67.786825143397891
  0
LINE
  8
_0-0_
  6
CONTINUOUS
 62
    7
 10
2.4269410442907429
 20
66.286825143397891
 11
2.4269410442907429
 21
53.3868251433978
  0
LINE
  8
_0-0_
  6
CONTINUOUS
 62
    7
 10
2.9269410442907429
 20
52.8868251433978
 11
4.7089070555407488
 21
52.8868251433978
  0
LINE
  8
_0-0_
  6
CONTINUOUS
 62
    7
 10
4.9325138532908568
 20
52.939611547897925
 11
5.7505478420407599
 21
53.348628542272877
  0
LINE
  8
_0-0_
  6
CONTINUOUS
 62
    7
 10
6.0269410442906519
 20
53.795842137772752
 11
6.0269410442906519
 21
55.286825143397891
  0
LINE
  8
_0-0_
  6
CONTINUOUS
 62
    7
 10
6.5269410442906519
 20
55.786825143397891
 11
10.219834263104076
 21
55.786825143397891
  0
LINE
  8
_0-0_
  6
CONTINUOUS
 62
    7
 10
10.573387653697409
 20
55.640378533991111
 11
12.280494434884076
 21
53.933271752804558
  0
LINE
  8
_0-0_
  6
CONTINUOUS
 62
    7
 10
12.426941044290743
 20
53.579718362211224
 11
12.426941044290743
 21
48.501038705770952
  0
LINE
  8
_0-0_
  6
CONTINUOUS
 62
    7
 10
12.573387653697409
 20
48.147485315177619
 11
12.580494434883803
 21
48.140378533991111
  0
LINE
  8
_0-0_
  6
CONTINUOUS
 62
    7
 10
12.580494434883803
 20
47.433271752804558
 11
12.573387653697409
 21
47.426164971617936
  0
LINE
  8
_0-0_
  6
CONTINUOUS
 62
    7
 10
12.426941044290743
 20
47.072611581024717
 11
12.426941044290743
 21
41.993931924584331
  0
LINE
  8
_0-0_
  6
CONTINUOUS
 62
    7
 10
12.280494434884076
 20
41.640378533991111
 11
10.573387653697409
 21
39.933271752804558
  0
LINE
  8
_0-0_
  6
CONTINUOUS
 62
    7
 10
10.219834263104076
 20
39.786825143397891
 11
6.5269410442906519
 21
39.786825143397891
  0
LINE
  8
_0-0_
  6
CONTINUOUS
 62
    7
 10
6.0269410442906519
 20
40.286825143397891
 11
6.0269410442906519
 21
41.777808149022803
  0
LINE
  8
_0-0_
  6
CONTINUOUS
 62
    7
 10
5.7505478420407599
 20
42.225021744522792
 11
4.9325138532908568
 21
42.634038738897743
  0
LINE
  8
_0-0_
  6
CONTINUOUS
 62
    7
 10
4.7089070555407488
 20
42.686825143397755
 11
2.9269410442907429
 21
42.686825143397755
  0
LINE
  8
_0-0_
  6
CONTINUOUS
 62
    7
 10
2.4269410442907429
 20
42.186825143397755
 11
2.4269410442907429
 21
33.3868251433978
  0
LINE
  8
_0-0_
  6
CONTINUOUS
 62
    7
 10
2.9269410442907429
 20
32.8868251433978
 11
4.7089070555407488
 21
32.8868251433978
  0
LINE
  8
_0-0_
  6
CONTINUOUS
 62
    7
 10
4.9325138532908568
 20
32.939611547897925
 11
5.7505478420407599
 21
33.348628542272877
  0
LINE
  8
_0-0_
  6
CONTINUOUS
 62
    7
 10
6.0269410442906519
 20
33.795842137772752
 11
6.0269410442906519
 21
35.286825143397891
  0
LINE
  8
_0-0_
  6
CONTINUOUS
 62
    7
 10
6.5269410442906519
 20
35.786825143397891
 11
10.219834263104076
 21
35.786825143397891
  0
LINE
  8
_0-0_
  6
CONTINUOUS
 62
    7
 10
10.573387653697409
 20
35.640378533991111
 11
12.280494434884076
 21
33.933271752804558
  0
LINE
  8
_0-0_
  6
CONTINUOUS
 62
    7
 10
12.426941044290743
 20
33.579718362211224
 11
12.426941044290743
 21
28.501038705770952
  0
LINE
  8
_0-0_
  6
CONTINUOUS
 62
    7
 10
12.573387653697409
 20
28.147485315177619
 11
12.580494434883803
 21
28.140378533991111
  0
LINE
  8
_0-0_
  6
CONTINUOUS
 62
    7
 10
12.580494434883803
 20
27.433271752804558
 11
12.573387653697409
 21
27.426164971617936
  0
LINE
  8
_0-0_
  6
CONTINUOUS
 62
    7
 10
12.426941044290743
 20
27.072611581024717
 11
12.426941044290743
 21
21.993931924584331
  0
LINE
  8
_0-0_
  6
CONTINUOUS
 62
    7
 10
12.280494434884076
 20
21.640378533991111
 11
10.573387653697409
 21
19.933271752804558
  0
LINE
  8
_0-0_
  6
CONTINUOUS
 62
    7
 10
10.219834263104076
 20
19.786825143397891
 11
6.5269410442906519
 21
19.786825143397891
  0
LINE
  8
_0-0_
  6
CONTINUOUS
 62
    7
 10
6.0269410442906519
 20
20.286825143397891
 11
6.0269410442906519
 21
21.777808149022803
  0
LINE
  8
_0-0_
  6
CONTINUOUS
 62
    7
 10
5.7505478420407599
 20
22.225021744522792
 11
4.9325138532908568
 21
22.634038738897743
  0
LINE
  8
_0-0_
  6
CONTINUOUS
 62
    7
 10
4.7089070555407488
 20
22.686825143397755
 11
2.9269410442907429
 21
22.686825143397755
  0
LINE
  8
_0-0_
  6
CONTINUOUS
 62
    7
 10
2.4269410442907429
 20
22.186825143397755
 11
2.4269410442907429
 21
9.2868251433978912
  0
LINE
  8
_0-0_
  6
CONTINUOUS
 62
    7
 10
15.426941044290743
 20
19.886825143398028
 11
29.426941044290743
 21
19.886825143398028
  0
LINE
  8
_0-0_
  6
CONTINUOUS
 62
    7
 10
29.926941044290743
 20
20.386825143398028
 11
29.926941044290743
 21
21.535159093558377
  0
LINE
  8
_0-0_
  6
CONTINUOUS
 62
    7
 10
29.676941044290743
 20
21.968171795450644
 11
26.776941044290652
 21
23.642487576100621
  0
LINE
  8
_0-0_
  6
CONTINUOUS
 62
    7
 10
26.526941044290652
 20
24.075500277992887
 11
26.526941044290652
 21
31.49815000880335
  0
LINE
  8
_0-0_
  6
CONTINUOUS
 62
    7
 10
26.776941044290652
 20
31.931162710695389
 11
29.676941044290743
 21
33.605478491345366
  0
LINE
  8
_0-0_
  6
CONTINUOUS
 62
    7
 10
29.926941044290743
 20
34.038491193237405
 11
29.926941044290743
 21
41.535159093558377
  0
LINE
  8
_0-0_
  6
CONTINUOUS
 62
    7
 10
29.676941044290743
 20
41.968171795450644
 11
26.776941044290652
 21
43.642487576100621
  0
LINE
  8
_0-0_
  6
CONTINUOUS
 62
    7
 10
26.526941044290652
 20
44.075500277992887
 11
26.526941044290652
 21
51.49815000880335
  0
LINE
  8
_0-0_
  6
CONTINUOUS
 62
    7
 10
26.776941044290652
 20
51.931162710695389
 11
29.676941044290743
 21
53.605478491345366
  0
LINE
  8
_0-0_
  6
CONTINUOUS
 62
    7
 10
29.926941044290743
 20
54.038491193237405
 11
29.926941044290743
 21
55.186825143397982
  0
LINE
  8
_0-0_
  6
CONTINUOUS
 62
    7
 10
29.426941044290743
 20
55.686825143397982
 11
15.426941044290743
 21
55.686825143397982
  0
LINE
  8
_0-0_
  6
CONTINUOUS
 62
    7
 10
14.926941044290743
 20
55.186825143397982
 11
14.926941044290743
 21
54.038491193237405
  0
LINE
  8
_0-0_
  6
CONTINUOUS
 62
    7
 10
15.176941044290743
 20
53.605478491345366
 11
18.076941044290834
 21
51.931162710695389
  0
LINE
  8
_0-0_
  6
CONTINUOUS
 62
    7
 10
18.326941044290834
 20
51.49815000880335
 11
18.326941044290834
 21
44.075500277992887
  0
LINE
  8
_0-0_
  6
CONTINUOUS
 62
    7
 10
18.076941044290834
 20
43.642487576100621
 11
15.176941044290743
 21
41.968171795450644
  0
LINE
  8
_0-0_
  6
CONTINUOUS
 62
    7
 10
14.926941044290743
 20
41.535159093558377
 11
14.926941044290743
 21
34.038491193237405
  0
LINE
  8
_0-0_
  6
CONTINUOUS
 62
    7
 10
15.176941044290743
 20
33.605478491345366
 11
18.076941044290834
 21
31.931162710695389
  0
LINE
  8
_0-0_
  6
CONTINUOUS
 62
    7
 10
18.326941044290834
 20
31.49815000880335
 11
18.326941044290834
 21
24.075500277992887
  0
LINE
  8
_0-0_
  6
CONTINUOUS
 62
    7
 10
18.076941044290834
 20
23.642487576100621
 11
15.176941044290743
 21
21.968171795450644
  0
LINE
  8
_0-0_
  6
CONTINUOUS
 62
    7
 10
14.926941044290743
 20
21.535159093558377
 11
14.926941044290743
 21
20.386825143398028
  0
ARC
  8
_0-0_
  6
CONTINUOUS
 62
    7
 10
12.926941044290743
 20
48.501038705770952
 40
0.5
 50
180
 51
224.99999999999886
  0
ARC
  8
_0-0_
  6
CONTINUOUS
 62
    7
 10
12.926941044290743
 20
47.072611581024717
 40
0.5
 50
134.99999999999963
 51
180
  0
ARC
  8
_0-0_
  6
CONTINUOUS
 62
    7
 10
12.22694104429047
 20
47.786825143397891
 40
0.5
 50
315.00000000000057
 51
44.999999999999133
  0
ARC
  8
_0-0_
  6
CONTINUOUS
 62
    7
 10
17.826941044290834
 20
31.49815000880335
 40
0.5
 50
0
 51
60.000000000000057
  0
ARC
  8
_0-0_
  6
CONTINUOUS
 62
    7
 10
15.426941044290743
 20
34.038491193237405
 40
0.5
 50
180
 51
239.99999999999997
  0
ARC
  8
_0-0_
  6
CONTINUOUS
 62
    7
 10
27.026941044290652
 20
31.49815000880335
 40
0.5
 50
119.99999999999997
 51
180
  0
ARC
  8
_0-0_
  6
CONTINUOUS
 62
    7
 10
29.426941044290743
 20
34.038491193237405
 40
0.5
 50
300
 51
0.0000000000000127
  0
ARC
  8
_0-0_
  6
CONTINUOUS
 62
    7
 10
17.826941044290834
 20
24.075500277992887
 40
0.5
 50
299.99999999999989
 51
0.0000000000000254
  0
ARC
  8
_0-0_
  6
CONTINUOUS
 62
    7
 10
15.426941044290743
 20
21.535159093558377
 40
0.5
 50
120.00000000000001
 51
180
  0
ARC
  8
_0-0_
  6
CONTINUOUS
 62
    7
 10
15.426941044290743
 20
20.386825143398028
 40
0.5
 50
180
 51
270
  0
ARC
  8
_0-0_
  6
CONTINUOUS
 62
    7
 10
27.026941044290652
 20
24.075500277992887
 40
0.5
 50
180
 51
240.00000000000003
  0
ARC
  8
_0-0_
  6
CONTINUOUS
 62
    7
 10
29.426941044290743
 20
21.535159093558377
 40
0.5
 50
0
 51
59.999999999999986
  0
ARC
  8
_0-0_
  6
CONTINUOUS
 62
    7
 10
29.426941044290743
 20
20.386825143398028
 40
0.5
 50
270
 51
0
  0
ARC
  8
_0-0_
  6
CONTINUOUS
 62
    7
 10
17.826941044290834
 20
24.075500277992887
 40
0.5
 50
299.99999999999989
 51
0.0000000000000254
  0
ARC
  8
_0-0_
  6
CONTINUOUS
 62
    7
 10
15.426941044290743
 20
21.535159093558377
 40
0.5
 50
120.00000000000001
 51
180
  0
ARC
  8
_0-0_
  6
CONTINUOUS
 62
    7
 10
15.426941044290743
 20
20.386825143398028
 40
0.5
 50
180
 51
270
  0
ARC
  8
_0-0_
  6
CONTINUOUS
 62
    7
 10
17.826941044290834
 20
51.49815000880335
 40
0.5
 50
0
 51
60.000000000000057
  0
ARC
  8
_0-0_
  6
CONTINUOUS
 62
    7
 10
15.426941044290743
 20
54.038491193237405
 40
0.5
 50
180
 51
239.99999999999997
  0
ARC
  8
_0-0_
  6
CONTINUOUS
 62
    7
 10
15.426941044290743
 20
55.186825143397982
 40
0.5
 50
90
 51
180
  0
ARC
  8
_0-0_
  6
CONTINUOUS
 62
    7
 10
27.026941044290652
 20
51.49815000880335
 40
0.5
 50
119.99999999999997
 51
180
  0
ARC
  8
_0-0_
  6
CONTINUOUS
 62
    7
 10
29.426941044290743
 20
54.038491193237405
 40
0.5
 50
300
 51
0.0000000000000127
  0
ARC
  8
_0-0_
  6
CONTINUOUS
 62
    7
 10
29.426941044290743
 20
55.186825143397982
 40
0.5
 50
0
 51
90
  0
ARC
  8
_0-0_
  6
CONTINUOUS
 62
    7
 10
17.826941044290834
 20
44.075500277992887
 40
0.5
 50
299.99999999999989
 51
0.0000000000000254
  0
ARC
  8
_0-0_
  6
CONTINUOUS
 62
    7
 10
15.426941044290743
 20
41.535159093558377
 40
0.5
 50
120.00000000000001
 51
180
  0
ARC
  8
_0-0_
  6
CONTINUOUS
 62
    7
 10
27.026941044290652
 20
44.075500277992887
 40
0.5
 50
180
 51
240.00000000000003
  0
ARC
  8
_0-0_
  6
CONTINUOUS
 62
    7
 10
29.426941044290743
 20
41.535159093558377
 40
0.5
 50
0
 51
59.999999999999986
  0
ARC
  8
_0-0_
  6
CONTINUOUS
 62
    7
 10
17.826941044290834
 20
44.075500277992887
 40
0.5
 50
299.99999999999989
 51
0.0000000000000254
  0
ARC
  8
_0-0_
  6
CONTINUOUS
 62
    7
 10
15.426941044290743
 20
41.535159093558377
 40
0.5
 50
120.00000000000001
 51
180
  0
CIRCLE
  8
_0-0_
  6
CONTINUOUS
 62
    7
 10
36.426941044290743
 20
13.786825143397891
 40
3.3999999999999999
  0
ARC
  8
_0-0_
  6
CONTINUOUS
 62
    7
 10
40.926941044290743
 20
9.2868251433978912
 40
1.5
 50
270
 51
0
  0
ARC
  8
_0-0_
  6
CONTINUOUS
 62
    7
 10
28.026941044290652
 20
8.2868251433978912
 40
0.5
 50
180
 51
270
  0
ARC
  8
_0-0_
  6
CONTINUOUS
 62
    7
 10
28.026941044290652
 20
10.068791154647897
 40
0.5
 50
153.43494882292185
 51
180.00000000000006
  0
ARC
  8
_0-0_
  6
CONTINUOUS
 62
    7
 10
28.435958038665831
 20
10.8868251433978
 40
0.5
 50
90
 51
153.43494882292197
  0
ARC
  8
_0-0_
  6
CONTINUOUS
 62
    7
 10
29.926941044290743
 20
11.8868251433978
 40
0.5
 50
270
 51
0
  0
ARC
  8
_0-0_
  6
CONTINUOUS
 62
    7
 10
29.926941044290743
 20
15.579718362211224
 40
0.5
 50
0
 51
45
  0
ARC
  8
_0-0_
  6
CONTINUOUS
 62
    7
 10
28.219834263104076
 20
17.286825143397891
 40
0.5
 50
44.99999999999995
 51
90
  0
ARC
  8
_0-0_
  6
CONTINUOUS
 62
    7
 10
41.926941044290743
 20
22.186825143397755
 40
0.5
 50
0
 51
90
  0
ARC
  8
_0-0_
  6
CONTINUOUS
 62
    7
 10
40.144975033040737
 20
22.186825143397755
 40
0.5
 50
90
 51
116.56505117707889
  0
ARC
  8
_0-0_
  6
CONTINUOUS
 62
    7
 10
39.326941044290834
 20
21.777808149022803
 40
0.5
 50
116.56505117707795
 51
180
  0
ARC
  8
_0-0_
  6
CONTINUOUS
 62
    7
 10
38.326941044290834
 20
20.286825143397891
 40
0.5
 50
270
 51
0
  0
ARC
  8
_0-0_
  6
CONTINUOUS
 62
    7
 10
34.63404782547741
 20
20.286825143397891
 40
0.5
 50
225
 51
270
  0
ARC
  8
_0-0_
  6
CONTINUOUS
 62
    7
 10
32.926941044290743
 20
21.993931924584331
 40
0.5
 50
180
 51
224.99999999999994
  0
ARC
  8
_0-0_
  6
CONTINUOUS
 62
    7
 10
32.926941044290743
 20
33.579718362211224
 40
0.5
 50
134.99999999999994
 51
179.99999999999994
  0
ARC
  8
_0-0_
  6
CONTINUOUS
 62
    7
 10
34.63404782547741
 20
35.286825143397891
 40
0.5
 50
90
 51
135.00000000000006
  0
ARC
  8
_0-0_
  6
CONTINUOUS
 62
    7
 10
38.326941044290834
 20
35.286825143397891
 40
0.5
 50
0
 51
89.999999999999986
  0
ARC
  8
_0-0_
  6
CONTINUOUS
 62
    7
 10
39.326941044290834
 20
33.795842137772752
 40
0.5
 50
180
 51
243.43494882292114
  0
ARC
  8
_0-0_
  6
CONTINUOUS
 62
    7
 10
40.144975033040737
 20
33.3868251433978
 40
0.5
 50
243.43494882292069
 51
270
  0
ARC
  8
_0-0_
  6
CONTINUOUS
 62
    7
 10
41.926941044290743
 20
33.3868251433978
 40
0.5
 50
270
 51
0
  0
ARC
  8
_0-0_
  6
CONTINUOUS
 62
    7
 10
27.026941044290652
 20
24.075500277992887
 40
0.5
 50
180
 51
240.00000000000003
  0
CIRCLE
  8
_0-0_
  6
CONTINUOUS
 62
    7
 10
8.4269410442907429
 20
13.786825143397891
 40
3.3999999999999999
  0
ARC
  8
_0-0_
  6
CONTINUOUS
 62
    7
 10
3.9269410442907429
 20
9.2868251433978912
 40
1.5
 50
180
 51
270
  0
ARC
  8
_0-0_
  6
CONTINUOUS
 62
    7
 10
16.826941044290834
 20
8.2868251433978912
 40
0.5
 50
270
 51
0
  0
ARC
  8
_0-0_
  6
CONTINUOUS
 62
    7
 10
16.826941044290834
 20
10.068791154647897
 40
0.5
 50
359.99999999999994
 51
26.56505117707815
  0
ARC
  8
_0-0_
  6
CONTINUOUS
 62
    7
 10
16.417924049915655
 20
10.8868251433978
 40
0.5
 50
26.565051177078068
 51
90
  0
ARC
  8
_0-0_
  6
CONTINUOUS
 62
    7
 10
14.926941044290743
 20
11.8868251433978
 40
0.5
 50
180
 51
270
  0
ARC
  8
_0-0_
  6
CONTINUOUS
 62
    7
 10
14.926941044290743
 20
15.579718362211224
 40
0.5
 50
135
 51
180
  0
ARC
  8
_0-0_
  6
CONTINUOUS
 62
    7
 10
16.63404782547741
 20
17.286825143397891
 40
0.5
 50
90
 51
135.00000000000006
  0
ARC
  8
_0-0_
  6
CONTINUOUS
 62
    7
 10
2.9269410442907429
 20
22.186825143397755
 40
0.5
 50
90
 51
180
  0
ARC
  8
_0-0_
  6
CONTINUOUS
 62
    7
 10
4.7089070555407488
 20
22.186825143397755
 40
0.5
 50
63.434948822921115
 51
90
  0
ARC
  8
_0-0_
  6
CONTINUOUS
 62
    7
 10
5.5269410442906519
 20
21.777808149022803
 40
0.5
 50
0
 51
63.43494882292206
  0
ARC
  8
_0-0_
  6
CONTINUOUS
 62
    7
 10
6.5269410442906519
 20
20.286825143397891
 40
0.5
 50
180
 51
270
  0
ARC
  8
_0-0_
  6
CONTINUOUS
 62
    7
 10
10.219834263104076
 20
20.286825143397891
 40
0.5
 50
270
 51
315
  0
ARC
  8
_0-0_
  6
CONTINUOUS
 62
    7
 10
11.926941044290743
 20
21.993931924584331
 40
0.5
 50
315.00000000000006
 51
0
  0
ARC
  8
_0-0_
  6
CONTINUOUS
 62
    7
 10
11.926941044290743
 20
33.579718362211224
 40
0.5
 50
0.0000000000000508
 51
45.00000000000005
  0
ARC
  8
_0-0_
  6
CONTINUOUS
 62
    7
 10
10.219834263104076
 20
35.286825143397891
 40
0.5
 50
44.99999999999995
 51
90
  0
ARC
  8
_0-0_
  6
CONTINUOUS
 62
    7
 10
6.5269410442906519
 20
35.286825143397891
 40
0.5
 50
90.000000000000028
 51
180
  0
ARC
  8
_0-0_
  6
CONTINUOUS
 62
    7
 10
5.5269410442906519
 20
33.795842137772752
 40
0.5
 50
296.56505117707889
 51
0
  0
ARC
  8
_0-0_
  6
CONTINUOUS
 62
    7
 10
4.7089070555407488
 20
33.3868251433978
 40
0.5
 50
270
 51
296.56505117707934
  0
ARC
  8
_0-0_
  6
CONTINUOUS
 62
    7
 10
2.9269410442907429
 20
33.3868251433978
 40
0.5
 50
180
 51
270
  0
CIRCLE
  8
_0-0_
  6
CONTINUOUS
 62
    7
 10
8.4269410442907429
 20
61.786825143397891
 40
3.3999999999999999
  0
ARC
  8
_0-0_
  6
CONTINUOUS
 62
    7
 10
3.9269410442907429
 20
66.286825143397891
 40
1.5
 50
90
 51
180
  0
ARC
  8
_0-0_
  6
CONTINUOUS
 62
    7
 10
16.826941044290834
 20
67.286825143397891
 40
0.5
 50
0
 51
90
  0
ARC
  8
_0-0_
  6
CONTINUOUS
 62
    7
 10
16.826941044290834
 20
65.504859132147658
 40
0.5
 50
333.43494882292185
 51
0.0000000000000572
  0
ARC
  8
_0-0_
  6
CONTINUOUS
 62
    7
 10
16.417924049915655
 20
64.686825143397755
 40
0.5
 50
270
 51
333.43494882292191
  0
ARC
  8
_0-0_
  6
CONTINUOUS
 62
    7
 10
14.926941044290743
 20
63.686825143397755
 40
0.5
 50
90
 51
180
  0
ARC
  8
_0-0_
  6
CONTINUOUS
 62
    7
 10
14.926941044290743
 20
59.993931924584331
 40
0.5
 50
180
 51
225
  0
ARC
  8
_0-0_
  6
CONTINUOUS
 62
    7
 10
16.63404782547741
 20
58.286825143397891
 40
0.5
 50
224.99999999999994
 51
270
  0
ARC
  8
_0-0_
  6
CONTINUOUS
 62
    7
 10
2.9269410442907429
 20
53.3868251433978
 40
0.5
 50
180
 51
270
  0
ARC
  8
_0-0_
  6
CONTINUOUS
 62
    7
 10
4.7089070555407488
 20
53.3868251433978
 40
0.5
 50
270
 51
296.56505117707889
  0
ARC
  8
_0-0_
  6
CONTINUOUS
 62
    7
 10
5.5269410442906519
 20
53.795842137772752
 40
0.5
 50
296.56505117707786
 51
0.0000000000000381
  0
ARC
  8
_0-0_
  6
CONTINUOUS
 62
    7
 10
6.5269410442906519
 20
55.286825143397891
 40
0.5
 50
90
 51
180
  0
ARC
  8
_0-0_
  6
CONTINUOUS
 62
    7
 10
10.219834263104076
 20
55.286825143397891
 40
0.5
 50
45
 51
90
  0
ARC
  8
_0-0_
  6
CONTINUOUS
 62
    7
 10
11.926941044290743
 20
53.579718362211224
 40
0.5
 50
0
 51
44.99999999999995
  0
ARC
  8
_0-0_
  6
CONTINUOUS
 62
    7
 10
11.926941044290743
 20
41.993931924584331
 40
0.5
 50
314.99999999999994
 51
359.99999999999994
  0
ARC
  8
_0-0_
  6
CONTINUOUS
 62
    7
 10
10.219834263104076
 20
40.286825143397891
 40
0.5
 50
270
 51
315.00000000000006
  0
ARC
  8
_0-0_
  6
CONTINUOUS
 62
    7
 10
6.5269410442906519
 20
40.286825143397891
 40
0.5
 50
180
 51
270
  0
ARC
  8
_0-0_
  6
CONTINUOUS
 62
    7
 10
5.5269410442906519
 20
41.777808149022803
 40
0.5
 50
0
 51
63.434948822921143
  0
ARC
  8
_0-0_
  6
CONTINUOUS
 62
    7
 10
4.7089070555407488
 20
42.186825143397755
 40
0.5
 50
63.434948822920681
 51
90
  0
ARC
  8
_0-0_
  6
CONTINUOUS
 62
    7
 10
2.9269410442907429
 20
42.186825143397755
 40
0.5
 50
90
 51
180
  0
ARC
  8
_0-0_
  6
CONTINUOUS
 62
    7
 10
17.826941044290834
 20
51.498150008802895
 40
0.5
 50
0
 51
60.000000000000036
  0
CIRCLE
  8
_0-0_
  6
CONTINUOUS
 62
    7
 10
36.426941044290743
 20
61.786825143397891
 40
3.3999999999999999
  0
ARC
  8
_0-0_
  6
CONTINUOUS
 62
    7
 10
40.926941044290743
 20
66.286825143397891
 40
1.5
 50
0
 51
90
  0
ARC
  8
_0-0_
  6
CONTINUOUS
 62
    7
 10
28.026941044290652
 20
67.286825143397891
 40
0.5
 50
90
 51
180
  0
ARC
  8
_0-0_
  6
CONTINUOUS
 62
    7
 10
28.026941044290652
 20
65.504859132147658
 40
0.5
 50
179.99999999999994
 51
206.56505117707815
  0
ARC
  8
_0-0_
  6
CONTINUOUS
 62
    7
 10
28.435958038665831
 20
64.686825143397755
 40
0.5
 50
206.56505117707806
 51
270
  0
ARC
  8
_0-0_
  6
CONTINUOUS
 62
    7
 10
29.926941044290743
 20
63.686825143397755
 40
0.5
 50
0
 51
90
  0
ARC
  8
_0-0_
  6
CONTINUOUS
 62
    7
 10
29.926941044290743
 20
59.993931924584331
 40
0.5
 50
315
 51
0
  0
ARC
  8
_0-0_
  6
CONTINUOUS
 62
    7
 10
28.219834263104076
 20
58.286825143397891
 40
0.5
 50
270
 51
315.00000000000006
  0
ARC
  8
_0-0_
  6
CONTINUOUS
 62
    7
 10
41.926941044290743
 20
53.3868251433978
 40
0.5
 50
270
 51
0
  0
ARC
  8
_0-0_
  6
CONTINUOUS
 62
    7
 10
40.144975033040737
 20
53.3868251433978
 40
0.5
 50
243.43494882292114
 51
270
  0
ARC
  8
_0-0_
  6
CONTINUOUS
 62
    7
 10
39.326941044290834
 20
53.795842137772752
 40
0.5
 50
180
 51
243.43494882292205
  0
ARC
  8
_0-0_
  6
CONTINUOUS
 62
    7
 10
38.326941044290834
 20
55.286825143397891
 40
0.5
 50
0
 51
90
  0
ARC
  8
_0-0_
  6
CONTINUOUS
 62
    7
 10
34.63404782547741
 20
55.286825143397891
 40
0.5
 50
90
 51
135
  0
ARC
  8
_0-0_
  6
CONTINUOUS
 62
    7
 10
32.926941044290743
 20
53.579718362211224
 40
0.5
 50
135.00000000000006
 51
180
  0
ARC
  8
_0-0_
  6
CONTINUOUS
 62
    7
 10
32.926941044290743
 20
41.993931924584331
 40
0.5
 50
180.00000000000006
 51
225.00000000000006
  0
ARC
  8
_0-0_
  6
CONTINUOUS
 62
    7
 10
34.63404782547741
 20
40.286825143397891
 40
0.5
 50
224.99999999999994
 51
270
  0
ARC
  8
_0-0_
  6
CONTINUOUS
 62
    7
 10
38.326941044290834
 20
40.286825143397891
 40
0.5
 50
270
 51
0
  0
ARC
  8
_0-0_
  6
CONTINUOUS
 62
    7
 10
39.326941044290834
 20
41.777808149022803
 40
0.5
 50
116.56505117707886
 51
180
  0
ARC
  8
_0-0_
  6
CONTINUOUS
 62
    7
 10
40.144975033040737
 20
42.186825143397755
 40
0.5
 50
90
 51
116.56505117707931
  0
ARC
  8
_0-0_
  6
CONTINUOUS
 62
    7
 10
41.926941044290743
 20
42.186825143397755
 40
0.5
 50
0
 51
90
  0
ARC
  8
_0-0_
  6
CONTINUOUS
 62
    7
 10
12.926941044290743
 20
28.501038705770952
 40
0.5
 50
180
 51
224.99999999999886
  0
ARC
  8
_0-0_
  6
CONTINUOUS
 62
    7
 10
12.926941044290743
 20
27.072611581024717
 40
0.5
 50
134.99999999999963
 51
180
  0
ARC
  8
_0-0_
  6
CONTINUOUS
 62
    7
 10
12.22694104429047
 20
27.786825143397891
 40
0.5
 50
315.00000000000057
 51
44.999999999999133
  0
ARC
  8
_0-0_
  6
CONTINUOUS
 62
    7
 10
31.926941044290743
 20
27.072611581024717
 40
0.5
 50
0
 51
44.999999999998856
  0
ARC
  8
_0-0_
  6
CONTINUOUS
 62
    7
 10
31.926941044290743
 20
28.501038705770952
 40
0.5
 50
314.99999999999966
 51
0
  0
ARC
  8
_0-0_
  6
CONTINUOUS
 62
    7
 10
32.626941044291016
 20
27.786825143397891
 40
0.5
 50
135.00000000000057
 51
224.99999999999915
  0
ARC
  8
_0-0_
  6
CONTINUOUS
 62
    7
 10
31.926941044290743
 20
47.072611581024717
 40
0.5
 50
0
 51
44.999999999998856
  0
ARC
  8
_0-0_
  6
CONTINUOUS
 62
    7
 10
31.926941044290743
 20
48.501038705770952
 40
0.5
 50
314.99999999999966
 51
0
  0
ARC
  8
_0-0_
  6
CONTINUOUS
 62
    7
 10
32.626941044291016
 20
47.786825143397891
 40
0.5
 50
135.00000000000057
 51
224.99999999999915
  0
LINE
  8
_0-1_
  6
CENTER1
 62
  152
 10
36.426941044290743
 20
65.186825143397755
 11
36.426941044290743
 21
58.3868251433978
  0
LINE
  8
_0-1_
  6
CENTER1
 62
  152
 10
39.826941044290834
 20
61.786825143397891
 11
33.026941044290652
 21
61.786825143397891
  0
LINE
  8
_0-1_
  6
CENTER1
 62
  152
 10
22.426941044290743
 20
7.7868251433978912
 11
22.426941044290743
 21
67.786825143397891
  0
LINE
  8
_0-1_
  6
CENTER1
 62
  152
 10
2.4269400442908591
 20
47.786825143397891
 11
42.426931044290541
 21
47.786825143397891
  0
LINE
  8
_0-1_
  6
CENTER1
 62
  152
 10
2.4269400442908591
 20
27.786825143397891
 11
42.426931044290541
 21
27.786825143397891
  0
LINE
  8
_0-1_
  6
CENTER1
 62
  152
 10
36.426941044290743
 20
10.3868251433978
 11
36.426941044290743
 21
17.186825143397755
  0
LINE
  8
_0-1_
  6
CENTER1
 62
  152
 10
39.826941044290834
 20
13.786825143397891
 11
33.026941044290652
 21
13.786825143397891
  0
LINE
  8
_0-1_
  6
CENTER1
 62
  152
 10
5.0269410442906519
 20
13.786825143397891
 11
11.826941044290834
 21
13.786825143397891
  0
LINE
  8
_0-1_
  6
CENTER1
 62
  152
 10
8.4269410442907429
 20
10.3868251433978
 11
8.4269410442907429
 21
17.186825143397755
  0
LINE
  8
_0-1_
  6
CENTER1
 62
  152
 10
8.4269410442907429
 20
65.186825143397755
 11
8.4269410442907429
 21
58.3868251433978
  0
LINE
  8
_0-1_
  6
CENTER1
 62
  152
 10
11.826941044290834
 20
61.786825143397891
 11
5.0269410442906519
 21
61.786825143397891
  0
ENDSEC
  0
EOF
