  0
SECTION
  2
HEADER
  9
$ACADVER
  1
AC1009
  9
$INSBASE
 10
0
 20
0
 30
0
  9
$EXTMIN
 10
0
 20
0
  9
$EXTMAX
 10
1189
 20
841
  9
$LIMMIN
 10
0
 20
0
  9
$LIMMAX
 10
1189
 20
841
  9
$LTSCALE
 40
1
  0
ENDSEC
  0
SECTION
  2
TABLES
  0
TABLE
  2
LTYPE
 70
     9
  0
LTYPE
  2
CONTINUOUS
 70
    64
  3
実線
 72
    65
 73
     0
 40
0.0
  0
LTYPE
  2
DASHED1
 70
    64
  3
--  --  --  --  --  --  --  --  
 72
    65
 73
     2
 40
2.5
 49
1.25
 49
-1.25
  0
LTYPE
  2
DASHED2
 70
    64
  3
----    ----    ----    ----    
 72
    65
 73
     2
 40
5.0
 49
2.5
 49
-2.5
  0
LTYPE
  2
DASHED3
 70
    64
  3
------  ------  ------  ------  
 72
    65
 73
     2
 40
5.0
 49
3.75
 49
-1.25
  0
LTYPE
  2
CENTER1
 70
    64
  3
----- - ----- - ----- - ----- - 
 72
    65
 73
     4
 40
10.0
 49
6.25
 49
-1.25
 49
1.25
 49
-1.25
  0
LTYPE
  2
CENTER2
 70
    64
  3
----------  --  ----------  --  
 72
    65
 73
     4
 40
20.0
 49
12.5
 49
-2.5
 49
2.5
 49
-2.5
  0
LTYPE
  2
PHANTOM1
 70
    64
  3
--- - - --- - - --- - - --- - - 
 72
    65
 73
     6
 40
10.0
 49
3.25
 49
-1.25
 49
1.25
 49
-1.25
 49
1.25
 49
-1.25
  0
LTYPE
  2
PHANTOM2
 70
    64
  3
--------  -  -  --------  -  -  
 72
    65
 73
     6
 40
20.0
 49
10.0
 49
-2.5
 49
1.25
 49
-2.5
 49
1.25
 49
-2.5
  0
LTYPE
  2
DOT
 70
    64
  3
-   -   -   -   -   -   -   -   
 72
    65
 73
     2
 40
2.5
 49
0.625
 49
-1.875
  0
LTYPE
  2
DUMMY
 70
    64
  3
ダミー
 72
    65
 73
     0
 40
0.0
  0
LTYPE
  2
RAND1
 70
    64
  3
ランダム線1
 72
    65
 73
     4
 40
10.0
 49
1.0
 49
-2.0
 49
3.0
 49
-4.0
  0
LTYPE
  2
RAND2
 70
    64
  3
ランダム線2
 72
    65
 73
     4
 40
14.0
 49
2.0
 49
-3.0
 49
4.0
 49
-5.0
  0
LTYPE
  2
RAND3
 70
    64
  3
ランダム線3
 72
    65
 73
     4
 40
18.0
 49
3.0
 49
-4.0
 49
5.0
 49
-6.0
  0
LTYPE
  2
RAND4
 70
    64
  3
ランダム線4
 72
    65
 73
     4
 40
22.0
 49
4.0
 49
-5.0
 49
6.0
 49
-7.0
  0
LTYPE
  2
RAND5
 70
    64
  3
ランダム線5
 72
    65
 73
     4
 40
26.0
 49
5.0
 49
-6.0
 49
7.0
 49
-8.0
  0
LTYPE
  2
LONG1
 70
    64
  3
----------  --  ----------  --  
 72
    65
 73
     4
 40
40.0
 49
32.5
 49
-2.5
 49
2.5
 49
-2.5
  0
LTYPE
  2
LONG2
 70
    64
  3
--------  -  -  --------  -  -  
 72
    65
 73
     6
 40
40.0
 49
30.0
 49
-2.5
 49
1.25
 49
-2.5
 49
1.25
 49
-2.5
  0
LTYPE
  2
LONG3
 70
    64
  3
+++++++++++++++..+++++++++++++++
 72
    65
 73
     2
 40
40.0
 49
37.5
 49
-2.5
  0
LTYPE
  2
LONG4
 70
    64
  3
+++++++++++++++..+++++++++++++++
 72
    65
 73
     2
 40
80.0
 49
75.0
 49
-5.0
  0
LTYPE
  2
LONG5
 70
    64
  3
----------  --  ----------  --  
 72
    65
 73
     4
 40
60.0
 49
37.5
 49
-7.5
 49
7.5
 49
-7.5
  0
LTYPE
  2
dashed
 70
   64
  3
-------   -------------   ------
 72
   65
 73
    2
 40
7.5
 49
6
 49
-1.5
  0
LTYPE
  2
dashed_spaced
 70
   64
  3
----        --------        ----
 72
   65
 73
    2
 40
12
 49
6
 49
-6
  0
LTYPE
  2
long_dashed_dotted
 70
   64
  3
------------- --- --------------
 72
   65
 73
    4
 40
15.25
 49
12
 49
-1.5
 49
0.25
 49
-1.5
  0
LTYPE
  2
long_dashed_double-dotted
 70
   64
  3
----------- --- --- ------------
 72
   65
 73
    6
 40
17
 49
12
 49
-1.5
 49
0.25
 49
-1.5
 49
0.25
 49
-1.5
  0
LTYPE
  2
long_dashed_triplicate-dotted
 70
   64
  3
--------- --- --- --- ----------
 72
   65
 73
    8
 40
18.75
 49
12
 49
-1.5
 49
0.25
 49
-1.5
 49
0.25
 49
-1.5
 49
0.25
 49
-1.5
  0
LTYPE
  2
dotted
 70
   64
  3
   -       -       -       -    
 72
   65
 73
    2
 40
1.75
 49
0.25
 49
-1.5
  0
LTYPE
  2
chain
 70
   64
  3
-------------- -- --------------
 72
   65
 73
    4
 40
18.5
 49
12
 49
-1.5
 49
3.5
 49
-1.5
  0
LTYPE
  2
chain_double_dash
 70
   64
  3
------------ -- -- -------------
 72
   65
 73
    6
 40
23.5
 49
12
 49
-1.5
 49
3.5
 49
-1.5
 49
3.5
 49
-1.5
  0
LTYPE
  2
dashed_dotted
 70
   64
  3
-----------     -     ----------
 72
   65
 73
    4
 40
9.25
 49
6
 49
-1.5
 49
0.25
 49
-1.5
  0
LTYPE
  2
double-dashed_dotted
 70
   64
  3
------   -----------   -   -----
 72
   65
 73
    6
 40
16.75
 49
6
 49
-1.5
 49
6
 49
-1.5
 49
0.25
 49
-1.5
  0
LTYPE
  2
dashed_double-dotted
 70
   64
  3
---------    -    -    ---------
 72
   65
 73
    6
 40
11
 49
6
 49
-1.5
 49
0.25
 49
-1.5
 49
0.25
 49
-1.5
  0
LTYPE
  2
double-dashed_double-dotted
 70
   64
  3
-----   ---------   -   -   ----
 72
   65
 73
    8
 40
18.5
 49
6
 49
-1.5
 49
6
 49
-1.5
 49
0.25
 49
-1.5
 49
0.25
 49
-1.5
  0
LTYPE
  2
dashed_triplicate-dotted
 70
   64
  3
-------    -    -    -    ------
 72
   65
 73
    8
 40
12.75
 49
6
 49
-1.5
 49
0.25
 49
-1.5
 49
0.25
 49
-1.5
 49
0.25
 49
-1.5
  0
LTYPE
  2
double-dashed_triplicate-dotted
 70
   64
  3
-----  ---------  -  -  -  -----
 72
   65
 73
   10
 40
20.25
 49
6
 49
-1.5
 49
6
 49
-1.5
 49
0.25
 49
-1.5
 49
0.25
 49
-1.5
 49
0.25
 49
-1.5
  0
LTYPE
  2
undefined
 70
   64
  3
--------------------------------
 72
   65
 73
    0
 40
0
  0
ENDTAB
  0
TABLE
  2
STYLE
  5
3
100
AcDbSymbolTable
 70
     1
  0
STYLE
  5
10
100
AcDbSymbolTableRecord
100
AcDbTextStyleTableRecord
  2
STANDARD
 70
     0
 40
0.0
 41
1.0
 50
0.0
 71
     0
 42
0.2
  3
txt
  4
bigfont.shx
  0
STYLE
  5
26
100
AcDbSymbolTableRecord
100
AcDbTextStyleTableRecord
  2
TATEGAKI
 70
    68
 40
0.0
 41
1.0
 50
0.0
 71
     0
 42
1.0
  3
txt
  4
bigfont.shx
  0
ENDTAB
  0
TABLE
  2
LAYER
 70
    4
  0
LAYER
  2
_0-0_
 70
   64
 62
    7
  6
CONTINUOUS
  0
LAYER
  2
_0-1_
 70
   64
 62
    7
  6
CONTINUOUS
  0
LAYER
  2
_0-f_
 70
   64
 62
    7
  6
CONTINUOUS
  0
LAYER
  2
ADD_LINE
 70
   64
 62
    7
  6
CONTINUOUS
  0
ENDTAB
  0
ENDSEC
  0
SECTION
  2
BLOCKS
  0
ENDSEC
  0
SECTION
  2
ENTITIES
  0
TEXT
  8
_0-f_
 62
    7
 10
0.4687284410540542
 20
0.5984147399128687
 40
4.2999999999999998
 41
0.744186046511628
 50
0
  1
F46L
  0
LINE
  8
_0-0_
  6
CONTINUOUS
 62
    7
 10
41.618384483472255
 20
64.177547158654249
 11
41.618384483472255
 21
51.277547158654158
  0
LINE
  8
_0-0_
  6
CONTINUOUS
 62
    7
 10
41.118384483472255
 20
50.777547158654158
 11
39.336418472222249
 21
50.777547158654158
  0
LINE
  8
_0-0_
  6
CONTINUOUS
 62
    7
 10
39.112811674472141
 20
50.83033356315417
 11
38.294777685722238
 21
51.239350557529121
  0
LINE
  8
_0-0_
  6
CONTINUOUS
 62
    7
 10
38.018384483472346
 20
51.68656415302911
 11
38.018384483472346
 21
53.177547158654249
  0
LINE
  8
_0-0_
  6
CONTINUOUS
 62
    7
 10
37.518384483472346
 20
53.677547158654249
 11
33.325491264658922
 21
53.677547158654249
  0
LINE
  8
_0-0_
  6
CONTINUOUS
 62
    7
 10
32.971937874065588
 20
53.531100549247356
 11
31.764831092878921
 21
52.323993768060916
  0
LINE
  8
_0-0_
  6
CONTINUOUS
 62
    7
 10
31.618384483472255
 20
51.970440377467582
 11
31.618384483472255
 21
46.795314115638519
  0
LINE
  8
_0-0_
  6
CONTINUOUS
 62
    7
 10
31.471937874065588
 20
46.441760725045185
 11
31.238054400423607
 21
46.207877251402977
  0
LINE
  8
_0-0_
  6
CONTINUOUS
 62
    7
 10
31.238054400423607
 20
45.147217065905295
 11
31.471937874065588
 21
44.913333592263314
  0
LINE
  8
_0-0_
  6
CONTINUOUS
 62
    7
 10
31.618384483472255
 20
44.55978020166998
 11
31.618384483472255
 21
39.384653939840689
  0
LINE
  8
_0-0_
  6
CONTINUOUS
 62
    7
 10
31.764831092878921
 20
39.031100549247356
 11
32.971937874065588
 21
37.823993768060916
  0
LINE
  8
_0-0_
  6
CONTINUOUS
 62
    7
 10
33.325491264658922
 20
37.677547158654249
 11
37.518384483472346
 21
37.677547158654249
  0
LINE
  8
_0-0_
  6
CONTINUOUS
 62
    7
 10
38.018384483472346
 20
38.177547158654249
 11
38.018384483472346
 21
39.668530164279161
  0
LINE
  8
_0-0_
  6
CONTINUOUS
 62
    7
 10
38.294777685722238
 20
40.11574375977915
 11
39.112811674472141
 21
40.524760754154102
  0
LINE
  8
_0-0_
  6
CONTINUOUS
 62
    7
 10
39.336418472222249
 20
40.577547158654113
 11
41.118384483472255
 21
40.577547158654113
  0
LINE
  8
_0-0_
  6
CONTINUOUS
 62
    7
 10
41.618384483472255
 20
40.077547158654113
 11
41.618384483472255
 21
31.277547158654158
  0
LINE
  8
_0-0_
  6
CONTINUOUS
 62
    7
 10
41.118384483472255
 20
30.777547158654158
 11
39.336418472222249
 21
30.777547158654158
  0
LINE
  8
_0-0_
  6
CONTINUOUS
 62
    7
 10
39.112811674472141
 20
30.83033356315417
 11
38.294777685722238
 21
31.239350557529121
  0
LINE
  8
_0-0_
  6
CONTINUOUS
 62
    7
 10
38.018384483472346
 20
31.68656415302911
 11
38.018384483472346
 21
33.177547158654249
  0
LINE
  8
_0-0_
  6
CONTINUOUS
 62
    7
 10
37.518384483472346
 20
33.677547158654249
 11
33.325491264658922
 21
33.677547158654249
  0
LINE
  8
_0-0_
  6
CONTINUOUS
 62
    7
 10
32.971937874065588
 20
33.531100549247356
 11
31.764831092878921
 21
32.323993768060916
  0
LINE
  8
_0-0_
  6
CONTINUOUS
 62
    7
 10
31.618384483472255
 20
31.970440377467582
 11
31.618384483472255
 21
26.795314115638519
  0
LINE
  8
_0-0_
  6
CONTINUOUS
 62
    7
 10
31.471937874065588
 20
26.441760725045185
 11
31.238054400423607
 21
26.207877251402977
  0
LINE
  8
_0-0_
  6
CONTINUOUS
 62
    7
 10
31.238054400423607
 20
25.147217065905295
 11
31.471937874065588
 21
24.913333592263314
  0
LINE
  8
_0-0_
  6
CONTINUOUS
 62
    7
 10
31.618384483472255
 20
24.55978020166998
 11
31.618384483472255
 21
19.384653939840689
  0
LINE
  8
_0-0_
  6
CONTINUOUS
 62
    7
 10
31.764831092878921
 20
19.031100549247356
 11
32.971937874065588
 21
17.823993768060916
  0
LINE
  8
_0-0_
  6
CONTINUOUS
 62
    7
 10
33.325491264658922
 20
17.677547158654249
 11
37.518384483472346
 21
17.677547158654249
  0
LINE
  8
_0-0_
  6
CONTINUOUS
 62
    7
 10
38.018384483472346
 20
18.177547158654249
 11
38.018384483472346
 21
19.668530164279161
  0
LINE
  8
_0-0_
  6
CONTINUOUS
 62
    7
 10
38.294777685722238
 20
20.11574375977915
 11
39.112811674472141
 21
20.524760754154102
  0
LINE
  8
_0-0_
  6
CONTINUOUS
 62
    7
 10
39.336418472222249
 20
20.577547158654113
 11
41.118384483472255
 21
20.577547158654113
  0
LINE
  8
_0-0_
  6
CONTINUOUS
 62
    7
 10
41.618384483472255
 20
20.077547158654113
 11
41.618384483472255
 21
7.1775471586542494
  0
LINE
  8
_0-0_
  6
CONTINUOUS
 62
    7
 10
40.118384483472255
 20
5.6775471586542494
 11
27.218384483472164
 21
5.6775471586542494
  0
LINE
  8
_0-0_
  6
CONTINUOUS
 62
    7
 10
26.718384483472164
 20
6.1775471586542494
 11
26.718384483472164
 21
7.9595131699042554
  0
LINE
  8
_0-0_
  6
CONTINUOUS
 62
    7
 10
26.771170887971948
 20
8.1831199676543633
 11
27.180187882347582
 21
9.0011539564042664
  0
LINE
  8
_0-0_
  6
CONTINUOUS
 62
    7
 10
27.627401477846888
 20
9.2775471586541585
 11
29.118384483472255
 21
9.2775471586541585
  0
LINE
  8
_0-0_
  6
CONTINUOUS
 62
    7
 10
29.618384483472255
 20
9.7775471586541585
 11
29.618384483472255
 21
13.970440377467582
  0
LINE
  8
_0-0_
  6
CONTINUOUS
 62
    7
 10
29.471937874065588
 20
14.323993768060916
 11
28.264831092878921
 21
15.531100549247583
  0
LINE
  8
_0-0_
  6
CONTINUOUS
 62
    7
 10
27.911277702286043
 20
15.677547158654249
 11
15.325491264658467
 21
15.677547158654249
  0
LINE
  8
_0-0_
  6
CONTINUOUS
 62
    7
 10
14.971937874065588
 20
15.531100549247583
 11
13.764831092878921
 21
14.323993768060916
  0
LINE
  8
_0-0_
  6
CONTINUOUS
 62
    7
 10
13.618384483472255
 20
13.970440377467582
 11
13.618384483472255
 21
9.7775471586541585
  0
LINE
  8
_0-0_
  6
CONTINUOUS
 62
    7
 10
14.118384483472255
 20
9.2775471586541585
 11
15.609367489097622
 21
9.2775471586541585
  0
LINE
  8
_0-0_
  6
CONTINUOUS
 62
    7
 10
16.056581084596928
 20
9.0011539564042664
 11
16.465598078972107
 21
8.1831199676543633
  0
LINE
  8
_0-0_
  6
CONTINUOUS
 62
    7
 10
16.518384483472346
 20
7.9595131699042554
 11
16.518384483472346
 21
6.1775471586542494
  0
LINE
  8
_0-0_
  6
CONTINUOUS
 62
    7
 10
16.018384483472346
 20
5.6775471586542494
 11
3.1183844834722549
 21
5.6775471586542494
  0
LINE
  8
_0-0_
  6
CONTINUOUS
 62
    7
 10
1.6183844834722549
 20
7.1775471586542494
 11
1.6183844834722549
 21
20.077547158654113
  0
LINE
  8
_0-0_
  6
CONTINUOUS
 62
    7
 10
2.1183844834722549
 20
20.577547158654113
 11
3.9003504947222609
 21
20.577547158654113
  0
LINE
  8
_0-0_
  6
CONTINUOUS
 62
    7
 10
4.1239572924723689
 20
20.524760754154102
 11
4.9419912812222719
 21
20.11574375977915
  0
LINE
  8
_0-0_
  6
CONTINUOUS
 62
    7
 10
5.218384483472164
 20
19.668530164279161
 11
5.218384483472164
 21
18.177547158654249
  0
LINE
  8
_0-0_
  6
CONTINUOUS
 62
    7
 10
5.718384483472164
 20
17.677547158654249
 11
9.9112777022860428
 21
17.677547158654249
  0
LINE
  8
_0-0_
  6
CONTINUOUS
 62
    7
 10
10.264831092878921
 20
17.823993768060916
 11
11.471937874065588
 21
19.031100549247583
  0
LINE
  8
_0-0_
  6
CONTINUOUS
 62
    7
 10
11.618384483472255
 20
19.384653939840689
 11
11.618384483472255
 21
24.55978020166998
  0
LINE
  8
_0-0_
  6
CONTINUOUS
 62
    7
 10
11.764831092878921
 20
24.913333592263314
 11
11.998714566521357
 21
25.147217065905295
  0
LINE
  8
_0-0_
  6
CONTINUOUS
 62
    7
 10
11.998714566521357
 20
26.207877251402977
 11
11.764831092878921
 21
26.441760725045185
  0
LINE
  8
_0-0_
  6
CONTINUOUS
 62
    7
 10
11.618384483472255
 20
26.795314115638519
 11
11.618384483472255
 21
31.970440377467582
  0
LINE
  8
_0-0_
  6
CONTINUOUS
 62
    7
 10
11.471937874065588
 20
32.323993768060916
 11
10.264831092878921
 21
33.531100549247583
  0
LINE
  8
_0-0_
  6
CONTINUOUS
 62
    7
 10
9.9112777022860428
 20
33.677547158654249
 11
5.718384483472164
 21
33.677547158654249
  0
LINE
  8
_0-0_
  6
CONTINUOUS
 62
    7
 10
5.218384483472164
 20
33.177547158654249
 11
5.218384483472164
 21
31.68656415302911
  0
LINE
  8
_0-0_
  6
CONTINUOUS
 62
    7
 10
4.9419912812222719
 20
31.239350557529121
 11
4.1239572924723689
 21
30.83033356315417
  0
LINE
  8
_0-0_
  6
CONTINUOUS
 62
    7
 10
3.9003504947222609
 20
30.777547158654158
 11
2.1183844834722549
 21
30.777547158654158
  0
LINE
  8
_0-0_
  6
CONTINUOUS
 62
    7
 10
1.6183844834722549
 20
31.277547158654158
 11
1.6183844834722549
 21
40.077547158654113
  0
LINE
  8
_0-0_
  6
CONTINUOUS
 62
    7
 10
2.1183844834722549
 20
40.577547158654113
 11
3.9003504947222609
 21
40.577547158654113
  0
LINE
  8
_0-0_
  6
CONTINUOUS
 62
    7
 10
4.1239572924723689
 20
40.524760754154102
 11
4.9419912812222719
 21
40.11574375977915
  0
LINE
  8
_0-0_
  6
CONTINUOUS
 62
    7
 10
5.218384483472164
 20
39.668530164279161
 11
5.218384483472164
 21
38.177547158654249
  0
LINE
  8
_0-0_
  6
CONTINUOUS
 62
    7
 10
5.718384483472164
 20
37.677547158654249
 11
9.9112777022860428
 21
37.677547158654249
  0
LINE
  8
_0-0_
  6
CONTINUOUS
 62
    7
 10
10.264831092878921
 20
37.823993768060916
 11
11.471937874065588
 21
39.031100549247583
  0
LINE
  8
_0-0_
  6
CONTINUOUS
 62
    7
 10
11.618384483472255
 20
39.384653939840689
 11
11.618384483472255
 21
44.55978020166998
  0
LINE
  8
_0-0_
  6
CONTINUOUS
 62
    7
 10
11.764831092878921
 20
44.913333592263314
 11
11.998714566521357
 21
45.147217065905295
  0
LINE
  8
_0-0_
  6
CONTINUOUS
 62
    7
 10
11.998714566521357
 20
46.207877251402977
 11
11.764831092878921
 21
46.441760725045185
  0
LINE
  8
_0-0_
  6
CONTINUOUS
 62
    7
 10
11.618384483472255
 20
46.795314115638519
 11
11.618384483472255
 21
51.970440377467582
  0
LINE
  8
_0-0_
  6
CONTINUOUS
 62
    7
 10
11.471937874065588
 20
52.323993768060916
 11
10.264831092878921
 21
53.531100549247583
  0
LINE
  8
_0-0_
  6
CONTINUOUS
 62
    7
 10
9.9112777022860428
 20
53.677547158654249
 11
5.718384483472164
 21
53.677547158654249
  0
LINE
  8
_0-0_
  6
CONTINUOUS
 62
    7
 10
5.218384483472164
 20
53.177547158654249
 11
5.218384483472164
 21
51.68656415302911
  0
LINE
  8
_0-0_
  6
CONTINUOUS
 62
    7
 10
4.9419912812222719
 20
51.239350557529121
 11
4.1239572924723689
 21
50.83033356315417
  0
LINE
  8
_0-0_
  6
CONTINUOUS
 62
    7
 10
3.9003504947222609
 20
50.777547158654158
 11
2.1183844834722549
 21
50.777547158654158
  0
LINE
  8
_0-0_
  6
CONTINUOUS
 62
    7
 10
1.6183844834722549
 20
51.277547158654158
 11
1.6183844834722549
 21
64.177547158654249
  0
LINE
  8
_0-0_
  6
CONTINUOUS
 62
    7
 10
3.1183844834722549
 20
65.677547158654249
 11
16.018384483472346
 21
65.677547158654249
  0
LINE
  8
_0-0_
  6
CONTINUOUS
 62
    7
 10
16.518384483472346
 20
65.177547158654249
 11
16.518384483472346
 21
63.395581147404016
  0
LINE
  8
_0-0_
  6
CONTINUOUS
 62
    7
 10
16.465598078972562
 20
63.171974349654135
 11
16.056581084596928
 21
62.353940360904232
  0
LINE
  8
_0-0_
  6
CONTINUOUS
 62
    7
 10
15.609367489097622
 20
62.077547158654113
 11
14.118384483472255
 21
62.077547158654113
  0
LINE
  8
_0-0_
  6
CONTINUOUS
 62
    7
 10
13.618384483472255
 20
61.577547158654113
 11
13.618384483472255
 21
57.384653939840689
  0
LINE
  8
_0-0_
  6
CONTINUOUS
 62
    7
 10
13.764831092878921
 20
57.031100549247583
 11
14.971937874065588
 21
55.823993768060916
  0
LINE
  8
_0-0_
  6
CONTINUOUS
 62
    7
 10
15.325491264658467
 20
55.677547158654249
 11
27.911277702286043
 21
55.677547158654249
  0
LINE
  8
_0-0_
  6
CONTINUOUS
 62
    7
 10
28.264831092878921
 20
55.823993768060916
 11
29.471937874065588
 21
57.031100549247356
  0
LINE
  8
_0-0_
  6
CONTINUOUS
 62
    7
 10
29.618384483472255
 20
57.384653939840689
 11
29.618384483472255
 21
61.577547158654113
  0
LINE
  8
_0-0_
  6
CONTINUOUS
 62
    7
 10
29.118384483472255
 20
62.077547158654113
 11
27.627401477846888
 21
62.077547158654113
  0
LINE
  8
_0-0_
  6
CONTINUOUS
 62
    7
 10
27.180187882347582
 20
62.353940360904232
 11
26.771170887972403
 21
63.171974349654135
  0
LINE
  8
_0-0_
  6
CONTINUOUS
 62
    7
 10
26.718384483472164
 20
63.395581147404016
 11
26.718384483472164
 21
65.177547158654249
  0
LINE
  8
_0-0_
  6
CONTINUOUS
 62
    7
 10
27.218384483472164
 20
65.677547158654249
 11
40.118384483472255
 21
65.677547158654249
  0
LINE
  8
_0-0_
  6
CONTINUOUS
 62
    7
 10
38.676364340146847
 20
64.017239779440104
 11
37.446480498030269
 21
63.569598669304867
  0
LINE
  8
_0-0_
  6
CONTINUOUS
 62
    7
 10
39.958077104258336
 20
62.735527015328387
 11
39.510435994122872
 21
61.505643173212263
  0
LINE
  8
_0-0_
  6
CONTINUOUS
 62
    7
 10
39.510435994122872
 20
57.849451144096236
 11
39.958077104258336
 21
56.619567301979885
  0
LINE
  8
_0-0_
  6
CONTINUOUS
 62
    7
 10
38.676364340146847
 20
55.337854537868168
 11
37.446480498030269
 21
55.785495648003632
  0
LINE
  8
_0-0_
  6
CONTINUOUS
 62
    7
 10
33.790288468914696
 20
55.785495648003632
 11
32.560404626798118
 21
55.337854537868168
  0
LINE
  8
_0-0_
  6
CONTINUOUS
 62
    7
 10
31.278691862686628
 20
56.619567301979885
 11
31.726332972821638
 21
57.849451144096236
  0
LINE
  8
_0-0_
  6
CONTINUOUS
 62
    7
 10
31.726332972821638
 20
61.505643173212263
 11
31.278691862686628
 21
62.735527015328387
  0
LINE
  8
_0-0_
  6
CONTINUOUS
 62
    7
 10
32.560404626798118
 20
64.017239779440104
 11
33.790288468914241
 21
63.569598669304867
  0
LINE
  8
_0-0_
  6
CONTINUOUS
 62
    7
 10
29.118384483472255
 20
53.077547158654113
 11
29.118384483472255
 21
51.929213208493763
  0
LINE
  8
_0-0_
  6
CONTINUOUS
 62
    7
 10
28.868384483472255
 20
51.496200506601497
 11
25.968384483472164
 21
49.82188472595152
  0
LINE
  8
_0-0_
  6
CONTINUOUS
 62
    7
 10
25.718384483472164
 20
49.388872024059253
 11
25.718384483472164
 21
41.966222293248791
  0
LINE
  8
_0-0_
  6
CONTINUOUS
 62
    7
 10
25.968384483472164
 20
41.533209591356751
 11
28.868384483472255
 21
39.858893810706775
  0
LINE
  8
_0-0_
  6
CONTINUOUS
 62
    7
 10
29.118384483472255
 20
39.425881108814735
 11
29.118384483472255
 21
31.929213208493763
  0
LINE
  8
_0-0_
  6
CONTINUOUS
 62
    7
 10
28.868384483472255
 20
31.496200506601497
 11
25.968384483472164
 21
29.82188472595152
  0
LINE
  8
_0-0_
  6
CONTINUOUS
 62
    7
 10
25.718384483472164
 20
29.388872024059253
 11
25.718384483472164
 21
21.966222293248791
  0
LINE
  8
_0-0_
  6
CONTINUOUS
 62
    7
 10
25.968384483472164
 20
21.533209591356751
 11
28.868384483472255
 21
19.858893810706775
  0
LINE
  8
_0-0_
  6
CONTINUOUS
 62
    7
 10
29.118384483472255
 20
19.425881108814735
 11
29.118384483472255
 21
18.277547158654158
  0
LINE
  8
_0-0_
  6
CONTINUOUS
 62
    7
 10
28.618384483472255
 20
17.777547158654158
 11
14.618384483472255
 21
17.777547158654158
  0
LINE
  8
_0-0_
  6
CONTINUOUS
 62
    7
 10
14.118384483472255
 20
18.277547158654158
 11
14.118384483472255
 21
19.425881108814735
  0
LINE
  8
_0-0_
  6
CONTINUOUS
 62
    7
 10
14.368384483472255
 20
19.858893810706775
 11
17.268384483472346
 21
21.533209591356751
  0
LINE
  8
_0-0_
  6
CONTINUOUS
 62
    7
 10
17.518384483472346
 20
21.966222293248791
 11
17.518384483472346
 21
29.388872024059253
  0
LINE
  8
_0-0_
  6
CONTINUOUS
 62
    7
 10
17.268384483472346
 20
29.82188472595152
 11
14.368384483472255
 21
31.496200506601497
  0
LINE
  8
_0-0_
  6
CONTINUOUS
 62
    7
 10
14.118384483472255
 20
31.929213208493763
 11
14.118384483472255
 21
39.425881108814735
  0
LINE
  8
_0-0_
  6
CONTINUOUS
 62
    7
 10
14.368384483472255
 20
39.858893810706775
 11
17.268384483472346
 21
41.533209591356751
  0
LINE
  8
_0-0_
  6
CONTINUOUS
 62
    7
 10
17.518384483472346
 20
41.966222293248791
 11
17.518384483472346
 21
49.388872024059253
  0
LINE
  8
_0-0_
  6
CONTINUOUS
 62
    7
 10
17.268384483472346
 20
49.82188472595152
 11
14.368384483472255
 21
51.496200506601497
  0
LINE
  8
_0-0_
  6
CONTINUOUS
 62
    7
 10
14.118384483472255
 20
51.929213208493763
 11
14.118384483472255
 21
53.077547158654113
  0
LINE
  8
_0-0_
  6
CONTINUOUS
 62
    7
 10
14.618384483472255
 20
53.577547158654113
 11
28.618384483472255
 21
53.577547158654113
  0
LINE
  8
_0-0_
  6
CONTINUOUS
 62
    7
 10
4.5604046267981175
 20
55.337854537868168
 11
5.7902884689142411
 21
55.785495648003632
  0
LINE
  8
_0-0_
  6
CONTINUOUS
 62
    7
 10
3.2786918626866282
 20
56.619567301979885
 11
3.7263329728216377
 21
57.849451144096236
  0
LINE
  8
_0-0_
  6
CONTINUOUS
 62
    7
 10
3.7263329728216377
 20
61.505643173212263
 11
3.2786918626866282
 21
62.735527015328387
  0
LINE
  8
_0-0_
  6
CONTINUOUS
 62
    7
 10
4.5604046267981175
 20
64.017239779440104
 11
5.7902884689142411
 21
63.569598669304867
  0
LINE
  8
_0-0_
  6
CONTINUOUS
 62
    7
 10
9.4464804980302688
 20
63.569598669304867
 11
10.676364340146847
 21
64.017239779440104
  0
LINE
  8
_0-0_
  6
CONTINUOUS
 62
    7
 10
11.958077104258336
 20
62.735527015328387
 11
11.510435994122872
 21
61.505643173212263
  0
LINE
  8
_0-0_
  6
CONTINUOUS
 62
    7
 10
11.510435994122872
 20
57.849451144096236
 11
11.958077104258336
 21
56.619567301979885
  0
LINE
  8
_0-0_
  6
CONTINUOUS
 62
    7
 10
10.676364340146847
 20
55.337854537868168
 11
9.4464804980302688
 21
55.785495648003632
  0
LINE
  8
_0-0_
  6
CONTINUOUS
 62
    7
 10
11.958077104258336
 20
8.6195673019798846
 11
11.510435994122872
 21
9.8494511440962356
  0
LINE
  8
_0-0_
  6
CONTINUOUS
 62
    7
 10
10.676364340146847
 20
7.3378545378681679
 11
9.4464804980302688
 21
7.7854956480036321
  0
LINE
  8
_0-0_
  6
CONTINUOUS
 62
    7
 10
5.7902884689142411
 20
7.7854956480036321
 11
4.5604046267981175
 21
7.3378545378681679
  0
LINE
  8
_0-0_
  6
CONTINUOUS
 62
    7
 10
3.2786918626866282
 20
8.6195673019798846
 11
3.7263329728216377
 21
9.8494511440962356
  0
LINE
  8
_0-0_
  6
CONTINUOUS
 62
    7
 10
3.7263329728216377
 20
13.505643173212263
 11
3.2786918626866282
 21
14.735527015328387
  0
LINE
  8
_0-0_
  6
CONTINUOUS
 62
    7
 10
4.5604046267981175
 20
16.017239779440104
 11
5.7902884689142411
 21
15.569598669304867
  0
LINE
  8
_0-0_
  6
CONTINUOUS
 62
    7
 10
9.4464804980302688
 20
15.569598669304867
 11
10.676364340146847
 21
16.017239779440104
  0
LINE
  8
_0-0_
  6
CONTINUOUS
 62
    7
 10
11.958077104258336
 20
14.735527015328387
 11
11.510435994122872
 21
13.505643173212263
  0
LINE
  8
_0-0_
  6
CONTINUOUS
 62
    7
 10
38.676364340146847
 20
16.017239779440104
 11
37.446480498030269
 21
15.569598669304867
  0
LINE
  8
_0-0_
  6
CONTINUOUS
 62
    7
 10
39.958077104258336
 20
14.735527015328387
 11
39.510435994122872
 21
13.505643173212263
  0
LINE
  8
_0-0_
  6
CONTINUOUS
 62
    7
 10
39.510435994122872
 20
9.8494511440962356
 11
39.958077104258336
 21
8.6195673019798846
  0
LINE
  8
_0-0_
  6
CONTINUOUS
 62
    7
 10
38.676364340146847
 20
7.3378545378681679
 11
37.446480498030269
 21
7.7854956480036321
  0
LINE
  8
_0-0_
  6
CONTINUOUS
 62
    7
 10
33.790288468914696
 20
7.7854956480036321
 11
32.560404626798118
 21
7.3378545378681679
  0
LINE
  8
_0-0_
  6
CONTINUOUS
 62
    7
 10
31.278691862686628
 20
8.6195673019798846
 11
31.726332972821638
 21
9.8494511440962356
  0
LINE
  8
_0-0_
  6
CONTINUOUS
 62
    7
 10
31.726332972821638
 20
13.505643173212263
 11
31.278691862686628
 21
14.735527015328387
  0
LINE
  8
_0-0_
  6
CONTINUOUS
 62
    7
 10
32.560404626798118
 20
16.017239779440104
 11
33.790288468914241
 21
15.569598669304867
  0
ARC
  8
_0-0_
  6
CONTINUOUS
 62
    7
 10
26.218384483472164
 20
41.966222293248791
 40
0.5
 50
180
 51
240.00000000000003
  0
ARC
  8
_0-0_
  6
CONTINUOUS
 62
    7
 10
28.618384483472255
 20
39.425881108814735
 40
0.5
 50
0
 51
59.999999999999986
  0
ARC
  8
_0-0_
  6
CONTINUOUS
 62
    7
 10
17.018384483472346
 20
41.966222293248791
 40
0.5
 50
299.99999999999989
 51
0.0000000000000254
  0
ARC
  8
_0-0_
  6
CONTINUOUS
 62
    7
 10
14.618384483472255
 20
39.425881108814735
 40
0.5
 50
120.00000000000001
 51
180
  0
ARC
  8
_0-0_
  6
CONTINUOUS
 62
    7
 10
26.218384483472164
 20
49.388872024059253
 40
0.5
 50
119.99999999999997
 51
180
  0
ARC
  8
_0-0_
  6
CONTINUOUS
 62
    7
 10
28.618384483472255
 20
51.929213208493763
 40
0.5
 50
300
 51
0.0000000000000127
  0
ARC
  8
_0-0_
  6
CONTINUOUS
 62
    7
 10
28.618384483472255
 20
53.077547158654113
 40
0.5
 50
0
 51
90
  0
ARC
  8
_0-0_
  6
CONTINUOUS
 62
    7
 10
17.018384483472346
 20
49.388872024059253
 40
0.5
 50
0
 51
60.000000000000036
  0
ARC
  8
_0-0_
  6
CONTINUOUS
 62
    7
 10
14.618384483472255
 20
51.929213208493763
 40
0.5
 50
180
 51
239.99999999999997
  0
ARC
  8
_0-0_
  6
CONTINUOUS
 62
    7
 10
14.618384483472255
 20
53.077547158654113
 40
0.5
 50
90
 51
180
  0
ARC
  8
_0-0_
  6
CONTINUOUS
 62
    7
 10
26.218384483472164
 20
49.388872024059253
 40
0.5
 50
119.99999999999997
 51
180
  0
ARC
  8
_0-0_
  6
CONTINUOUS
 62
    7
 10
28.618384483472255
 20
51.929213208493763
 40
0.5
 50
300
 51
0.0000000000000127
  0
ARC
  8
_0-0_
  6
CONTINUOUS
 62
    7
 10
28.618384483472255
 20
53.077547158654113
 40
0.5
 50
0
 51
90
  0
ARC
  8
_0-0_
  6
CONTINUOUS
 62
    7
 10
26.218384483472164
 20
21.966222293248791
 40
0.5
 50
180
 51
240.00000000000003
  0
ARC
  8
_0-0_
  6
CONTINUOUS
 62
    7
 10
28.618384483472255
 20
19.425881108814735
 40
0.5
 50
0
 51
59.999999999999986
  0
ARC
  8
_0-0_
  6
CONTINUOUS
 62
    7
 10
28.618384483472255
 20
18.277547158654158
 40
0.5
 50
270
 51
0
  0
ARC
  8
_0-0_
  6
CONTINUOUS
 62
    7
 10
17.018384483472346
 20
21.966222293248791
 40
0.5
 50
299.99999999999989
 51
0.0000000000000254
  0
ARC
  8
_0-0_
  6
CONTINUOUS
 62
    7
 10
14.618384483472255
 20
19.425881108814735
 40
0.5
 50
120.00000000000001
 51
180
  0
ARC
  8
_0-0_
  6
CONTINUOUS
 62
    7
 10
14.618384483472255
 20
18.277547158654158
 40
0.5
 50
180
 51
270
  0
ARC
  8
_0-0_
  6
CONTINUOUS
 62
    7
 10
26.218384483472164
 20
29.388872024059253
 40
0.5
 50
119.99999999999997
 51
180
  0
ARC
  8
_0-0_
  6
CONTINUOUS
 62
    7
 10
28.618384483472255
 20
31.929213208493763
 40
0.5
 50
300
 51
0.0000000000000127
  0
ARC
  8
_0-0_
  6
CONTINUOUS
 62
    7
 10
17.018384483472346
 20
29.388872024059253
 40
0.5
 50
0
 51
60.000000000000036
  0
ARC
  8
_0-0_
  6
CONTINUOUS
 62
    7
 10
14.618384483472255
 20
31.929213208493763
 40
0.5
 50
180
 51
239.99999999999997
  0
ARC
  8
_0-0_
  6
CONTINUOUS
 62
    7
 10
26.218384483472164
 20
29.388872024059253
 40
0.5
 50
119.99999999999997
 51
180
  0
ARC
  8
_0-0_
  6
CONTINUOUS
 62
    7
 10
28.618384483472255
 20
31.929213208493763
 40
0.5
 50
300
 51
0.0000000000000127
  0
ARC
  8
_0-0_
  6
CONTINUOUS
 62
    7
 10
41.118384483472255
 20
40.077547158654113
 40
0.5
 50
0
 51
90
  0
ARC
  8
_0-0_
  6
CONTINUOUS
 62
    7
 10
9.9112777022860428
 20
38.177547158654249
 40
0.5
 50
270
 51
315
  0
ARC
  8
_0-0_
  6
CONTINUOUS
 62
    7
 10
5.718384483472164
 20
38.177547158654249
 40
0.5
 50
180
 51
270
  0
ARC
  8
_0-0_
  6
CONTINUOUS
 62
    7
 10
4.718384483472164
 20
39.668530164279161
 40
0.5
 50
0
 51
63.43494882292201
  0
ARC
  8
_0-0_
  6
CONTINUOUS
 62
    7
 10
3.9003504947222609
 20
40.077547158654113
 40
0.5
 50
63.43494882292201
 51
90
  0
ARC
  8
_0-0_
  6
CONTINUOUS
 62
    7
 10
2.1183844834722549
 20
40.077547158654113
 40
0.5
 50
90
 51
180
  0
ARC
  8
_0-0_
  6
CONTINUOUS
 62
    7
 10
32.118384483472255
 20
39.384653939840689
 40
0.5
 50
179.99999999999994
 51
224.99999999999994
  0
ARC
  8
_0-0_
  6
CONTINUOUS
 62
    7
 10
33.325491264658922
 20
38.177547158654249
 40
0.5
 50
225
 51
270
  0
ARC
  8
_0-0_
  6
CONTINUOUS
 62
    7
 10
37.518384483472346
 20
38.177547158654249
 40
0.5
 50
270
 51
0
  0
ARC
  8
_0-0_
  6
CONTINUOUS
 62
    7
 10
38.518384483472346
 20
39.668530164279161
 40
0.5
 50
116.56505117707799
 51
180
  0
ARC
  8
_0-0_
  6
CONTINUOUS
 62
    7
 10
39.336418472222249
 20
40.077547158654113
 40
0.5
 50
90
 51
116.56505117707799
  0
ARC
  8
_0-0_
  6
CONTINUOUS
 62
    7
 10
32.118384483472255
 20
51.970440377467582
 40
0.5
 50
135.00000000000006
 51
180.00000000000006
  0
ARC
  8
_0-0_
  6
CONTINUOUS
 62
    7
 10
33.325491264658922
 20
53.177547158654249
 40
0.5
 50
90
 51
135
  0
ARC
  8
_0-0_
  6
CONTINUOUS
 62
    7
 10
37.518384483472346
 20
53.177547158654249
 40
0.5
 50
0
 51
90
  0
ARC
  8
_0-0_
  6
CONTINUOUS
 62
    7
 10
38.518384483472346
 20
51.68656415302911
 40
0.5
 50
180
 51
243.434948822922
  0
ARC
  8
_0-0_
  6
CONTINUOUS
 62
    7
 10
39.336418472222249
 20
51.277547158654158
 40
0.5
 50
243.43494882292202
 51
270
  0
ARC
  8
_0-0_
  6
CONTINUOUS
 62
    7
 10
41.118384483472255
 20
51.277547158654158
 40
0.5
 50
270
 51
0
  0
ARC
  8
_0-0_
  6
CONTINUOUS
 62
    7
 10
40.118384483472255
 20
64.177547158654249
 40
1.5
 50
0
 51
90
  0
ARC
  8
_0-0_
  6
CONTINUOUS
 62
    7
 10
27.911277702286043
 20
56.177547158654249
 40
0.5
 50
269.99999999999994
 51
314.99999999999994
  0
ARC
  8
_0-0_
  6
CONTINUOUS
 62
    7
 10
29.118384483472255
 20
57.384653939840689
 40
0.5
 50
315
 51
0
  0
ARC
  8
_0-0_
  6
CONTINUOUS
 62
    7
 10
29.118384483472255
 20
61.577547158654113
 40
0.5
 50
0
 51
90
  0
ARC
  8
_0-0_
  6
CONTINUOUS
 62
    7
 10
27.627401477846888
 20
62.577547158654113
 40
0.5
 50
206.565051177078
 51
270
  0
ARC
  8
_0-0_
  6
CONTINUOUS
 62
    7
 10
27.218384483472164
 20
63.395581147404016
 40
0.5
 50
180
 51
206.565051177078
  0
ARC
  8
_0-0_
  6
CONTINUOUS
 62
    7
 10
27.218384483472164
 20
65.177547158654249
 40
0.5
 50
90
 51
180
  0
ARC
  8
_0-0_
  6
CONTINUOUS
 62
    7
 10
15.325491264658467
 20
56.177547158654249
 40
0.5
 50
225.00000000000006
 51
270.00000000000006
  0
ARC
  8
_0-0_
  6
CONTINUOUS
 62
    7
 10
14.118384483472255
 20
57.384653939840689
 40
0.5
 50
180
 51
225
  0
ARC
  8
_0-0_
  6
CONTINUOUS
 62
    7
 10
14.118384483472255
 20
61.577547158654113
 40
0.5
 50
90
 51
180
  0
ARC
  8
_0-0_
  6
CONTINUOUS
 62
    7
 10
15.609367489097622
 20
62.577547158654113
 40
0.5
 50
270
 51
333.43494882292202
  0
ARC
  8
_0-0_
  6
CONTINUOUS
 62
    7
 10
16.018384483472346
 20
63.395581147404016
 40
0.5
 50
333.43494882292202
 51
0
  0
ARC
  8
_0-0_
  6
CONTINUOUS
 62
    7
 10
16.018384483472346
 20
65.177547158654249
 40
0.5
 50
0
 51
90
  0
ARC
  8
_0-0_
  6
CONTINUOUS
 62
    7
 10
3.1183844834722549
 20
64.177547158654249
 40
1.5
 50
90
 51
180
  0
ARC
  8
_0-0_
  6
CONTINUOUS
 62
    7
 10
9.9112777022860428
 20
53.177547158654249
 40
0.5
 50
45
 51
90
  0
ARC
  8
_0-0_
  6
CONTINUOUS
 62
    7
 10
5.718384483472164
 20
53.177547158654249
 40
0.5
 50
90
 51
180
  0
ARC
  8
_0-0_
  6
CONTINUOUS
 62
    7
 10
4.718384483472164
 20
51.68656415302911
 40
0.5
 50
296.56505117707798
 51
0.0000000000000127
  0
ARC
  8
_0-0_
  6
CONTINUOUS
 62
    7
 10
3.9003504947222609
 20
51.277547158654158
 40
0.5
 50
270
 51
296.56505117707798
  0
ARC
  8
_0-0_
  6
CONTINUOUS
 62
    7
 10
2.1183844834722549
 20
51.277547158654158
 40
0.5
 50
180
 51
270
  0
ARC
  8
_0-0_
  6
CONTINUOUS
 62
    7
 10
31.768384493172562
 20
45.677547158654249
 40
0.750000009699999
 50
180
 51
224.99999999999963
  0
ARC
  8
_0-0_
  6
CONTINUOUS
 62
    7
 10
31.118384483472255
 20
44.55978020166998
 40
0.5
 50
0
 51
45
  0
ARC
  8
_0-0_
  6
CONTINUOUS
 62
    7
 10
31.768384493172562
 20
45.677547158654249
 40
0.750000009699999
 50
135.00000000000037
 51
180
  0
ARC
  8
_0-0_
  6
CONTINUOUS
 62
    7
 10
31.118384483472255
 20
46.795314115638519
 40
0.5
 50
315
 51
0
  0
ARC
  8
_0-0_
  6
CONTINUOUS
 62
    7
 10
11.118384483472255
 20
39.384653939840689
 40
0.5
 50
315.00000000000006
 51
0.0000000000000508
  0
ARC
  8
_0-0_
  6
CONTINUOUS
 62
    7
 10
11.118384483472255
 20
51.970440377467582
 40
0.5
 50
359.99999999999994
 51
44.99999999999995
  0
ARC
  8
_0-0_
  6
CONTINUOUS
 62
    7
 10
11.468384473772403
 20
45.677547158654249
 40
0.750000009699999
 50
315.0000000000004
 51
0.0000000000000063
  0
ARC
  8
_0-0_
  6
CONTINUOUS
 62
    7
 10
12.118384483472255
 20
44.55978020166998
 40
0.5
 50
135
 51
180
  0
ARC
  8
_0-0_
  6
CONTINUOUS
 62
    7
 10
11.468384473772403
 20
45.677547158654249
 40
0.750000009699999
 50
0.0000000000000063
 51
44.999999999999616
  0
ARC
  8
_0-0_
  6
CONTINUOUS
 62
    7
 10
12.118384483472255
 20
46.795314115638519
 40
0.5
 50
180
 51
225
  0
ARC
  8
_0-0_
  6
CONTINUOUS
 62
    7
 10
3.1183844834722549
 20
7.1775471586542494
 40
1.5
 50
180
 51
270
  0
ARC
  8
_0-0_
  6
CONTINUOUS
 62
    7
 10
15.325491264658467
 20
15.177547158654249
 40
0.5
 50
89.999999999999929
 51
134.99999999999994
  0
ARC
  8
_0-0_
  6
CONTINUOUS
 62
    7
 10
14.118384483472255
 20
13.970440377467582
 40
0.5
 50
135
 51
180
  0
ARC
  8
_0-0_
  6
CONTINUOUS
 62
    7
 10
14.118384483472255
 20
9.7775471586541585
 40
0.5
 50
180
 51
270
  0
ARC
  8
_0-0_
  6
CONTINUOUS
 62
    7
 10
15.609367489097622
 20
8.7775471586541585
 40
0.5
 50
26.565051177077994
 51
90
  0
ARC
  8
_0-0_
  6
CONTINUOUS
 62
    7
 10
16.018384483472346
 20
7.9595131699042554
 40
0.5
 50
0
 51
26.565051177077994
  0
ARC
  8
_0-0_
  6
CONTINUOUS
 62
    7
 10
16.018384483472346
 20
6.1775471586542494
 40
0.5
 50
270
 51
0
  0
ARC
  8
_0-0_
  6
CONTINUOUS
 62
    7
 10
27.911277702286043
 20
15.177547158654249
 40
0.5
 50
45.00000000000005
 51
90.000000000000057
  0
ARC
  8
_0-0_
  6
CONTINUOUS
 62
    7
 10
29.118384483472255
 20
13.970440377467582
 40
0.5
 50
0
 51
45
  0
ARC
  8
_0-0_
  6
CONTINUOUS
 62
    7
 10
29.118384483472255
 20
9.7775471586541585
 40
0.5
 50
270
 51
0
  0
ARC
  8
_0-0_
  6
CONTINUOUS
 62
    7
 10
27.627401477846888
 20
8.7775471586541585
 40
0.5
 50
90
 51
153.434948822922
  0
ARC
  8
_0-0_
  6
CONTINUOUS
 62
    7
 10
27.218384483472164
 20
7.9595131699042554
 40
0.5
 50
153.434948822922
 51
179.99999999999994
  0
ARC
  8
_0-0_
  6
CONTINUOUS
 62
    7
 10
27.218384483472164
 20
6.1775471586542494
 40
0.5
 50
180
 51
270
  0
ARC
  8
_0-0_
  6
CONTINUOUS
 62
    7
 10
40.118384483472255
 20
7.1775471586542494
 40
1.5
 50
270
 51
0
  0
ARC
  8
_0-0_
  6
CONTINUOUS
 62
    7
 10
9.9112777022860428
 20
18.177547158654249
 40
0.5
 50
270
 51
315
  0
ARC
  8
_0-0_
  6
CONTINUOUS
 62
    7
 10
5.718384483472164
 20
18.177547158654249
 40
0.5
 50
180
 51
270
  0
ARC
  8
_0-0_
  6
CONTINUOUS
 62
    7
 10
4.718384483472164
 20
19.668530164279161
 40
0.5
 50
0
 51
63.43494882292201
  0
ARC
  8
_0-0_
  6
CONTINUOUS
 62
    7
 10
3.9003504947222609
 20
20.077547158654113
 40
0.5
 50
63.43494882292201
 51
90
  0
ARC
  8
_0-0_
  6
CONTINUOUS
 62
    7
 10
2.1183844834722549
 20
20.077547158654113
 40
0.5
 50
90
 51
180
  0
ARC
  8
_0-0_
  6
CONTINUOUS
 62
    7
 10
32.118384483472255
 20
19.384653939840689
 40
0.5
 50
179.99999999999994
 51
224.99999999999994
  0
ARC
  8
_0-0_
  6
CONTINUOUS
 62
    7
 10
33.325491264658922
 20
18.177547158654249
 40
0.5
 50
225
 51
270
  0
ARC
  8
_0-0_
  6
CONTINUOUS
 62
    7
 10
37.518384483472346
 20
18.177547158654249
 40
0.5
 50
270
 51
0
  0
ARC
  8
_0-0_
  6
CONTINUOUS
 62
    7
 10
38.518384483472346
 20
19.668530164279161
 40
0.5
 50
116.56505117707799
 51
180
  0
ARC
  8
_0-0_
  6
CONTINUOUS
 62
    7
 10
39.336418472222249
 20
20.077547158654113
 40
0.5
 50
90
 51
116.56505117707799
  0
ARC
  8
_0-0_
  6
CONTINUOUS
 62
    7
 10
41.118384483472255
 20
20.077547158654113
 40
0.5
 50
0
 51
90
  0
ARC
  8
_0-0_
  6
CONTINUOUS
 62
    7
 10
32.118384483472255
 20
31.970440377467582
 40
0.5
 50
135.00000000000006
 51
180.00000000000006
  0
ARC
  8
_0-0_
  6
CONTINUOUS
 62
    7
 10
33.325491264658922
 20
33.177547158654249
 40
0.5
 50
90
 51
135
  0
ARC
  8
_0-0_
  6
CONTINUOUS
 62
    7
 10
37.518384483472346
 20
33.177547158654249
 40
0.5
 50
0
 51
90
  0
ARC
  8
_0-0_
  6
CONTINUOUS
 62
    7
 10
38.518384483472346
 20
31.68656415302911
 40
0.5
 50
180
 51
243.434948822922
  0
ARC
  8
_0-0_
  6
CONTINUOUS
 62
    7
 10
39.336418472222249
 20
31.277547158654158
 40
0.5
 50
243.43494882292202
 51
270
  0
ARC
  8
_0-0_
  6
CONTINUOUS
 62
    7
 10
41.118384483472255
 20
31.277547158654158
 40
0.5
 50
270
 51
0
  0
ARC
  8
_0-0_
  6
CONTINUOUS
 62
    7
 10
9.9112777022860428
 20
33.177547158654249
 40
0.5
 50
45
 51
90
  0
ARC
  8
_0-0_
  6
CONTINUOUS
 62
    7
 10
5.718384483472164
 20
33.177547158654249
 40
0.5
 50
90
 51
180
  0
ARC
  8
_0-0_
  6
CONTINUOUS
 62
    7
 10
4.718384483472164
 20
31.68656415302911
 40
0.5
 50
296.56505117707798
 51
0.0000000000000127
  0
ARC
  8
_0-0_
  6
CONTINUOUS
 62
    7
 10
3.9003504947222609
 20
31.277547158654158
 40
0.5
 50
270
 51
296.56505117707798
  0
ARC
  8
_0-0_
  6
CONTINUOUS
 62
    7
 10
2.1183844834722549
 20
31.277547158654158
 40
0.5
 50
180
 51
270
  0
ARC
  8
_0-0_
  6
CONTINUOUS
 62
    7
 10
31.768384493172562
 20
25.677547158654249
 40
0.750000009699999
 50
180
 51
224.99999999999963
  0
ARC
  8
_0-0_
  6
CONTINUOUS
 62
    7
 10
31.118384483472255
 20
24.55978020166998
 40
0.5
 50
0
 51
45
  0
ARC
  8
_0-0_
  6
CONTINUOUS
 62
    7
 10
31.768384493172562
 20
25.677547158654249
 40
0.750000009699999
 50
135.00000000000037
 51
180
  0
ARC
  8
_0-0_
  6
CONTINUOUS
 62
    7
 10
31.118384483472255
 20
26.795314115638519
 40
0.5
 50
315
 51
0
  0
ARC
  8
_0-0_
  6
CONTINUOUS
 62
    7
 10
11.118384483472255
 20
19.384653939840689
 40
0.5
 50
315.00000000000006
 51
0.0000000000000508
  0
ARC
  8
_0-0_
  6
CONTINUOUS
 62
    7
 10
11.118384483472255
 20
31.970440377467582
 40
0.5
 50
359.99999999999994
 51
44.99999999999995
  0
ARC
  8
_0-0_
  6
CONTINUOUS
 62
    7
 10
11.468384473772403
 20
25.677547158654249
 40
0.750000009699999
 50
315.0000000000004
 51
0.0000000000000063
  0
ARC
  8
_0-0_
  6
CONTINUOUS
 62
    7
 10
12.118384483472255
 20
24.55978020166998
 40
0.5
 50
135
 51
180
  0
ARC
  8
_0-0_
  6
CONTINUOUS
 62
    7
 10
11.468384473772403
 20
25.677547158654249
 40
0.750000009699999
 50
0.0000000000000063
 51
44.999999999999616
  0
ARC
  8
_0-0_
  6
CONTINUOUS
 62
    7
 10
12.118384483472255
 20
26.795314115638519
 40
0.5
 50
180
 51
225
  0
ARC
  8
_0-0_
  6
CONTINUOUS
 62
    7
 10
7.6183844834722549
 20
11.677547158654249
 40
4.2999999999999989
 50
64.840562836470667
 51
115.15943716352942
  0
ARC
  8
_0-0_
  6
CONTINUOUS
 62
    7
 10
4.218384483472164
 20
15.07754715865434
 40
1
 50
69.999999999999915
 51
200.00000000000009
  0
ARC
  8
_0-0_
  6
CONTINUOUS
 62
    7
 10
4.218384483472164
 20
8.2775471586541585
 40
1
 50
159.99999999999991
 51
290.00000000000006
  0
ARC
  8
_0-0_
  6
CONTINUOUS
 62
    7
 10
11.018384483472346
 20
8.2775471586541585
 40
1
 50
249.99999999999991
 51
20.000000000000053
  0
ARC
  8
_0-0_
  6
CONTINUOUS
 62
    7
 10
11.018384483472346
 20
15.07754715865434
 40
1
 50
339.99999999999989
 51
110.00000000000006
  0
ARC
  8
_0-0_
  6
CONTINUOUS
 62
    7
 10
7.6183844834722549
 20
11.677547158654249
 40
4.2999999999999989
 50
154.84056283647067
 51
205.15943716352945
  0
ARC
  8
_0-0_
  6
CONTINUOUS
 62
    7
 10
7.6183844834722549
 20
11.677547158654249
 40
4.2999999999999989
 50
244.84056283647067
 51
295.15943716352945
  0
ARC
  8
_0-0_
  6
CONTINUOUS
 62
    7
 10
7.6183844834722549
 20
11.677547158654249
 40
4.2999999999999989
 50
334.84056283647067
 51
25.159437163529407
  0
ARC
  8
_0-0_
  6
CONTINUOUS
 62
    7
 10
35.618384483472255
 20
11.677547158654249
 40
4.2999999999999989
 50
64.840562836470667
 51
115.15943716352942
  0
ARC
  8
_0-0_
  6
CONTINUOUS
 62
    7
 10
32.218384483472164
 20
15.07754715865434
 40
1
 50
69.999999999999915
 51
200.00000000000009
  0
ARC
  8
_0-0_
  6
CONTINUOUS
 62
    7
 10
32.218384483472164
 20
8.2775471586541585
 40
1
 50
159.99999999999991
 51
290.00000000000006
  0
ARC
  8
_0-0_
  6
CONTINUOUS
 62
    7
 10
39.018384483472346
 20
8.2775471586541585
 40
1
 50
249.99999999999991
 51
20.000000000000053
  0
ARC
  8
_0-0_
  6
CONTINUOUS
 62
    7
 10
39.018384483472346
 20
15.07754715865434
 40
1
 50
339.99999999999989
 51
110.00000000000006
  0
ARC
  8
_0-0_
  6
CONTINUOUS
 62
    7
 10
35.618384483472255
 20
11.677547158654249
 40
4.2999999999999989
 50
154.84056283647067
 51
205.15943716352945
  0
ARC
  8
_0-0_
  6
CONTINUOUS
 62
    7
 10
35.618384483472255
 20
11.677547158654249
 40
4.2999999999999989
 50
244.84056283647067
 51
295.15943716352945
  0
ARC
  8
_0-0_
  6
CONTINUOUS
 62
    7
 10
35.618384483472255
 20
11.677547158654249
 40
4.2999999999999989
 50
334.84056283647067
 51
25.159437163529407
  0
ARC
  8
_0-0_
  6
CONTINUOUS
 62
    7
 10
35.618384483472255
 20
59.677547158654249
 40
4.2999999999999989
 50
64.840562836470667
 51
115.15943716352942
  0
ARC
  8
_0-0_
  6
CONTINUOUS
 62
    7
 10
32.218384483472164
 20
63.07754715865434
 40
1
 50
69.999999999999915
 51
200.00000000000009
  0
ARC
  8
_0-0_
  6
CONTINUOUS
 62
    7
 10
32.218384483472164
 20
56.277547158654158
 40
1
 50
159.99999999999991
 51
290.00000000000006
  0
ARC
  8
_0-0_
  6
CONTINUOUS
 62
    7
 10
39.018384483472346
 20
56.277547158654158
 40
1
 50
249.99999999999991
 51
20.000000000000053
  0
ARC
  8
_0-0_
  6
CONTINUOUS
 62
    7
 10
39.018384483472346
 20
63.07754715865434
 40
1
 50
339.99999999999989
 51
110.00000000000006
  0
ARC
  8
_0-0_
  6
CONTINUOUS
 62
    7
 10
35.618384483472255
 20
59.677547158654249
 40
4.2999999999999989
 50
154.84056283647067
 51
205.15943716352945
  0
ARC
  8
_0-0_
  6
CONTINUOUS
 62
    7
 10
35.618384483472255
 20
59.677547158654249
 40
4.2999999999999989
 50
244.84056283647067
 51
295.15943716352945
  0
ARC
  8
_0-0_
  6
CONTINUOUS
 62
    7
 10
35.618384483472255
 20
59.677547158654249
 40
4.2999999999999989
 50
334.84056283647067
 51
25.159437163529407
  0
ARC
  8
_0-0_
  6
CONTINUOUS
 62
    7
 10
7.6183844834722549
 20
59.677547158654249
 40
4.2999999999999989
 50
64.840562836470667
 51
115.15943716352942
  0
ARC
  8
_0-0_
  6
CONTINUOUS
 62
    7
 10
4.218384483472164
 20
63.07754715865434
 40
1
 50
69.999999999999915
 51
200.00000000000009
  0
ARC
  8
_0-0_
  6
CONTINUOUS
 62
    7
 10
4.218384483472164
 20
56.277547158654158
 40
1
 50
159.99999999999991
 51
290.00000000000006
  0
ARC
  8
_0-0_
  6
CONTINUOUS
 62
    7
 10
11.018384483472346
 20
56.277547158654158
 40
1
 50
249.99999999999991
 51
20.000000000000053
  0
ARC
  8
_0-0_
  6
CONTINUOUS
 62
    7
 10
11.018384483472346
 20
63.07754715865434
 40
1
 50
339.99999999999989
 51
110.00000000000006
  0
ARC
  8
_0-0_
  6
CONTINUOUS
 62
    7
 10
7.6183844834722549
 20
59.677547158654249
 40
4.2999999999999989
 50
154.84056283647067
 51
205.15943716352945
  0
ARC
  8
_0-0_
  6
CONTINUOUS
 62
    7
 10
7.6183844834722549
 20
59.677547158654249
 40
4.2999999999999989
 50
244.84056283647067
 51
295.15943716352945
  0
ARC
  8
_0-0_
  6
CONTINUOUS
 62
    7
 10
7.6183844834722549
 20
59.677547158654249
 40
4.2999999999999989
 50
334.84056283647067
 51
25.159437163529407
  0
LINE
  8
_0-1_
  6
CENTER1
 62
  152
 10
41.618384483472255
 20
45.677547158654249
 11
1.6183844834722549
 21
45.677547158654249
  0
LINE
  8
_0-1_
  6
CENTER1
 62
  152
 10
21.618384483472255
 20
65.677547158654249
 11
21.618384483472255
 21
5.6775471586542494
  0
LINE
  8
_0-1_
  6
CENTER1
 62
  152
 10
1.6183844834722549
 20
25.677547158654249
 11
41.618384483472255
 21
25.677547158654249
  0
LINE
  8
_0-1_
  6
CENTER1
 62
  152
 10
35.618384483472255
 20
17.677547158654249
 11
35.618384483472255
 21
5.6775471586542494
  0
LINE
  8
_0-1_
  6
CENTER1
 62
  152
 10
29.618384483472255
 20
11.677547158654249
 11
41.618384483472255
 21
11.677547158654249
  0
LINE
  8
_0-1_
  6
CENTER1
 62
  152
 10
13.618384483472255
 20
11.677547158654249
 11
1.6183844834722549
 21
11.677547158654249
  0
LINE
  8
_0-1_
  6
CENTER1
 62
  152
 10
7.6183844834722549
 20
17.677547158654249
 11
7.6183844834722549
 21
5.6775471586542494
  0
LINE
  8
_0-1_
  6
CENTER1
 62
  152
 10
7.6183844834722549
 20
53.677547158654249
 11
7.6183844834722549
 21
65.677547158654249
  0
LINE
  8
_0-1_
  6
CENTER1
 62
  152
 10
13.618384483472255
 20
59.677547158654249
 11
1.6183844834722549
 21
59.677547158654249
  0
LINE
  8
_0-1_
  6
CENTER1
 62
  152
 10
29.618384483472255
 20
59.677547158654249
 11
41.618384483472255
 21
59.677547158654249
  0
LINE
  8
_0-1_
  6
CENTER1
 62
  152
 10
35.618384483472255
 20
65.677547158654249
 11
35.618384483472255
 21
53.677547158654249
  0
ENDSEC
  0
EOF
