  0
SECTION
  2
HEADER
  9
$ACADVER
  1
AC1009
  9
$INSBASE
 10
0
 20
0
 30
0
  9
$EXTMIN
 10
0
 20
0
  9
$EXTMAX
 10
1189
 20
841
  9
$LIMMIN
 10
0
 20
0
  9
$LIMMAX
 10
1189
 20
841
  9
$LTSCALE
 40
1
  0
ENDSEC
  0
SECTION
  2
TABLES
  0
TABLE
  2
LTYPE
 70
     9
  0
LTYPE
  2
CONTINUOUS
 70
    64
  3
実線
 72
    65
 73
     0
 40
0.0
  0
LTYPE
  2
DASHED1
 70
    64
  3
--  --  --  --  --  --  --  --  
 72
    65
 73
     2
 40
2.5
 49
1.25
 49
-1.25
  0
LTYPE
  2
DASHED2
 70
    64
  3
----    ----    ----    ----    
 72
    65
 73
     2
 40
5.0
 49
2.5
 49
-2.5
  0
LTYPE
  2
DASHED3
 70
    64
  3
------  ------  ------  ------  
 72
    65
 73
     2
 40
5.0
 49
3.75
 49
-1.25
  0
LTYPE
  2
CENTER1
 70
    64
  3
----- - ----- - ----- - ----- - 
 72
    65
 73
     4
 40
10.0
 49
6.25
 49
-1.25
 49
1.25
 49
-1.25
  0
LTYPE
  2
CENTER2
 70
    64
  3
----------  --  ----------  --  
 72
    65
 73
     4
 40
20.0
 49
12.5
 49
-2.5
 49
2.5
 49
-2.5
  0
LTYPE
  2
PHANTOM1
 70
    64
  3
--- - - --- - - --- - - --- - - 
 72
    65
 73
     6
 40
10.0
 49
3.25
 49
-1.25
 49
1.25
 49
-1.25
 49
1.25
 49
-1.25
  0
LTYPE
  2
PHANTOM2
 70
    64
  3
--------  -  -  --------  -  -  
 72
    65
 73
     6
 40
20.0
 49
10.0
 49
-2.5
 49
1.25
 49
-2.5
 49
1.25
 49
-2.5
  0
LTYPE
  2
DOT
 70
    64
  3
-   -   -   -   -   -   -   -   
 72
    65
 73
     2
 40
2.5
 49
0.625
 49
-1.875
  0
LTYPE
  2
DUMMY
 70
    64
  3
ダミー
 72
    65
 73
     0
 40
0.0
  0
LTYPE
  2
RAND1
 70
    64
  3
ランダム線1
 72
    65
 73
     4
 40
10.0
 49
1.0
 49
-2.0
 49
3.0
 49
-4.0
  0
LTYPE
  2
RAND2
 70
    64
  3
ランダム線2
 72
    65
 73
     4
 40
14.0
 49
2.0
 49
-3.0
 49
4.0
 49
-5.0
  0
LTYPE
  2
RAND3
 70
    64
  3
ランダム線3
 72
    65
 73
     4
 40
18.0
 49
3.0
 49
-4.0
 49
5.0
 49
-6.0
  0
LTYPE
  2
RAND4
 70
    64
  3
ランダム線4
 72
    65
 73
     4
 40
22.0
 49
4.0
 49
-5.0
 49
6.0
 49
-7.0
  0
LTYPE
  2
RAND5
 70
    64
  3
ランダム線5
 72
    65
 73
     4
 40
26.0
 49
5.0
 49
-6.0
 49
7.0
 49
-8.0
  0
LTYPE
  2
LONG1
 70
    64
  3
----------  --  ----------  --  
 72
    65
 73
     4
 40
40.0
 49
32.5
 49
-2.5
 49
2.5
 49
-2.5
  0
LTYPE
  2
LONG2
 70
    64
  3
--------  -  -  --------  -  -  
 72
    65
 73
     6
 40
40.0
 49
30.0
 49
-2.5
 49
1.25
 49
-2.5
 49
1.25
 49
-2.5
  0
LTYPE
  2
LONG3
 70
    64
  3
+++++++++++++++..+++++++++++++++
 72
    65
 73
     2
 40
40.0
 49
37.5
 49
-2.5
  0
LTYPE
  2
LONG4
 70
    64
  3
+++++++++++++++..+++++++++++++++
 72
    65
 73
     2
 40
80.0
 49
75.0
 49
-5.0
  0
LTYPE
  2
LONG5
 70
    64
  3
----------  --  ----------  --  
 72
    65
 73
     4
 40
60.0
 49
37.5
 49
-7.5
 49
7.5
 49
-7.5
  0
LTYPE
  2
dashed
 70
   64
  3
-------   -------------   ------
 72
   65
 73
    2
 40
7.5
 49
6
 49
-1.5
  0
LTYPE
  2
dashed_spaced
 70
   64
  3
----        --------        ----
 72
   65
 73
    2
 40
12
 49
6
 49
-6
  0
LTYPE
  2
long_dashed_dotted
 70
   64
  3
------------- --- --------------
 72
   65
 73
    4
 40
15.25
 49
12
 49
-1.5
 49
0.25
 49
-1.5
  0
LTYPE
  2
long_dashed_double-dotted
 70
   64
  3
----------- --- --- ------------
 72
   65
 73
    6
 40
17
 49
12
 49
-1.5
 49
0.25
 49
-1.5
 49
0.25
 49
-1.5
  0
LTYPE
  2
long_dashed_triplicate-dotted
 70
   64
  3
--------- --- --- --- ----------
 72
   65
 73
    8
 40
18.75
 49
12
 49
-1.5
 49
0.25
 49
-1.5
 49
0.25
 49
-1.5
 49
0.25
 49
-1.5
  0
LTYPE
  2
dotted
 70
   64
  3
   -       -       -       -    
 72
   65
 73
    2
 40
1.75
 49
0.25
 49
-1.5
  0
LTYPE
  2
chain
 70
   64
  3
-------------- -- --------------
 72
   65
 73
    4
 40
18.5
 49
12
 49
-1.5
 49
3.5
 49
-1.5
  0
LTYPE
  2
chain_double_dash
 70
   64
  3
------------ -- -- -------------
 72
   65
 73
    6
 40
23.5
 49
12
 49
-1.5
 49
3.5
 49
-1.5
 49
3.5
 49
-1.5
  0
LTYPE
  2
dashed_dotted
 70
   64
  3
-----------     -     ----------
 72
   65
 73
    4
 40
9.25
 49
6
 49
-1.5
 49
0.25
 49
-1.5
  0
LTYPE
  2
double-dashed_dotted
 70
   64
  3
------   -----------   -   -----
 72
   65
 73
    6
 40
16.75
 49
6
 49
-1.5
 49
6
 49
-1.5
 49
0.25
 49
-1.5
  0
LTYPE
  2
dashed_double-dotted
 70
   64
  3
---------    -    -    ---------
 72
   65
 73
    6
 40
11
 49
6
 49
-1.5
 49
0.25
 49
-1.5
 49
0.25
 49
-1.5
  0
LTYPE
  2
double-dashed_double-dotted
 70
   64
  3
-----   ---------   -   -   ----
 72
   65
 73
    8
 40
18.5
 49
6
 49
-1.5
 49
6
 49
-1.5
 49
0.25
 49
-1.5
 49
0.25
 49
-1.5
  0
LTYPE
  2
dashed_triplicate-dotted
 70
   64
  3
-------    -    -    -    ------
 72
   65
 73
    8
 40
12.75
 49
6
 49
-1.5
 49
0.25
 49
-1.5
 49
0.25
 49
-1.5
 49
0.25
 49
-1.5
  0
LTYPE
  2
double-dashed_triplicate-dotted
 70
   64
  3
-----  ---------  -  -  -  -----
 72
   65
 73
   10
 40
20.25
 49
6
 49
-1.5
 49
6
 49
-1.5
 49
0.25
 49
-1.5
 49
0.25
 49
-1.5
 49
0.25
 49
-1.5
  0
LTYPE
  2
undefined
 70
   64
  3
--------------------------------
 72
   65
 73
    0
 40
0
  0
ENDTAB
  0
TABLE
  2
STYLE
  5
3
100
AcDbSymbolTable
 70
     1
  0
STYLE
  5
10
100
AcDbSymbolTableRecord
100
AcDbTextStyleTableRecord
  2
STANDARD
 70
     0
 40
0.0
 41
1.0
 50
0.0
 71
     0
 42
0.2
  3
txt
  4
bigfont.shx
  0
STYLE
  5
26
100
AcDbSymbolTableRecord
100
AcDbTextStyleTableRecord
  2
TATEGAKI
 70
    68
 40
0.0
 41
1.0
 50
0.0
 71
     0
 42
1.0
  3
txt
  4
bigfont.shx
  0
ENDTAB
  0
TABLE
  2
LAYER
 70
    4
  0
LAYER
  2
_0-0_
 70
   64
 62
    7
  6
CONTINUOUS
  0
LAYER
  2
_0-1_
 70
   64
 62
    7
  6
CONTINUOUS
  0
LAYER
  2
_0-f_
 70
   64
 62
    7
  6
CONTINUOUS
  0
LAYER
  2
ADD_LINE
 70
   64
 62
    7
  6
CONTINUOUS
  0
ENDTAB
  0
ENDSEC
  0
SECTION
  2
BLOCKS
  0
ENDSEC
  0
SECTION
  2
ENTITIES
  0
TEXT
  8
_0-f_
 62
    7
 10
1.1190891530168301
 20
1.6530537322846044
 40
4.2999999999999998
 41
0.744186046511628
 50
0
  1
F46F
  0
LINE
  8
_0-0_
  6
CONTINUOUS
 62
    7
 10
3.0245698066344175
 20
44.990407703657638
 11
3.0245698066344175
 21
36.190404651899826
  0
LINE
  8
_0-0_
  6
CONTINUOUS
 62
    7
 10
3.5245698066344175
 20
35.690404651899826
 11
5.3065335290773419
 21
35.690404651899826
  0
LINE
  8
_0-0_
  6
CONTINUOUS
 62
    7
 10
5.5301411610123523
 20
35.743191473493539
 11
6.3481759126909765
 21
36.152210756680461
  0
LINE
  8
_0-0_
  6
CONTINUOUS
 62
    7
 10
6.6245682807555113
 20
36.599423935086861
 11
6.6245682807555113
 21
38.090406177778732
  0
LINE
  8
_0-0_
  6
CONTINUOUS
 62
    7
 10
7.1245682807555113
 20
38.590406177778732
 11
11.817463025448205
 21
38.590406177778732
  0
LINE
  8
_0-0_
  6
CONTINUOUS
 62
    7
 10
12.171016416041084
 20
38.443959568372065
 11
12.878123197227751
 21
37.736852787185512
  0
LINE
  8
_0-0_
  6
CONTINUOUS
 62
    7
 10
13.024569806634418
 20
37.383299396592292
 11
13.024569806634418
 21
31.009218201500744
  0
LINE
  8
_0-0_
  6
CONTINUOUS
 62
    7
 10
13.064752767174241
 20
30.860970577409716
 11
13.134381508464458
 21
30.740381162790982
  0
LINE
  8
_0-0_
  6
CONTINUOUS
 62
    7
 10
13.134381508464458
 20
30.440396168248753
 11
13.064752767174241
 21
30.319806753630246
  0
LINE
  8
_0-0_
  6
CONTINUOUS
 62
    7
 10
13.024569806634418
 20
30.17159415405672
 11
13.024569806634418
 21
23.797512958965399
  0
LINE
  8
_0-0_
  6
CONTINUOUS
 62
    7
 10
12.878123197227751
 20
23.443959568372065
 11
12.171016416041084
 21
22.736852787185512
  0
LINE
  8
_0-0_
  6
CONTINUOUS
 62
    7
 10
11.817463025447751
 20
22.590406177778732
 11
7.1245698066343266
 21
22.590406177778732
  0
LINE
  8
_0-0_
  6
CONTINUOUS
 62
    7
 10
6.6245698066343266
 20
23.090406177778732
 11
6.6245698066343266
 21
24.581389183404099
  0
LINE
  8
_0-0_
  6
CONTINUOUS
 62
    7
 10
6.3481766043844345
 20
25.028602778904087
 11
5.5301426156340767
 21
25.437619773278925
  0
LINE
  8
_0-0_
  6
CONTINUOUS
 62
    7
 10
5.3065358178844235
 20
25.490406177778823
 11
3.5245698066344175
 21
25.490406177778823
  0
LINE
  8
_0-0_
  6
CONTINUOUS
 62
    7
 10
3.0245698066344175
 20
24.990406177778823
 11
3.0245698066344175
 21
12.090406177778732
  0
LINE
  8
_0-0_
  6
CONTINUOUS
 62
    7
 10
4.4245698066345085
 20
12.490406177778368
 11
4.4245698066345085
 21
21.902971969074315
  0
LINE
  8
_0-0_
  6
CONTINUOUS
 62
    7
 10
7.1245698066343266
 20
21.090406177778277
 11
13.024569806634418
 21
21.090406177778277
  0
LINE
  8
_0-0_
  6
CONTINUOUS
 62
    7
 10
13.524569806634418
 20
20.590406177778732
 11
13.524569806634418
 21
14.690406177778641
  0
LINE
  8
_0-0_
  6
CONTINUOUS
 62
    7
 10
15.024569806634418
 20
14.690406177778641
 11
15.024569806634418
 21
19.383299396592292
  0
LINE
  8
_0-0_
  6
CONTINUOUS
 62
    7
 10
15.171016416041084
 20
19.736852787185512
 11
15.878123197227751
 21
20.443959568372065
  0
LINE
  8
_0-0_
  6
CONTINUOUS
 62
    7
 10
16.231676587821084
 20
20.590406177778732
 11
29.817463025448205
 21
20.590406177778732
  0
LINE
  8
_0-0_
  6
CONTINUOUS
 62
    7
 10
30.171016416041539
 20
20.443959568372065
 11
30.878123197227751
 21
19.736852787185512
  0
LINE
  8
_0-0_
  6
CONTINUOUS
 62
    7
 10
31.024569806634418
 20
19.383299396592292
 11
31.024569806634418
 21
14.690406177778641
  0
LINE
  8
_0-0_
  6
CONTINUOUS
 62
    7
 10
30.524569806634418
 20
14.190406177778641
 11
29.033586801009506
 21
14.190406177778641
  0
LINE
  8
_0-0_
  6
CONTINUOUS
 62
    7
 10
28.58637320550929
 20
13.914012975528522
 11
28.177356211134565
 21
13.095978986778391
  0
LINE
  8
_0-0_
  6
CONTINUOUS
 62
    7
 10
28.124569806634327
 20
12.872372189028511
 11
28.124569806634327
 21
11.090406177778732
  0
LINE
  8
_0-0_
  6
CONTINUOUS
 62
    7
 10
28.624569806634327
 20
10.590406177778732
 11
41.524569806634418
 21
10.590406177778732
  0
LINE
  8
_0-0_
  6
CONTINUOUS
 62
    7
 10
41.124569806634327
 20
11.990406177778823
 11
31.71200401533838
 21
11.990406177778823
  0
LINE
  8
_0-0_
  6
CONTINUOUS
 62
    7
 10
32.524569806634418
 20
14.690406177778641
 11
32.524569806634418
 21
20.590406177778732
  0
LINE
  8
_0-0_
  6
CONTINUOUS
 62
    7
 10
33.024569806634418
 20
21.090406177778277
 11
38.924569806634508
 21
21.090406177778277
  0
LINE
  8
_0-0_
  6
CONTINUOUS
 62
    7
 10
38.924569806634508
 20
22.590406177778732
 11
34.231676587821084
 21
22.590406177778732
  0
LINE
  8
_0-0_
  6
CONTINUOUS
 62
    7
 10
33.878123197227751
 20
22.736852787185512
 11
33.171016416041539
 21
23.443959568372065
  0
LINE
  8
_0-0_
  6
CONTINUOUS
 62
    7
 10
33.024569806634418
 20
23.797512958965399
 11
33.024569806634418
 21
30.171594154037393
  0
LINE
  8
_0-0_
  6
CONTINUOUS
 62
    7
 10
32.984386846095049
 20
30.319806753630246
 11
32.914758104804832
 21
30.440396168248753
  0
LINE
  8
_0-0_
  6
CONTINUOUS
 62
    7
 10
32.914758104804832
 20
30.740381162790982
 11
32.984386846095049
 21
30.860970577409716
  0
LINE
  8
_0-0_
  6
CONTINUOUS
 62
    7
 10
33.024569806634418
 20
31.009218201520184
 11
33.024569806634418
 21
37.383299396592292
  0
LINE
  8
_0-0_
  6
CONTINUOUS
 62
    7
 10
33.171016416041539
 20
37.736852787185512
 11
33.878123197227751
 21
38.443959568372065
  0
LINE
  8
_0-0_
  6
CONTINUOUS
 62
    7
 10
34.231676587821084
 20
38.590406177778732
 11
38.924571332513324
 21
38.590406177778732
  0
LINE
  8
_0-0_
  6
CONTINUOUS
 62
    7
 10
39.424571332513324
 20
38.090406177778732
 11
39.424571332513324
 21
36.599420120404147
  0
LINE
  8
_0-0_
  6
CONTINUOUS
 62
    7
 10
39.700965368951302
 20
36.15220610781148
 11
40.519000120655392
 21
35.743190639307159
  0
LINE
  8
_0-0_
  6
CONTINUOUS
 62
    7
 10
40.742606084217869
 20
35.690404651899826
 11
42.524569806634418
 21
35.690404651899826
  0
LINE
  8
_0-0_
  6
CONTINUOUS
 62
    7
 10
43.024569806634418
 20
36.190404651899826
 11
43.024569806634418
 21
44.990403888960373
  0
LINE
  8
_0-0_
  6
CONTINUOUS
 62
    7
 10
42.524569806634418
 20
45.490403888960373
 11
40.742602269505596
 21
45.490403888960373
  0
LINE
  8
_0-0_
  6
CONTINUOUS
 62
    7
 10
40.518995471755488
 20
45.437617484460361
 11
39.700964534763671
 21
45.028602015964339
  0
LINE
  8
_0-0_
  6
CONTINUOUS
 62
    7
 10
39.424571332513324
 20
44.581388420464464
 11
39.424571332513324
 21
43.090404270430099
  0
LINE
  8
_0-0_
  6
CONTINUOUS
 62
    7
 10
38.924571332513324
 20
42.590404270430099
 11
34.23168040251835
 21
42.590404270430099
  0
LINE
  8
_0-0_
  6
CONTINUOUS
 62
    7
 10
33.878127011925017
 20
42.736850879836879
 11
33.171016416041539
 21
43.443961475720698
  0
LINE
  8
_0-0_
  6
CONTINUOUS
 62
    7
 10
33.024569806634418
 20
43.797514866314032
 11
33.024569806634418
 21
50.171594154037393
  0
LINE
  8
_0-0_
  6
CONTINUOUS
 62
    7
 10
32.984386846095049
 20
50.319806753630246
 11
32.914758104804832
 21
50.440396168248753
  0
LINE
  8
_0-0_
  6
CONTINUOUS
 62
    7
 10
32.914758104804832
 20
50.740381162790982
 11
32.984386846095049
 21
50.860970577409716
  0
LINE
  8
_0-0_
  6
CONTINUOUS
 62
    7
 10
33.024569806634418
 20
51.009218201520184
 11
33.024569806634872
 21
57.383299396592179
  0
LINE
  8
_0-0_
  6
CONTINUOUS
 62
    7
 10
33.171016416041539
 20
57.736852787185398
 11
33.878123197227751
 21
58.443959568372065
  0
LINE
  8
_0-0_
  6
CONTINUOUS
 62
    7
 10
34.231676587821084
 20
58.590406177778732
 11
38.924569806634963
 21
58.590406177778732
  0
LINE
  8
_0-0_
  6
CONTINUOUS
 62
    7
 10
39.424569806634508
 20
58.090406177778732
 11
39.424569806634508
 21
56.599423172153593
  0
LINE
  8
_0-0_
  6
CONTINUOUS
 62
    7
 10
39.700963008884855
 20
56.152209576653604
 11
40.518996997634758
 21
55.743192582278652
  0
LINE
  8
_0-0_
  6
CONTINUOUS
 62
    7
 10
40.742603795384866
 20
55.690406177778641
 11
42.524569806634418
 21
55.690406177778641
  0
LINE
  8
_0-0_
  6
CONTINUOUS
 62
    7
 10
43.024569806634418
 20
56.190406177778641
 11
43.024569806634418
 21
69.090406177778732
  0
LINE
  8
_0-0_
  6
CONTINUOUS
 62
    7
 10
41.624569806634327
 20
68.690406177779096
 11
41.624569806634327
 21
59.277840386483149
  0
LINE
  8
_0-0_
  6
CONTINUOUS
 62
    7
 10
38.924569806634963
 20
60.090406177779187
 11
33.024569806634872
 21
60.090406177779187
  0
LINE
  8
_0-0_
  6
CONTINUOUS
 62
    7
 10
32.524569806634872
 20
60.590406177778732
 11
32.524569806634872
 21
66.490406177778823
  0
LINE
  8
_0-0_
  6
CONTINUOUS
 62
    7
 10
31.024569806634872
 20
66.490406177778823
 11
31.024569806634872
 21
61.797512958965285
  0
LINE
  8
_0-0_
  6
CONTINUOUS
 62
    7
 10
30.878123197227751
 20
61.443959568372065
 11
30.171016416041539
 21
60.736852787185398
  0
LINE
  8
_0-0_
  6
CONTINUOUS
 62
    7
 10
29.817463025448205
 20
60.590406177778732
 11
16.231676587821084
 21
60.590406177778732
  0
LINE
  8
_0-0_
  6
CONTINUOUS
 62
    7
 10
15.878123197227751
 20
60.736852787185398
 11
15.171016416041084
 21
61.443959568372065
  0
LINE
  8
_0-0_
  6
CONTINUOUS
 62
    7
 10
15.024569806634418
 20
61.797512958965285
 11
15.024569806634418
 21
66.490406177778823
  0
LINE
  8
_0-0_
  6
CONTINUOUS
 62
    7
 10
15.524569806634872
 20
66.990406177778823
 11
17.015552812259784
 21
66.990406177778823
  0
LINE
  8
_0-0_
  6
CONTINUOUS
 62
    7
 10
17.46276640776
 20
67.266799380028942
 11
17.871783402134724
 21
68.0848333687793
  0
LINE
  8
_0-0_
  6
CONTINUOUS
 62
    7
 10
17.924569806634963
 20
68.308440166529181
 11
17.924569806634963
 21
70.090406177778732
  0
LINE
  8
_0-0_
  6
CONTINUOUS
 62
    7
 10
17.424569806634963
 20
70.590406177778732
 11
4.5245698066344175
 21
70.590406177778732
  0
LINE
  8
_0-0_
  6
CONTINUOUS
 62
    7
 10
4.9245698066345085
 20
69.190406177778641
 11
14.337135597930455
 21
69.190406177778641
  0
LINE
  8
_0-0_
  6
CONTINUOUS
 62
    7
 10
13.524569806634418
 20
66.490406177778823
 11
13.524569806634418
 21
60.590406177778732
  0
LINE
  8
_0-0_
  6
CONTINUOUS
 62
    7
 10
13.024569806634418
 20
60.090406177779187
 11
7.1245698066343266
 21
60.090406177779187
  0
LINE
  8
_0-0_
  6
CONTINUOUS
 62
    7
 10
7.1245698066343266
 20
58.590406177778732
 11
11.817463025448205
 21
58.590406177778732
  0
LINE
  8
_0-0_
  6
CONTINUOUS
 62
    7
 10
12.171016416041084
 20
58.443959568372065
 11
12.878123197227751
 21
57.736852787185398
  0
LINE
  8
_0-0_
  6
CONTINUOUS
 62
    7
 10
13.024569806634418
 20
57.383299396592179
 11
13.024569806634418
 21
51.009218201500744
  0
LINE
  8
_0-0_
  6
CONTINUOUS
 62
    7
 10
13.064752767174241
 20
50.860970577409716
 11
13.134381508464458
 21
50.740381162790982
  0
LINE
  8
_0-0_
  6
CONTINUOUS
 62
    7
 10
13.134381508464458
 20
50.440396168248753
 11
13.064752767174241
 21
50.319806753630246
  0
LINE
  8
_0-0_
  6
CONTINUOUS
 62
    7
 10
13.024569806634418
 20
50.17159415405672
 11
13.024569806634418
 21
43.797514866314032
  0
LINE
  8
_0-0_
  6
CONTINUOUS
 62
    7
 10
12.878123197227751
 20
43.443961475720698
 11
12.171016416041084
 21
42.736854694534145
  0
LINE
  8
_0-0_
  6
CONTINUOUS
 62
    7
 10
11.817463025448205
 20
42.590408085127365
 11
7.1245682807555113
 21
42.590408085127365
  0
LINE
  8
_0-0_
  6
CONTINUOUS
 62
    7
 10
6.6245682807555113
 20
43.090408085127365
 11
6.6245682807555113
 21
44.581392235161729
  0
LINE
  8
_0-0_
  6
CONTINUOUS
 62
    7
 10
6.3481750785056192
 20
45.028605830661604
 11
5.5301441415133468
 21
45.437621299157627
  0
LINE
  8
_0-0_
  6
CONTINUOUS
 62
    7
 10
5.3065373437636936
 20
45.490407703657638
 11
3.5245698066344175
 21
45.490407703657638
  0
LINE
  8
_0-0_
  6
CONTINUOUS
 62
    7
 10
17.868907373932188
 20
30.840406177778732
 11
18.857582508527003
 21
32.552841743076442
  0
LINE
  8
_0-0_
  6
CONTINUOUS
 62
    7
 10
18.924569806634963
 20
32.802841743076442
 11
18.924569806634963
 21
33.917017951522666
  0
LINE
  8
_0-0_
  6
CONTINUOUS
 62
    7
 10
18.652356817313603
 20
34.21572831632011
 11
15.078258122169927
 21
34.548202613542799
  0
LINE
  8
_0-0_
  6
CONTINUOUS
 62
    7
 10
14.624569806634781
 20
35.046053221538841
 11
14.624569806634781
 21
46.134759134018623
  0
LINE
  8
_0-0_
  6
CONTINUOUS
 62
    7
 10
15.078258122169927
 20
46.632609742014665
 11
18.652356817313603
 21
46.965084039237354
  0
LINE
  8
_0-0_
  6
CONTINUOUS
 62
    7
 10
18.924569806634963
 20
47.26379440403457
 11
18.924569806634963
 21
48.377970612479885
  0
LINE
  8
_0-0_
  6
CONTINUOUS
 62
    7
 10
18.857582508527003
 20
48.627970612479658
 11
17.868907373932188
 21
50.340406177778505
  0
LINE
  8
_0-0_
  6
CONTINUOUS
 62
    7
 10
17.868907373932188
 20
50.840406177778505
 11
18.857582508527003
 21
52.552841743076328
  0
LINE
  8
_0-0_
  6
CONTINUOUS
 62
    7
 10
18.924569806634963
 20
52.802841743076442
 11
18.924569806634963
 21
53.917017951522439
  0
LINE
  8
_0-0_
  6
CONTINUOUS
 62
    7
 10
18.652356817313603
 20
54.21572831632011
 11
15.078258122169927
 21
54.548202613542799
  0
LINE
  8
_0-0_
  6
CONTINUOUS
 62
    7
 10
14.624569806634781
 20
55.046053221538841
 11
14.624569806634781
 21
58.490406177778709
  0
LINE
  8
_0-0_
  6
CONTINUOUS
 62
    7
 10
15.124569806634781
 20
58.990406177778709
 11
30.924569806634508
 21
58.990406177778709
  0
LINE
  8
_0-0_
  6
CONTINUOUS
 62
    7
 10
31.424569806634508
 20
58.490406177778709
 11
31.424569806634508
 21
55.046053221538841
  0
LINE
  8
_0-0_
  6
CONTINUOUS
 62
    7
 10
30.970881491099362
 20
54.548202613542799
 11
27.396782795955687
 21
54.21572831632011
  0
LINE
  8
_0-0_
  6
CONTINUOUS
 62
    7
 10
27.124569806634327
 20
53.917017951522553
 11
27.124569806634327
 21
52.802841743076442
  0
LINE
  8
_0-0_
  6
CONTINUOUS
 62
    7
 10
27.191557104742287
 20
52.552841743076442
 11
28.180232239337101
 21
50.840406177778618
  0
LINE
  8
_0-0_
  6
CONTINUOUS
 62
    7
 10
28.180232239337101
 20
50.340406177778618
 11
27.191557104742287
 21
48.627970612479771
  0
LINE
  8
_0-0_
  6
CONTINUOUS
 62
    7
 10
27.124569806634327
 20
48.377970612479885
 11
27.124569806634327
 21
47.263794404034684
  0
LINE
  8
_0-0_
  6
CONTINUOUS
 62
    7
 10
27.396782795955687
 20
46.965084039237354
 11
30.970881491099362
 21
46.632609742014665
  0
LINE
  8
_0-0_
  6
CONTINUOUS
 62
    7
 10
31.424569806634508
 20
46.134759134018623
 11
31.424569806634508
 21
35.046053221538841
  0
LINE
  8
_0-0_
  6
CONTINUOUS
 62
    7
 10
30.970881491099362
 20
34.548202613542799
 11
27.396782795955687
 21
34.21572831632011
  0
LINE
  8
_0-0_
  6
CONTINUOUS
 62
    7
 10
27.124569806634327
 20
33.917017951522666
 11
27.124569806634327
 21
32.802841743076442
  0
LINE
  8
_0-0_
  6
CONTINUOUS
 62
    7
 10
27.191557104742287
 20
32.552841743076442
 11
28.180232239337101
 21
30.840406177778732
  0
LINE
  8
_0-0_
  6
CONTINUOUS
 62
    7
 10
28.180232239337101
 20
30.340406177778732
 11
27.191557104742287
 21
28.627970612479885
  0
LINE
  8
_0-0_
  6
CONTINUOUS
 62
    7
 10
27.124569806634327
 20
28.377970612479885
 11
27.124569806634327
 21
27.263794404034797
  0
LINE
  8
_0-0_
  6
CONTINUOUS
 62
    7
 10
27.396782795955687
 20
26.965084039237354
 11
30.970881491099362
 21
26.632609742014665
  0
LINE
  8
_0-0_
  6
CONTINUOUS
 62
    7
 10
31.424569806634508
 20
26.134759134018623
 11
31.424569806634508
 21
22.690406177778868
  0
LINE
  8
_0-0_
  6
CONTINUOUS
 62
    7
 10
30.924569806634508
 20
22.190406177778868
 11
15.124569806634327
 21
22.190406177778868
  0
LINE
  8
_0-0_
  6
CONTINUOUS
 62
    7
 10
14.624569806634327
 20
22.690406177778868
 11
14.624569806634781
 21
26.134759134018623
  0
LINE
  8
_0-0_
  6
CONTINUOUS
 62
    7
 10
15.078258122169927
 20
26.632609742014665
 11
18.652356817313603
 21
26.965084039237354
  0
LINE
  8
_0-0_
  6
CONTINUOUS
 62
    7
 10
18.924569806634963
 20
27.263794404034797
 11
18.924569806634963
 21
28.377970612479885
  0
LINE
  8
_0-0_
  6
CONTINUOUS
 62
    7
 10
18.857582508527003
 20
28.627970612479885
 11
17.868907373932188
 21
30.340406177778732
  0
LINE
  8
_0-0_
  6
CONTINUOUS
 62
    7
 10
17.46276640776
 20
13.914012975528522
 11
17.871783402134724
 21
13.095978986778391
  0
LINE
  8
_0-0_
  6
CONTINUOUS
 62
    7
 10
17.924569806634508
 20
12.872372189028511
 11
17.924569806634508
 21
11.090406177778732
  0
LINE
  8
_0-0_
  6
CONTINUOUS
 62
    7
 10
17.424569806634508
 20
10.590406177778732
 11
4.5245698066344175
 21
10.590406177778732
  0
LINE
  8
_0-0_
  6
CONTINUOUS
 62
    7
 10
4.9245698066345085
 20
11.990406177778823
 11
14.337135597930455
 21
11.990406177778823
  0
LINE
  8
_0-0_
  6
CONTINUOUS
 62
    7
 10
15.524569806634418
 20
14.190406177778641
 11
17.015552812259784
 21
14.190406177778641
  0
LINE
  8
_0-0_
  6
CONTINUOUS
 62
    7
 10
28.124569806634781
 20
70.090406177778732
 11
28.124569806634781
 21
68.308440166529181
  0
LINE
  8
_0-0_
  6
CONTINUOUS
 62
    7
 10
28.177356211134565
 20
68.0848333687793
 11
28.58637320550929
 21
67.266799380028942
  0
LINE
  8
_0-0_
  6
CONTINUOUS
 62
    7
 10
29.033586801009506
 20
66.990406177778823
 11
30.524569806634872
 21
66.990406177778823
  0
LINE
  8
_0-0_
  6
CONTINUOUS
 62
    7
 10
31.712004015338835
 20
69.190406177778641
 11
41.124569806634327
 21
69.190406177778641
  0
LINE
  8
_0-0_
  6
CONTINUOUS
 62
    7
 10
41.524569806634872
 20
70.590406177778732
 11
28.624569806634781
 21
70.590406177778732
  0
LINE
  8
_0-0_
  6
CONTINUOUS
 62
    7
 10
4.4245698066345085
 20
68.690406177779096
 11
4.4245698066345085
 21
59.277840386483149
  0
LINE
  8
_0-0_
  6
CONTINUOUS
 62
    7
 10
6.6245698066343266
 20
58.090406177778732
 11
6.6245698066343266
 21
56.599423172153593
  0
LINE
  8
_0-0_
  6
CONTINUOUS
 62
    7
 10
6.3481766043844345
 20
56.152209576653604
 11
5.5301426156340767
 21
55.743192582278652
  0
LINE
  8
_0-0_
  6
CONTINUOUS
 62
    7
 10
5.3065358178844235
 20
55.690406177778641
 11
3.5245698066344175
 21
55.690406177778641
  0
LINE
  8
_0-0_
  6
CONTINUOUS
 62
    7
 10
3.0245698066344175
 20
56.190406177778641
 11
3.0245698066344175
 21
69.090406177778732
  0
LINE
  8
_0-0_
  6
CONTINUOUS
 62
    7
 10
43.024569806634418
 20
12.090406177778732
 11
43.024569806634418
 21
24.990406177778823
  0
LINE
  8
_0-0_
  6
CONTINUOUS
 62
    7
 10
42.524569806634418
 20
25.490406177778823
 11
40.742603795384866
 21
25.490406177778823
  0
LINE
  8
_0-0_
  6
CONTINUOUS
 62
    7
 10
40.518996997634758
 20
25.437619773278925
 11
39.700963008884855
 21
25.028602778904087
  0
LINE
  8
_0-0_
  6
CONTINUOUS
 62
    7
 10
39.424569806634508
 20
24.581389183404099
 11
39.424569806634508
 21
23.090406177778732
  0
LINE
  8
_0-0_
  6
CONTINUOUS
 62
    7
 10
41.624569806634327
 20
21.902971969074315
 11
41.624569806634327
 21
12.490406177778368
  0
ARC
  8
_0-0_
  6
CONTINUOUS
 62
    7
 10
4.5245698066344175
 20
12.090406177778732
 40
1.5
 50
180
 51
270
  0
ARC
  8
_0-0_
  6
CONTINUOUS
 62
    7
 10
41.524569806634418
 20
12.090406177778732
 40
1.5
 50
270
 51
0
  0
ARC
  8
_0-0_
  6
CONTINUOUS
 62
    7
 10
4.5245698066344175
 20
69.090406177778732
 40
1.5
 50
90
 51
180
  0
ARC
  8
_0-0_
  6
CONTINUOUS
 62
    7
 10
41.524569806634418
 20
69.090406177778732
 40
1.5
 50
0
 51
90
  0
ARC
  8
_0-0_
  6
CONTINUOUS
 62
    7
 10
14.337135597930455
 20
12.490406177778823
 40
0.5
 50
270
 51
61.642363423664683
  0
ARC
  8
_0-0_
  6
CONTINUOUS
 62
    7
 10
15.524569806634418
 20
14.690406177778641
 40
2
 50
180
 51
241.64236342366434
  0
ARC
  8
_0-0_
  6
CONTINUOUS
 62
    7
 10
4.9245698066345085
 20
21.902971969074315
 40
0.5
 50
28.35763657635297
 51
180
  0
ARC
  8
_0-0_
  6
CONTINUOUS
 62
    7
 10
7.1245698066343266
 20
23.090406177778277
 40
2
 50
208.35763657633342
 51
270
  0
ARC
  8
_0-0_
  6
CONTINUOUS
 62
    7
 10
4.9245698066345085
 20
12.490406177778823
 40
0.5
 50
180
 51
270
  0
ARC
  8
_0-0_
  6
CONTINUOUS
 62
    7
 10
31.71200401533838
 20
12.490406177778823
 40
0.5
 50
118.35763657633532
 51
270
  0
ARC
  8
_0-0_
  6
CONTINUOUS
 62
    7
 10
30.524569806634418
 20
14.690406177778641
 40
2
 50
298.35763657633561
 51
359.99999999999994
  0
ARC
  8
_0-0_
  6
CONTINUOUS
 62
    7
 10
41.124569806634327
 20
12.490406177778823
 40
0.5
 50
270
 51
0
  0
ARC
  8
_0-0_
  6
CONTINUOUS
 62
    7
 10
4.9245698066345085
 20
59.277840386483149
 40
0.5
 50
180
 51
331.64236342364694
  0
ARC
  8
_0-0_
  6
CONTINUOUS
 62
    7
 10
7.1245698066343266
 20
58.090406177779187
 40
2
 50
90
 51
151.64236342366661
  0
ARC
  8
_0-0_
  6
CONTINUOUS
 62
    7
 10
4.9245698066345085
 20
68.690406177778641
 40
0.5
 50
89.999999999999986
 51
180
  0
ARC
  8
_0-0_
  6
CONTINUOUS
 62
    7
 10
3.5245698066344175
 20
24.990406177778823
 40
0.5
 50
90
 51
180
  0
ARC
  8
_0-0_
  6
CONTINUOUS
 62
    7
 10
3.5245698066344175
 20
36.190404651899826
 40
0.5
 50
180
 51
270
  0
ARC
  8
_0-0_
  6
CONTINUOUS
 62
    7
 10
5.3065358178844235
 20
24.990406177778823
 40
0.5
 50
63.434948822935084
 51
90.000000000000057
  0
ARC
  8
_0-0_
  6
CONTINUOUS
 62
    7
 10
6.1245698066343266
 20
24.581389183404099
 40
0.5
 50
0
 51
63.434948822934651
  0
ARC
  8
_0-0_
  6
CONTINUOUS
 62
    7
 10
6.1245682807555113
 20
36.599423935086861
 40
0.5
 50
296.56515805065243
 51
0
  0
ARC
  8
_0-0_
  6
CONTINUOUS
 62
    7
 10
5.3065335290773419
 20
36.190404651899826
 40
0.5
 50
270
 51
296.56515805065226
  0
ARC
  8
_0-0_
  6
CONTINUOUS
 62
    7
 10
7.1245698066343266
 20
23.090406177778732
 40
0.5
 50
180
 51
270
  0
ARC
  8
_0-0_
  6
CONTINUOUS
 62
    7
 10
7.1245682807555113
 20
38.090406177778732
 40
0.5
 50
90
 51
180
  0
ARC
  8
_0-0_
  6
CONTINUOUS
 62
    7
 10
3.5245698066344175
 20
44.990407703657638
 40
0.5
 50
90
 51
180
  0
ARC
  8
_0-0_
  6
CONTINUOUS
 62
    7
 10
3.5245698066344175
 20
56.190406177778641
 40
0.5
 50
180
 51
270
  0
ARC
  8
_0-0_
  6
CONTINUOUS
 62
    7
 10
5.3065358178844235
 20
56.190406177778641
 40
0.5
 50
270
 51
296.56505117706928
  0
ARC
  8
_0-0_
  6
CONTINUOUS
 62
    7
 10
5.3065373437636936
 20
44.990407703657638
 40
0.5
 50
63.43494882292206
 51
90.000000000000057
  0
ARC
  8
_0-0_
  6
CONTINUOUS
 62
    7
 10
6.1245682807555113
 20
44.581392235161729
 40
0.5
 50
0
 51
63.434948822921854
  0
ARC
  8
_0-0_
  6
CONTINUOUS
 62
    7
 10
6.1245698066343266
 20
56.599423172153593
 40
0.5
 50
296.56505117706911
 51
0.0000000000000381
  0
ARC
  8
_0-0_
  6
CONTINUOUS
 62
    7
 10
7.1245698066343266
 20
58.090406177778732
 40
0.5
 50
90
 51
180
  0
ARC
  8
_0-0_
  6
CONTINUOUS
 62
    7
 10
7.1245682807555113
 20
43.090408085127365
 40
0.5
 50
180
 51
270
  0
ARC
  8
_0-0_
  6
CONTINUOUS
 62
    7
 10
42.524569806634418
 20
24.990406177778823
 40
0.5
 50
0
 51
90
  0
ARC
  8
_0-0_
  6
CONTINUOUS
 62
    7
 10
42.524569806634418
 20
36.190404651899826
 40
0.5
 50
270
 51
0
  0
ARC
  8
_0-0_
  6
CONTINUOUS
 62
    7
 10
42.524569806634418
 20
44.990403888960373
 40
0.5
 50
0
 51
90
  0
ARC
  8
_0-0_
  6
CONTINUOUS
 62
    7
 10
42.524569806634418
 20
56.190406177778641
 40
0.5
 50
270
 51
0
  0
ARC
  8
_0-0_
  6
CONTINUOUS
 62
    7
 10
17.424569806634508
 20
11.090406177778732
 40
0.5
 50
270
 51
0
  0
ARC
  8
_0-0_
  6
CONTINUOUS
 62
    7
 10
17.424569806634508
 20
12.872372189028511
 40
0.5
 50
0
 51
26.565051177067126
  0
ARC
  8
_0-0_
  6
CONTINUOUS
 62
    7
 10
17.015552812259784
 20
13.690406177778641
 40
0.5
 50
26.565051177067154
 51
90.000000000000028
  0
ARC
  8
_0-0_
  6
CONTINUOUS
 62
    7
 10
15.524569806634418
 20
14.690406177778641
 40
0.5
 50
180
 51
270
  0
ARC
  8
_0-0_
  6
CONTINUOUS
 62
    7
 10
30.524569806634418
 20
14.690406177778641
 40
0.5
 50
270
 51
0
  0
ARC
  8
_0-0_
  6
CONTINUOUS
 62
    7
 10
29.033586801009506
 20
13.690406177778641
 40
0.5
 50
90.000000000000057
 51
153.43494882293291
  0
ARC
  8
_0-0_
  6
CONTINUOUS
 62
    7
 10
28.624569806634327
 20
12.872372189028511
 40
0.5
 50
153.43494882293265
 51
180.00000000000006
  0
ARC
  8
_0-0_
  6
CONTINUOUS
 62
    7
 10
28.624569806634327
 20
11.090406177778732
 40
0.5
 50
180
 51
270
  0
ARC
  8
_0-0_
  6
CONTINUOUS
 62
    7
 10
31.712004015338835
 20
68.690406177778641
 40
0.5
 50
90
 51
241.64236342366468
  0
ARC
  8
_0-0_
  6
CONTINUOUS
 62
    7
 10
30.524569806634872
 20
66.490406177778823
 40
2
 50
0
 51
61.642363423664321
  0
ARC
  8
_0-0_
  6
CONTINUOUS
 62
    7
 10
41.124569806634327
 20
59.277840386483149
 40
0.5
 50
208.357636576353
 51
0.0000000000000254
  0
ARC
  8
_0-0_
  6
CONTINUOUS
 62
    7
 10
38.924569806634963
 20
58.090406177779187
 40
2
 50
28.357636576333388
 51
90
  0
ARC
  8
_0-0_
  6
CONTINUOUS
 62
    7
 10
41.124569806634327
 20
68.690406177778641
 40
0.5
 50
0
 51
90.000000000000028
  0
ARC
  8
_0-0_
  6
CONTINUOUS
 62
    7
 10
33.024569806634872
 20
60.590406177778732
 40
0.5
 50
180
 51
270
  0
ARC
  8
_0-0_
  6
CONTINUOUS
 62
    7
 10
13.024569806634418
 20
20.590406177778732
 40
0.5
 50
0
 51
90
  0
ARC
  8
_0-0_
  6
CONTINUOUS
 62
    7
 10
41.124569806634327
 20
21.902971969074315
 40
0.5
 50
0
 51
151.64236342364703
  0
ARC
  8
_0-0_
  6
CONTINUOUS
 62
    7
 10
38.924569806634508
 20
23.090406177778277
 40
2
 50
270
 51
331.64236342366661
  0
ARC
  8
_0-0_
  6
CONTINUOUS
 62
    7
 10
33.024569806634418
 20
20.590406177778732
 40
0.5
 50
90
 51
180
  0
ARC
  8
_0-0_
  6
CONTINUOUS
 62
    7
 10
14.337135597930455
 20
68.690406177778641
 40
0.5
 50
298.35763657633532
 51
90
  0
ARC
  8
_0-0_
  6
CONTINUOUS
 62
    7
 10
15.524569806634872
 20
66.490406177778823
 40
2
 50
118.35763657633568
 51
180
  0
ARC
  8
_0-0_
  6
CONTINUOUS
 62
    7
 10
13.024569806634418
 20
60.590406177778732
 40
0.5
 50
270
 51
0
  0
ARC
  8
_0-0_
  6
CONTINUOUS
 62
    7
 10
15.124569806634781
 20
35.046053221538841
 40
0.5
 50
180.00000000000006
 51
264.68545433005431
  0
ARC
  8
_0-0_
  6
CONTINUOUS
 62
    7
 10
15.124569806634327
 20
26.134759134018623
 40
0.5
 50
95.314545669945076
 51
180
  0
ARC
  8
_0-0_
  6
CONTINUOUS
 62
    7
 10
15.124569806634781
 20
55.046053221538841
 40
0.5
 50
180.00000000000006
 51
264.68545433005431
  0
ARC
  8
_0-0_
  6
CONTINUOUS
 62
    7
 10
15.124569806634781
 20
46.134759134018623
 40
0.5
 50
95.314545669945076
 51
180
  0
ARC
  8
_0-0_
  6
CONTINUOUS
 62
    7
 10
15.124569806634781
 20
58.490406177778709
 40
0.5
 50
90
 51
180
  0
ARC
  8
_0-0_
  6
CONTINUOUS
 62
    7
 10
15.124569806634327
 20
22.690406177778868
 40
0.5
 50
180
 51
270
  0
ARC
  8
_0-0_
  6
CONTINUOUS
 62
    7
 10
30.924569806634508
 20
35.046053221538841
 40
0.5
 50
275.31454566994569
 51
359.99999999999994
  0
ARC
  8
_0-0_
  6
CONTINUOUS
 62
    7
 10
30.924569806634508
 20
26.134759134018623
 40
0.5
 50
0
 51
84.685454330054924
  0
ARC
  8
_0-0_
  6
CONTINUOUS
 62
    7
 10
30.924569806634508
 20
55.046053221538841
 40
0.5
 50
275.31454566994569
 51
359.99999999999994
  0
ARC
  8
_0-0_
  6
CONTINUOUS
 62
    7
 10
30.924569806634508
 20
46.134759134018623
 40
0.5
 50
0
 51
84.685454330054924
  0
ARC
  8
_0-0_
  6
CONTINUOUS
 62
    7
 10
30.924569806634508
 20
58.490406177778709
 40
0.5
 50
0
 51
90
  0
ARC
  8
_0-0_
  6
CONTINUOUS
 62
    7
 10
30.924569806634508
 20
22.690406177778868
 40
0.5
 50
270
 51
0
  0
ARC
  8
_0-0_
  6
CONTINUOUS
 62
    7
 10
11.817463025448205
 20
38.090406177778732
 40
0.5
 50
44.99999999999995
 51
89.999999999999943
  0
ARC
  8
_0-0_
  6
CONTINUOUS
 62
    7
 10
12.524569806634418
 20
37.383299396592292
 40
0.5
 50
0
 51
45
  0
ARC
  8
_0-0_
  6
CONTINUOUS
 62
    7
 10
12.524569806634418
 20
23.797512958965399
 40
0.5
 50
315
 51
0
  0
ARC
  8
_0-0_
  6
CONTINUOUS
 62
    7
 10
11.817463025447751
 20
23.090406177778732
 40
0.5
 50
270
 51
315
  0
ARC
  8
_0-0_
  6
CONTINUOUS
 62
    7
 10
11.817463025448205
 20
43.090408085127365
 40
0.5
 50
270
 51
315
  0
ARC
  8
_0-0_
  6
CONTINUOUS
 62
    7
 10
12.524569806634418
 20
43.797514866314032
 40
0.5
 50
315
 51
0
  0
ARC
  8
_0-0_
  6
CONTINUOUS
 62
    7
 10
12.524569806634418
 20
57.383299396592179
 40
0.5
 50
0
 51
45
  0
ARC
  8
_0-0_
  6
CONTINUOUS
 62
    7
 10
11.817463025448205
 20
58.090406177778732
 40
0.5
 50
44.99999999999995
 51
89.999999999999943
  0
ARC
  8
_0-0_
  6
CONTINUOUS
 62
    7
 10
40.742606084217869
 20
36.190404651899826
 40
0.5
 50
243.43505569669932
 51
270
  0
ARC
  8
_0-0_
  6
CONTINUOUS
 62
    7
 10
39.924571332513324
 20
36.599420120404147
 40
0.5
 50
180
 51
243.43505569669938
  0
ARC
  8
_0-0_
  6
CONTINUOUS
 62
    7
 10
38.924571332513324
 20
38.090406177778732
 40
0.5
 50
0
 51
90
  0
ARC
  8
_0-0_
  6
CONTINUOUS
 62
    7
 10
34.231676587821084
 20
38.090406177778732
 40
0.5
 50
90
 51
135
  0
ARC
  8
_0-0_
  6
CONTINUOUS
 62
    7
 10
33.524569806634418
 20
37.383299396592292
 40
0.5
 50
135.00000000000011
 51
180.00000000000009
  0
ARC
  8
_0-0_
  6
CONTINUOUS
 62
    7
 10
33.524569806634418
 20
23.797512958965399
 40
0.5
 50
180
 51
225
  0
ARC
  8
_0-0_
  6
CONTINUOUS
 62
    7
 10
34.231676587821084
 20
23.090406177778732
 40
0.5
 50
224.99999999999989
 51
270
  0
ARC
  8
_0-0_
  6
CONTINUOUS
 62
    7
 10
38.924569806634508
 20
23.090406177778732
 40
0.5
 50
270
 51
0
  0
ARC
  8
_0-0_
  6
CONTINUOUS
 62
    7
 10
39.924569806634508
 20
24.581389183404099
 40
0.5
 50
116.56505117706502
 51
180.00000000000006
  0
ARC
  8
_0-0_
  6
CONTINUOUS
 62
    7
 10
40.742603795384866
 20
24.990406177778823
 40
0.5
 50
89.999999999999929
 51
116.56505117706531
  0
ARC
  8
_0-0_
  6
CONTINUOUS
 62
    7
 10
40.742602269505596
 20
44.990403888960373
 40
0.5
 50
90
 51
116.56505117707799
  0
ARC
  8
_0-0_
  6
CONTINUOUS
 62
    7
 10
39.924571332513324
 20
44.581388420464464
 40
0.5
 50
116.56505117707815
 51
180.00000000000006
  0
ARC
  8
_0-0_
  6
CONTINUOUS
 62
    7
 10
38.924571332513324
 20
43.090404270430099
 40
0.5
 50
270
 51
0
  0
ARC
  8
_0-0_
  6
CONTINUOUS
 62
    7
 10
34.23168040251835
 20
43.090404270430099
 40
0.5
 50
225
 51
270
  0
ARC
  8
_0-0_
  6
CONTINUOUS
 62
    7
 10
33.524569806634418
 20
43.797514866314032
 40
0.5
 50
180
 51
224.99999999999986
  0
ARC
  8
_0-0_
  6
CONTINUOUS
 62
    7
 10
33.524569806634872
 20
57.383299396592179
 40
0.5
 50
134.99999999999994
 51
179.99999999999994
  0
ARC
  8
_0-0_
  6
CONTINUOUS
 62
    7
 10
34.231676587821084
 20
58.090406177778732
 40
0.5
 50
90
 51
135.00000000000011
  0
ARC
  8
_0-0_
  6
CONTINUOUS
 62
    7
 10
38.924569806634963
 20
58.090406177778732
 40
0.5
 50
0
 51
89.999999999999986
  0
ARC
  8
_0-0_
  6
CONTINUOUS
 62
    7
 10
39.924569806634508
 20
56.599423172153593
 40
0.5
 50
180
 51
243.43494882293072
  0
ARC
  8
_0-0_
  6
CONTINUOUS
 62
    7
 10
40.742603795384866
 20
56.190406177778641
 40
0.5
 50
243.43494882293129
 51
270.00000000000006
  0
ARC
  8
_0-0_
  6
CONTINUOUS
 62
    7
 10
15.524569806634418
 20
19.383299396592292
 40
0.5
 50
134.99999999999994
 51
179.99999999999994
  0
ARC
  8
_0-0_
  6
CONTINUOUS
 62
    7
 10
16.231676587821084
 20
20.090406177778732
 40
0.5
 50
90
 51
135
  0
ARC
  8
_0-0_
  6
CONTINUOUS
 62
    7
 10
29.817463025448205
 20
20.090406177778732
 40
0.5
 50
44.99999999999995
 51
89.999999999999943
  0
ARC
  8
_0-0_
  6
CONTINUOUS
 62
    7
 10
30.524569806634418
 20
19.383299396592292
 40
0.5
 50
0
 51
44.999999999999872
  0
ARC
  8
_0-0_
  6
CONTINUOUS
 62
    7
 10
28.624569806634781
 20
70.090406177778732
 40
0.5
 50
90
 51
180
  0
ARC
  8
_0-0_
  6
CONTINUOUS
 62
    7
 10
28.624569806634781
 20
68.308440166529181
 40
0.5
 50
180
 51
206.56505117706496
  0
ARC
  8
_0-0_
  6
CONTINUOUS
 62
    7
 10
29.033586801009506
 20
67.490406177778823
 40
0.5
 50
206.56505117706519
 51
270
  0
ARC
  8
_0-0_
  6
CONTINUOUS
 62
    7
 10
30.524569806634872
 20
66.490406177778823
 40
0.5
 50
0
 51
89.999999999999986
  0
ARC
  8
_0-0_
  6
CONTINUOUS
 62
    7
 10
30.524569806634872
 20
61.797512958965285
 40
0.5
 50
315
 51
0
  0
ARC
  8
_0-0_
  6
CONTINUOUS
 62
    7
 10
29.817463025448205
 20
61.090406177778732
 40
0.5
 50
270
 51
315.00000000000011
  0
ARC
  8
_0-0_
  6
CONTINUOUS
 62
    7
 10
16.231676587821084
 20
61.090406177778732
 40
0.5
 50
225
 51
270
  0
ARC
  8
_0-0_
  6
CONTINUOUS
 62
    7
 10
15.524569806634872
 20
61.797512958965285
 40
0.5
 50
180
 51
224.99999999999986
  0
ARC
  8
_0-0_
  6
CONTINUOUS
 62
    7
 10
15.524569806634872
 20
66.490406177778823
 40
0.5
 50
90
 51
180
  0
ARC
  8
_0-0_
  6
CONTINUOUS
 62
    7
 10
17.015552812259784
 20
67.490406177778823
 40
0.5
 50
270
 51
333.43494882293504
  0
ARC
  8
_0-0_
  6
CONTINUOUS
 62
    7
 10
17.424569806634963
 20
68.308440166529181
 40
0.5
 50
333.4349488229351
 51
0
  0
ARC
  8
_0-0_
  6
CONTINUOUS
 62
    7
 10
17.424569806634963
 20
70.090406177778732
 40
0.5
 50
0
 51
90
  0
ARC
  8
_0-0_
  6
CONTINUOUS
 62
    7
 10
12.874569635783018
 20
30.590406177778732
 40
0.3000000099360252
 50
329.99998474121094
 51
29.999999999999993
  0
ARC
  8
_0-0_
  6
CONTINUOUS
 62
    7
 10
13.324564639855225
 20
31.010980586939695
 40
0.3000000099360252
 50
180.33659274997308
 51
209.99998474121097
  0
ARC
  8
_0-0_
  6
CONTINUOUS
 62
    7
 10
13.324564639855225
 20
30.169831768617996
 40
0.3000000099360252
 50
149.9999694824219
 51
179.66340725002698
  0
ARC
  8
_0-0_
  6
CONTINUOUS
 62
    7
 10
12.874569635783018
 20
50.590406177778732
 40
0.3000000099360252
 50
329.99998474121094
 51
29.999999999999993
  0
ARC
  8
_0-0_
  6
CONTINUOUS
 62
    7
 10
33.174569977485817
 20
30.590406177778732
 40
0.3000000099360252
 50
150
 51
210.00001525878906
  0
ARC
  8
_0-0_
  6
CONTINUOUS
 62
    7
 10
33.174569977485817
 20
50.590406177778732
 40
0.3000000099360252
 50
150
 51
210.00001525878906
  0
ARC
  8
_0-0_
  6
CONTINUOUS
 62
    7
 10
13.324564639855225
 20
50.169831768617996
 40
0.3000000099360252
 50
149.9999694824219
 51
179.66340725002698
  0
ARC
  8
_0-0_
  6
CONTINUOUS
 62
    7
 10
13.324564639855225
 20
51.010980586939695
 40
0.3000000099360252
 50
180.33659274997308
 51
209.99998474121097
  0
ARC
  8
_0-0_
  6
CONTINUOUS
 62
    7
 10
32.72457497341361
 20
30.169831768617996
 40
0.3000000099360252
 50
0.3365927462764086
 51
30.000030517578136
  0
ARC
  8
_0-0_
  6
CONTINUOUS
 62
    7
 10
32.72457497341361
 20
31.010980586939695
 40
0.3000000099360252
 50
330.00001525878906
 51
359.66340725372356
  0
ARC
  8
_0-0_
  6
CONTINUOUS
 62
    7
 10
32.72457497341361
 20
50.169831768617996
 40
0.3000000099360252
 50
0.3365927462764086
 51
30.000030517578136
  0
ARC
  8
_0-0_
  6
CONTINUOUS
 62
    7
 10
32.72457497341361
 20
51.010980586939695
 40
0.3000000099360252
 50
330.00001525878906
 51
359.66340725372356
  0
ARC
  8
_0-0_
  6
CONTINUOUS
 62
    7
 10
18.624569806634781
 20
33.917017951522666
 40
0.2999999999999998
 50
0.0000000000000254
 51
84.685454330055734
  0
ARC
  8
_0-0_
  6
CONTINUOUS
 62
    7
 10
18.624569806634781
 20
27.263794404034797
 40
0.2999999999999998
 50
275.31454566994427
 51
0
  0
ARC
  8
_0-0_
  6
CONTINUOUS
 62
    7
 10
18.301920075824228
 20
30.590406177778732
 40
0.5
 50
149.99999999999415
 51
209.99999999999375
  0
ARC
  8
_0-0_
  6
CONTINUOUS
 62
    7
 10
18.424569806634963
 20
28.377970612479885
 40
0.5
 50
0
 51
29.999999999989736
  0
ARC
  8
_0-0_
  6
CONTINUOUS
 62
    7
 10
18.424569806634963
 20
32.802841743076442
 40
0.5
 50
329.99999999999596
 51
0
  0
ARC
  8
_0-0_
  6
CONTINUOUS
 62
    7
 10
18.624569806634781
 20
53.917017951522439
 40
0.2999999999999998
 50
0.0000000000000254
 51
84.685454330055734
  0
ARC
  8
_0-0_
  6
CONTINUOUS
 62
    7
 10
18.624569806634781
 20
47.26379440403457
 40
0.2999999999999998
 50
275.31454566994427
 51
0
  0
ARC
  8
_0-0_
  6
CONTINUOUS
 62
    7
 10
18.301920075824228
 20
50.590406177778505
 40
0.5
 50
149.99999999999415
 51
209.99999999999375
  0
ARC
  8
_0-0_
  6
CONTINUOUS
 62
    7
 10
18.424569806634963
 20
48.377970612479885
 40
0.5
 50
0
 51
29.999999999989736
  0
ARC
  8
_0-0_
  6
CONTINUOUS
 62
    7
 10
18.424569806634963
 20
52.802841743076442
 40
0.5
 50
329.99999999999596
 51
0
  0
ARC
  8
_0-0_
  6
CONTINUOUS
 62
    7
 10
27.424569806634508
 20
33.917017951522666
 40
0.2999999999999998
 50
95.314545669944209
 51
179.99999999999991
  0
ARC
  8
_0-0_
  6
CONTINUOUS
 62
    7
 10
27.424569806634508
 20
27.263794404034797
 40
0.2999999999999998
 50
180.00000000000006
 51
264.68545433005579
  0
ARC
  8
_0-0_
  6
CONTINUOUS
 62
    7
 10
27.747219537445062
 20
30.590406177778732
 40
0.5
 50
330.00000000000625
 51
30.000000000005844
  0
ARC
  8
_0-0_
  6
CONTINUOUS
 62
    7
 10
27.624569806634327
 20
28.377970612479885
 40
0.5
 50
150.00000000001026
 51
180
  0
ARC
  8
_0-0_
  6
CONTINUOUS
 62
    7
 10
27.624569806634327
 20
32.802841743076442
 40
0.5
 50
180
 51
210.00000000000404
  0
ARC
  8
_0-0_
  6
CONTINUOUS
 62
    7
 10
27.424569806634508
 20
53.917017951522553
 40
0.2999999999999998
 50
95.314545669944209
 51
179.99999999999991
  0
ARC
  8
_0-0_
  6
CONTINUOUS
 62
    7
 10
27.424569806634508
 20
47.263794404034684
 40
0.2999999999999998
 50
180.00000000000006
 51
264.68545433005579
  0
ARC
  8
_0-0_
  6
CONTINUOUS
 62
    7
 10
27.747219537445062
 20
50.590406177778618
 40
0.5
 50
330.00000000000625
 51
30.000000000005844
  0
ARC
  8
_0-0_
  6
CONTINUOUS
 62
    7
 10
27.624569806634327
 20
48.377970612479885
 40
0.5
 50
150.00000000001026
 51
180
  0
ARC
  8
_0-0_
  6
CONTINUOUS
 62
    7
 10
27.624569806634327
 20
52.802841743076442
 40
0.5
 50
180
 51
210.00000000000404
  0
LINE
  8
_0-1_
  6
CENTER1
 62
  152
 10
43.024569806634418
 20
50.590406177778732
 11
3.0245698066344175
 21
50.590406177778732
  0
LINE
  8
_0-1_
  6
CENTER1
 62
  152
 10
23.024569806634418
 20
10.590406177778732
 11
23.024569806634872
 21
70.590406177778732
  0
LINE
  8
_0-1_
  6
CENTER1
 62
  152
 10
3.0245698066344175
 20
40.590407131453048
 11
43.024569806634418
 21
40.590407131453048
  0
LINE
  8
_0-1_
  6
CENTER1
 62
  152
 10
43.024569806634418
 20
30.590406177778732
 11
3.0245698066344175
 21
30.590406177778732
  0
ENDSEC
  0
EOF
