  0
SECTION
  2
HEADER
  9
$ACADVER
  1
AC1009
  9
$INSBASE
 10
0
 20
0
 30
0
  9
$EXTMIN
 10
0
 20
0
  9
$EXTMAX
 10
1189
 20
841
  9
$LIMMIN
 10
0
 20
0
  9
$LIMMAX
 10
1189
 20
841
  9
$LTSCALE
 40
1
  0
ENDSEC
  0
SECTION
  2
TABLES
  0
TABLE
  2
LTYPE
 70
     9
  0
LTYPE
  2
CONTINUOUS
 70
    64
  3
実線
 72
    65
 73
     0
 40
0.0
  0
LTYPE
  2
DASHED1
 70
    64
  3
--  --  --  --  --  --  --  --  
 72
    65
 73
     2
 40
2.5
 49
1.25
 49
-1.25
  0
LTYPE
  2
DASHED2
 70
    64
  3
----    ----    ----    ----    
 72
    65
 73
     2
 40
5.0
 49
2.5
 49
-2.5
  0
LTYPE
  2
DASHED3
 70
    64
  3
------  ------  ------  ------  
 72
    65
 73
     2
 40
5.0
 49
3.75
 49
-1.25
  0
LTYPE
  2
CENTER1
 70
    64
  3
----- - ----- - ----- - ----- - 
 72
    65
 73
     4
 40
10.0
 49
6.25
 49
-1.25
 49
1.25
 49
-1.25
  0
LTYPE
  2
CENTER2
 70
    64
  3
----------  --  ----------  --  
 72
    65
 73
     4
 40
20.0
 49
12.5
 49
-2.5
 49
2.5
 49
-2.5
  0
LTYPE
  2
PHANTOM1
 70
    64
  3
--- - - --- - - --- - - --- - - 
 72
    65
 73
     6
 40
10.0
 49
3.25
 49
-1.25
 49
1.25
 49
-1.25
 49
1.25
 49
-1.25
  0
LTYPE
  2
PHANTOM2
 70
    64
  3
--------  -  -  --------  -  -  
 72
    65
 73
     6
 40
20.0
 49
10.0
 49
-2.5
 49
1.25
 49
-2.5
 49
1.25
 49
-2.5
  0
LTYPE
  2
DOT
 70
    64
  3
-   -   -   -   -   -   -   -   
 72
    65
 73
     2
 40
2.5
 49
0.625
 49
-1.875
  0
LTYPE
  2
DUMMY
 70
    64
  3
ダミー
 72
    65
 73
     0
 40
0.0
  0
LTYPE
  2
RAND1
 70
    64
  3
ランダム線1
 72
    65
 73
     4
 40
10.0
 49
1.0
 49
-2.0
 49
3.0
 49
-4.0
  0
LTYPE
  2
RAND2
 70
    64
  3
ランダム線2
 72
    65
 73
     4
 40
14.0
 49
2.0
 49
-3.0
 49
4.0
 49
-5.0
  0
LTYPE
  2
RAND3
 70
    64
  3
ランダム線3
 72
    65
 73
     4
 40
18.0
 49
3.0
 49
-4.0
 49
5.0
 49
-6.0
  0
LTYPE
  2
RAND4
 70
    64
  3
ランダム線4
 72
    65
 73
     4
 40
22.0
 49
4.0
 49
-5.0
 49
6.0
 49
-7.0
  0
LTYPE
  2
RAND5
 70
    64
  3
ランダム線5
 72
    65
 73
     4
 40
26.0
 49
5.0
 49
-6.0
 49
7.0
 49
-8.0
  0
LTYPE
  2
LONG1
 70
    64
  3
----------  --  ----------  --  
 72
    65
 73
     4
 40
40.0
 49
32.5
 49
-2.5
 49
2.5
 49
-2.5
  0
LTYPE
  2
LONG2
 70
    64
  3
--------  -  -  --------  -  -  
 72
    65
 73
     6
 40
40.0
 49
30.0
 49
-2.5
 49
1.25
 49
-2.5
 49
1.25
 49
-2.5
  0
LTYPE
  2
LONG3
 70
    64
  3
+++++++++++++++..+++++++++++++++
 72
    65
 73
     2
 40
40.0
 49
37.5
 49
-2.5
  0
LTYPE
  2
LONG4
 70
    64
  3
+++++++++++++++..+++++++++++++++
 72
    65
 73
     2
 40
80.0
 49
75.0
 49
-5.0
  0
LTYPE
  2
LONG5
 70
    64
  3
----------  --  ----------  --  
 72
    65
 73
     4
 40
60.0
 49
37.5
 49
-7.5
 49
7.5
 49
-7.5
  0
LTYPE
  2
dashed
 70
   64
  3
-------   -------------   ------
 72
   65
 73
    2
 40
7.5
 49
6
 49
-1.5
  0
LTYPE
  2
dashed_spaced
 70
   64
  3
----        --------        ----
 72
   65
 73
    2
 40
12
 49
6
 49
-6
  0
LTYPE
  2
long_dashed_dotted
 70
   64
  3
------------- --- --------------
 72
   65
 73
    4
 40
15.25
 49
12
 49
-1.5
 49
0.25
 49
-1.5
  0
LTYPE
  2
long_dashed_double-dotted
 70
   64
  3
----------- --- --- ------------
 72
   65
 73
    6
 40
17
 49
12
 49
-1.5
 49
0.25
 49
-1.5
 49
0.25
 49
-1.5
  0
LTYPE
  2
long_dashed_triplicate-dotted
 70
   64
  3
--------- --- --- --- ----------
 72
   65
 73
    8
 40
18.75
 49
12
 49
-1.5
 49
0.25
 49
-1.5
 49
0.25
 49
-1.5
 49
0.25
 49
-1.5
  0
LTYPE
  2
dotted
 70
   64
  3
   -       -       -       -    
 72
   65
 73
    2
 40
1.75
 49
0.25
 49
-1.5
  0
LTYPE
  2
chain
 70
   64
  3
-------------- -- --------------
 72
   65
 73
    4
 40
18.5
 49
12
 49
-1.5
 49
3.5
 49
-1.5
  0
LTYPE
  2
chain_double_dash
 70
   64
  3
------------ -- -- -------------
 72
   65
 73
    6
 40
23.5
 49
12
 49
-1.5
 49
3.5
 49
-1.5
 49
3.5
 49
-1.5
  0
LTYPE
  2
dashed_dotted
 70
   64
  3
-----------     -     ----------
 72
   65
 73
    4
 40
9.25
 49
6
 49
-1.5
 49
0.25
 49
-1.5
  0
LTYPE
  2
double-dashed_dotted
 70
   64
  3
------   -----------   -   -----
 72
   65
 73
    6
 40
16.75
 49
6
 49
-1.5
 49
6
 49
-1.5
 49
0.25
 49
-1.5
  0
LTYPE
  2
dashed_double-dotted
 70
   64
  3
---------    -    -    ---------
 72
   65
 73
    6
 40
11
 49
6
 49
-1.5
 49
0.25
 49
-1.5
 49
0.25
 49
-1.5
  0
LTYPE
  2
double-dashed_double-dotted
 70
   64
  3
-----   ---------   -   -   ----
 72
   65
 73
    8
 40
18.5
 49
6
 49
-1.5
 49
6
 49
-1.5
 49
0.25
 49
-1.5
 49
0.25
 49
-1.5
  0
LTYPE
  2
dashed_triplicate-dotted
 70
   64
  3
-------    -    -    -    ------
 72
   65
 73
    8
 40
12.75
 49
6
 49
-1.5
 49
0.25
 49
-1.5
 49
0.25
 49
-1.5
 49
0.25
 49
-1.5
  0
LTYPE
  2
double-dashed_triplicate-dotted
 70
   64
  3
-----  ---------  -  -  -  -----
 72
   65
 73
   10
 40
20.25
 49
6
 49
-1.5
 49
6
 49
-1.5
 49
0.25
 49
-1.5
 49
0.25
 49
-1.5
 49
0.25
 49
-1.5
  0
LTYPE
  2
undefined
 70
   64
  3
--------------------------------
 72
   65
 73
    0
 40
0
  0
ENDTAB
  0
TABLE
  2
STYLE
  5
3
100
AcDbSymbolTable
 70
     1
  0
STYLE
  5
10
100
AcDbSymbolTableRecord
100
AcDbTextStyleTableRecord
  2
STANDARD
 70
     0
 40
0.0
 41
1.0
 50
0.0
 71
     0
 42
0.2
  3
txt
  4
bigfont.shx
  0
STYLE
  5
26
100
AcDbSymbolTableRecord
100
AcDbTextStyleTableRecord
  2
TATEGAKI
 70
    68
 40
0.0
 41
1.0
 50
0.0
 71
     0
 42
1.0
  3
txt
  4
bigfont.shx
  0
ENDTAB
  0
TABLE
  2
LAYER
 70
    4
  0
LAYER
  2
_0-0_
 70
   64
 62
    7
  6
CONTINUOUS
  0
LAYER
  2
_0-1_
 70
   64
 62
    7
  6
CONTINUOUS
  0
LAYER
  2
_0-f_
 70
   64
 62
    7
  6
CONTINUOUS
  0
LAYER
  2
ADD_LINE
 70
   64
 62
    7
  6
CONTINUOUS
  0
ENDTAB
  0
ENDSEC
  0
SECTION
  2
BLOCKS
  0
ENDSEC
  0
SECTION
  2
ENTITIES
  0
TEXT
  8
_0-f_
 62
    7
 10
1.581958488557575
 20
2.0983457512860468
 40
4.2999999999999998
 41
0.744186046511628
 50
0
  1
F44R
  0
LINE
  8
_0-0_
  6
CONTINUOUS
 62
    7
 10
7.5934913140170011
 20
45.283185892956624
 11
20.493491314017092
 21
45.283185892956624
  0
LINE
  8
_0-0_
  6
CONTINUOUS
 62
    7
 10
20.993491314017092
 20
44.783185892956624
 11
20.993491314017092
 21
43.001219881706788
  0
LINE
  8
_0-0_
  6
CONTINUOUS
 62
    7
 10
20.940704909517081
 20
42.777613083956965
 11
20.531687915142356
 21
41.959579095206891
  0
LINE
  8
_0-0_
  6
CONTINUOUS
 62
    7
 10
20.084474319642368
 20
41.683185892956715
 11
18.593491314017001
 21
41.683185892956715
  0
LINE
  8
_0-0_
  6
CONTINUOUS
 62
    7
 10
18.093491314017001
 20
41.183185892956715
 11
18.093491314017001
 21
36.490292674143177
  0
LINE
  8
_0-0_
  6
CONTINUOUS
 62
    7
 10
18.239937923423668
 20
36.1367392835499
 11
18.947044704610335
 21
35.429632502363347
  0
LINE
  8
_0-0_
  6
CONTINUOUS
 62
    7
 10
19.300598095203554
 20
35.283185892956624
 11
25.674679290294989
 21
35.283185892956624
  0
LINE
  8
_0-0_
  6
CONTINUOUS
 62
    7
 10
25.822917048206136
 20
35.24299860958115
 11
25.944424496517058
 21
35.172841887990899
  0
LINE
  8
_0-0_
  6
CONTINUOUS
 62
    7
 10
26.241503201960654
 20
35.17224069215149
 11
26.364055713647872
 21
35.243002932416971
  0
LINE
  8
_0-0_
  6
CONTINUOUS
 62
    7
 10
26.512303337739013
 20
35.283185892956624
 11
32.886384532830448
 21
35.283185892956624
  0
LINE
  8
_0-0_
  6
CONTINUOUS
 62
    7
 10
33.239937923423668
 20
35.429632502363347
 11
33.947044704610335
 21
36.1367392835499
  0
LINE
  8
_0-0_
  6
CONTINUOUS
 62
    7
 10
34.093491314017001
 20
36.490292674143177
 11
34.093491314017001
 21
41.183185892956715
  0
LINE
  8
_0-0_
  6
CONTINUOUS
 62
    7
 10
33.593491314017001
 20
41.683185892956715
 11
32.102508308391634
 21
41.683185892956715
  0
LINE
  8
_0-0_
  6
CONTINUOUS
 62
    7
 10
31.655294712891646
 20
41.959579095206891
 11
31.246277718516922
 21
42.777613083956965
  0
LINE
  8
_0-0_
  6
CONTINUOUS
 62
    7
 10
31.19349131401691
 20
43.001219881706788
 11
31.19349131401691
 21
44.783185892956624
  0
LINE
  8
_0-0_
  6
CONTINUOUS
 62
    7
 10
31.69349131401691
 20
45.283185892956624
 11
44.593491314017001
 21
45.283185892956624
  0
LINE
  8
_0-0_
  6
CONTINUOUS
 62
    7
 10
46.093491314017001
 20
43.783185892956624
 11
46.093491314017001
 21
30.883185892956476
  0
LINE
  8
_0-0_
  6
CONTINUOUS
 62
    7
 10
45.593491314017001
 20
30.383185892956476
 11
43.811525302767222
 21
30.383185892956476
  0
LINE
  8
_0-0_
  6
CONTINUOUS
 62
    7
 10
43.587918505017342
 20
30.435972297456487
 11
42.769884516267211
 21
30.844989291831439
  0
LINE
  8
_0-0_
  6
CONTINUOUS
 62
    7
 10
42.493491314017092
 20
31.292202887331428
 11
42.493491314017092
 21
32.783185892956624
  0
LINE
  8
_0-0_
  6
CONTINUOUS
 62
    7
 10
41.993491314017092
 20
33.283185892956624
 11
37.300598095203554
 21
33.283185892956624
  0
LINE
  8
_0-0_
  6
CONTINUOUS
 62
    7
 10
36.947044704610335
 20
33.1367392835499
 11
36.239937923423668
 21
32.429632502363347
  0
LINE
  8
_0-0_
  6
CONTINUOUS
 62
    7
 10
36.093491314017001
 20
32.076079111770071
 11
36.093491314017001
 21
18.49029267414312
  0
LINE
  8
_0-0_
  6
CONTINUOUS
 62
    7
 10
36.239937923423668
 20
18.1367392835499
 11
36.947044704610335
 21
17.429632502363347
  0
LINE
  8
_0-0_
  6
CONTINUOUS
 62
    7
 10
37.300598095203554
 20
17.283185892956567
 11
41.993491314017092
 21
17.283185892956567
  0
LINE
  8
_0-0_
  6
CONTINUOUS
 62
    7
 10
42.493491314017092
 20
17.783185892956567
 11
42.493491314017092
 21
19.27416889858182
  0
LINE
  8
_0-0_
  6
CONTINUOUS
 62
    7
 10
42.769884516267211
 20
19.721382494081809
 11
43.587918505017342
 21
20.130399488456646
  0
LINE
  8
_0-0_
  6
CONTINUOUS
 62
    7
 10
43.811525302767222
 20
20.183185892956658
 11
45.593491314017001
 21
20.183185892956658
  0
LINE
  8
_0-0_
  6
CONTINUOUS
 62
    7
 10
46.093491314017001
 20
19.683185892956658
 11
46.093491314017001
 21
6.7831858929565669
  0
LINE
  8
_0-0_
  6
CONTINUOUS
 62
    7
 10
44.69349131401691
 20
7.1831858929566579
 11
44.69349131401691
 21
16.595751684252605
  0
LINE
  8
_0-0_
  6
CONTINUOUS
 62
    7
 10
41.993491314017092
 20
15.783185892956567
 11
36.093491314017001
 21
15.783185892956567
  0
LINE
  8
_0-0_
  6
CONTINUOUS
 62
    7
 10
35.593491314017456
 20
15.283185892956567
 11
35.593491314017456
 21
9.383185892956476
  0
LINE
  8
_0-0_
  6
CONTINUOUS
 62
    7
 10
34.093491314017001
 20
9.3831858929565897
 11
34.093491314017001
 21
14.076079111770127
  0
LINE
  8
_0-0_
  6
CONTINUOUS
 62
    7
 10
33.947044704610335
 20
14.429632502363347
 11
33.239937923423781
 21
15.1367392835499
  0
LINE
  8
_0-0_
  6
CONTINUOUS
 62
    7
 10
32.886384532830562
 20
15.283185892956681
 11
26.512303337739013
 21
15.283185892956681
  0
LINE
  8
_0-0_
  6
CONTINUOUS
 62
    7
 10
26.364055713647986
 20
15.323368853496277
 11
26.241503201960768
 21
15.394131093761757
  0
LINE
  8
_0-0_
  6
CONTINUOUS
 62
    7
 10
25.944424496517058
 20
15.393529897922349
 11
25.822917048206136
 21
15.323373176332098
  0
LINE
  8
_0-0_
  6
CONTINUOUS
 62
    7
 10
25.674679290294989
 20
15.283185892956681
 11
19.300598095203668
 21
15.283185892956681
  0
LINE
  8
_0-0_
  6
CONTINUOUS
 62
    7
 10
18.947044704610335
 20
15.1367392835499
 11
18.239937923423781
 21
14.429632502363347
  0
LINE
  8
_0-0_
  6
CONTINUOUS
 62
    7
 10
18.093491314017001
 20
14.076079111770127
 11
18.093491314017001
 21
9.3831858929565897
  0
LINE
  8
_0-0_
  6
CONTINUOUS
 62
    7
 10
18.593491314017001
 20
8.8831858929565897
 11
20.084474319642368
 21
8.8831858929565897
  0
LINE
  8
_0-0_
  6
CONTINUOUS
 62
    7
 10
20.53168791514247
 20
8.6067926907064702
 11
20.940704909517194
 21
7.7887587019563398
  0
LINE
  8
_0-0_
  6
CONTINUOUS
 62
    7
 10
20.993491314017092
 20
7.5651519042064592
 11
20.993491314017092
 21
5.7831858929566806
  0
LINE
  8
_0-0_
  6
CONTINUOUS
 62
    7
 10
20.493491314017092
 20
5.2831858929565669
 11
16.093491314017001
 21
5.2831858929565669
  0
LINE
  8
_0-0_
  6
CONTINUOUS
 62
    7
 10
16.593491314016546
 20
9.383185892956476
 11
16.593491314016546
 21
15.283185892956567
  0
LINE
  8
_0-0_
  6
CONTINUOUS
 62
    7
 10
16.093491314017001
 20
15.783185892956567
 11
10.19349131401691
 21
15.783185892956567
  0
LINE
  8
_0-0_
  6
CONTINUOUS
 62
    7
 10
10.19349131401691
 20
17.283185892956567
 11
14.886384532830562
 21
17.283185892956567
  0
LINE
  8
_0-0_
  6
CONTINUOUS
 62
    7
 10
15.239937923423781
 20
17.429632502363233
 11
15.947044704610335
 21
18.136739283549787
  0
LINE
  8
_0-0_
  6
CONTINUOUS
 62
    7
 10
16.093491314017001
 20
18.49029267414312
 11
16.093491314017001
 21
32.076079111770014
  0
LINE
  8
_0-0_
  6
CONTINUOUS
 62
    7
 10
15.947044704610335
 20
32.42963250236329
 11
15.239937923423781
 21
33.136739283549844
  0
LINE
  8
_0-0_
  6
CONTINUOUS
 62
    7
 10
14.886384532830562
 20
33.283185892956567
 11
10.19349131401691
 21
33.283185892956567
  0
LINE
  8
_0-0_
  6
CONTINUOUS
 62
    7
 10
9.6934913140169101
 20
32.783185892956567
 11
9.6934913140169101
 21
31.292202887331428
  0
LINE
  8
_0-0_
  6
CONTINUOUS
 62
    7
 10
9.4170981117669044
 20
30.844989291831325
 11
8.5990641230167739
 21
30.435972297456487
  0
LINE
  8
_0-0_
  6
CONTINUOUS
 62
    7
 10
8.3754573252667797
 20
30.383185892956476
 11
6.5934913140170011
 21
30.383185892956476
  0
LINE
  8
_0-0_
  6
CONTINUOUS
 62
    7
 10
6.0934913140170011
 20
30.883185892956476
 11
6.0934913140170011
 21
43.783185892956624
  0
LINE
  8
_0-0_
  6
CONTINUOUS
 62
    7
 10
7.493491314017092
 20
43.383185892956533
 11
7.493491314017092
 21
33.970620101660586
  0
LINE
  8
_0-0_
  6
CONTINUOUS
 62
    7
 10
10.19349131401691
 20
34.783185892956624
 11
16.093491314017001
 21
34.783185892956624
  0
LINE
  8
_0-0_
  6
CONTINUOUS
 62
    7
 10
16.593491314016546
 20
35.283185892956624
 11
16.593491314016546
 21
41.183185892956715
  0
LINE
  8
_0-0_
  6
CONTINUOUS
 62
    7
 10
17.406057105312584
 20
43.883185892956533
 11
7.9934913140166373
 21
43.883185892956533
  0
LINE
  8
_0-0_
  6
CONTINUOUS
 62
    7
 10
18.193491314017137
 20
33.083185892956635
 11
21.637842362908259
 21
33.083185892956635
  0
LINE
  8
_0-0_
  6
CONTINUOUS
 62
    7
 10
30.549136450428477
 20
33.083185892956635
 11
33.993491314017092
 21
33.083185892956635
  0
LINE
  8
_0-0_
  6
CONTINUOUS
 62
    7
 10
34.493491314017092
 20
32.583185892956635
 11
34.493491314017092
 21
17.983185892956612
  0
LINE
  8
_0-0_
  6
CONTINUOUS
 62
    7
 10
33.993491314017092
 20
17.483185892956612
 11
30.549136450428477
 21
17.483185892956612
  0
LINE
  8
_0-0_
  6
CONTINUOUS
 62
    7
 10
21.637842362908259
 20
17.483185892956612
 11
18.193491314017137
 21
17.483185892956612
  0
LINE
  8
_0-0_
  6
CONTINUOUS
 62
    7
 10
17.693491314017137
 20
17.983185892956612
 11
17.693491314017137
 21
32.583185892956635
  0
LINE
  8
_0-0_
  6
CONTINUOUS
 62
    7
 10
9.4170981117669044
 20
19.721382494081695
 11
8.5990641230167739
 21
20.130399488456646
  0
LINE
  8
_0-0_
  6
CONTINUOUS
 62
    7
 10
8.3754573252667797
 20
20.183185892956658
 11
6.5934913140170011
 21
20.183185892956658
  0
LINE
  8
_0-0_
  6
CONTINUOUS
 62
    7
 10
6.0934913140170011
 20
19.683185892956658
 11
6.0934913140170011
 21
15.283185892956567
  0
LINE
  8
_0-0_
  6
CONTINUOUS
 62
    7
 10
7.493491314017092
 20
15.283185892956567
 11
7.493491314017092
 21
16.595751684252605
  0
LINE
  8
_0-0_
  6
CONTINUOUS
 62
    7
 10
9.6934913140169101
 20
17.783185892956567
 11
9.6934913140169101
 21
19.274168898581706
  0
LINE
  8
_0-0_
  6
CONTINUOUS
 62
    7
 10
31.655294712891646
 20
8.6067926907064702
 11
31.246277718516922
 21
7.7887587019563398
  0
LINE
  8
_0-0_
  6
CONTINUOUS
 62
    7
 10
31.19349131401691
 20
7.5651519042064592
 11
31.19349131401691
 21
5.7831858929566806
  0
LINE
  8
_0-0_
  6
CONTINUOUS
 62
    7
 10
31.69349131401691
 20
5.2831858929565669
 11
44.593491314017001
 21
5.2831858929565669
  0
LINE
  8
_0-0_
  6
CONTINUOUS
 62
    7
 10
44.193491314017365
 20
6.6831858929566579
 11
34.780925522721418
 21
6.6831858929566579
  0
LINE
  8
_0-0_
  6
CONTINUOUS
 62
    7
 10
33.593491314017001
 20
8.8831858929565897
 11
32.102508308391634
 21
8.8831858929565897
  0
LINE
  8
_0-0_
  6
CONTINUOUS
 62
    7
 10
37.035506265980757
 20
34.943493493648134
 11
38.265393532397525
 21
35.391136876777352
  0
LINE
  8
_0-0_
  6
CONTINUOUS
 62
    7
 10
35.753786542717421
 20
36.22521321691147
 11
36.201436111842213
 21
37.455100483328238
  0
LINE
  8
_0-0_
  6
CONTINUOUS
 62
    7
 10
36.201436111842213
 20
41.111289860571674
 11
35.753786542717421
 21
42.341164754997408
  0
LINE
  8
_0-0_
  6
CONTINUOUS
 62
    7
 10
37.035506265980757
 20
43.622890664256261
 11
38.265393532397525
 21
43.175253467122616
  0
LINE
  8
_0-0_
  6
CONTINUOUS
 62
    7
 10
41.921582909640961
 20
43.175253467122616
 11
43.151463990062211
 21
43.622890664256261
  0
LINE
  8
_0-0_
  6
CONTINUOUS
 62
    7
 10
44.433196085316695
 20
42.341170940992924
 11
43.985546516191789
 21
41.111289860571674
  0
LINE
  8
_0-0_
  6
CONTINUOUS
 62
    7
 10
43.985546516191789
 20
37.455100483328238
 11
44.433196085316695
 21
36.22521321691147
  0
LINE
  8
_0-0_
  6
CONTINUOUS
 62
    7
 10
43.151463990062211
 20
34.943493493648134
 11
41.921582909640961
 21
35.391136876777352
  0
ARC
  8
_0-0_
  6
CONTINUOUS
 62
    7
 10
7.5934913140170011
 20
43.783185892956624
 40
1.5
 50
90
 51
180
  0
ARC
  8
_0-0_
  6
CONTINUOUS
 62
    7
 10
7.993491314017092
 20
33.970620101660586
 40
0.5
 50
180
 51
331.64236342366468
  0
ARC
  8
_0-0_
  6
CONTINUOUS
 62
    7
 10
10.19349131401691
 20
32.783185892956624
 40
2
 50
90
 51
151.64236342366434
  0
ARC
  8
_0-0_
  6
CONTINUOUS
 62
    7
 10
17.406057105312584
 20
43.383185892956533
 40
0.5
 50
298.357636576353
 51
90
  0
ARC
  8
_0-0_
  6
CONTINUOUS
 62
    7
 10
18.593491314016546
 20
41.183185892956715
 40
2
 50
118.35763657633339
 51
180
  0
ARC
  8
_0-0_
  6
CONTINUOUS
 62
    7
 10
7.993491314017092
 20
43.383185892956533
 40
0.5
 50
90.000000000000014
 51
180.00000000000003
  0
ARC
  8
_0-0_
  6
CONTINUOUS
 62
    7
 10
16.093491314017001
 20
35.283185892956624
 40
0.5
 50
270
 51
0
  0
ARC
  8
_0-0_
  6
CONTINUOUS
 62
    7
 10
7.993491314017092
 20
16.595751684252605
 40
0.5
 50
28.35763657633532
 51
180
  0
ARC
  8
_0-0_
  6
CONTINUOUS
 62
    7
 10
10.19349131401691
 20
17.783185892956567
 40
2
 50
208.35763657633566
 51
270
  0
ARC
  8
_0-0_
  6
CONTINUOUS
 62
    7
 10
18.593491314016546
 20
9.383185892956476
 40
2
 50
180
 51
241.64236342366661
  0
ARC
  8
_0-0_
  6
CONTINUOUS
 62
    7
 10
16.093491314017001
 20
15.283185892956567
 40
0.5
 50
0
 51
90
  0
ARC
  8
_0-0_
  6
CONTINUOUS
 62
    7
 10
16.093491314017001
 20
15.283185892956567
 40
10
 50
180
 51
270
  0
ARC
  8
_0-0_
  6
CONTINUOUS
 62
    7
 10
16.093491314017001
 20
15.283185892956567
 40
8.5999999999999996
 50
180
 51
270
  0
ARC
  8
_0-0_
  6
CONTINUOUS
 62
    7
 10
44.593491314017001
 20
43.783185892956624
 40
1.5
 50
0.0000000000000127
 51
90.000000000000014
  0
ARC
  8
_0-0_
  6
CONTINUOUS
 62
    7
 10
44.593491314017001
 20
6.7831858929565669
 40
1.5
 50
270
 51
0
  0
ARC
  8
_0-0_
  6
CONTINUOUS
 62
    7
 10
44.19349131401691
 20
16.595751684252605
 40
0.5
 50
0
 51
151.64236342366468
  0
ARC
  8
_0-0_
  6
CONTINUOUS
 62
    7
 10
41.993491314017092
 20
17.783185892956567
 40
2
 50
270
 51
331.64236342366434
  0
ARC
  8
_0-0_
  6
CONTINUOUS
 62
    7
 10
34.780925522721418
 20
7.1831858929566579
 40
0.5
 50
118.35763657635297
 51
270
  0
ARC
  8
_0-0_
  6
CONTINUOUS
 62
    7
 10
33.593491314017456
 20
9.383185892956476
 40
2
 50
298.35763657633339
 51
0
  0
ARC
  8
_0-0_
  6
CONTINUOUS
 62
    7
 10
44.19349131401691
 20
7.1831858929566579
 40
0.4999999999999998
 50
270
 51
0
  0
ARC
  8
_0-0_
  6
CONTINUOUS
 62
    7
 10
36.093491314017001
 20
15.283185892956567
 40
0.4999999999999998
 50
90
 51
180
  0
ARC
  8
_0-0_
  6
CONTINUOUS
 62
    7
 10
43.493487684899605
 20
35.883183336078446
 40
1.0000000128874909
 50
249.9998779296875
 51
20.0001220703125
  0
ARC
  8
_0-0_
  6
CONTINUOUS
 62
    7
 10
36.69348257114325
 20
42.683194635830375
 40
1.0000000128874909
 50
69.9998779296875
 51
200.0001220703125
  0
ARC
  8
_0-0_
  6
CONTINUOUS
 62
    7
 10
36.69348257114325
 20
35.883183336078446
 40
1.0000000128874909
 50
159.9998779296875
 51
290.0001220703125
  0
ARC
  8
_0-0_
  6
CONTINUOUS
 62
    7
 10
40.093491314017001
 20
39.283185892956624
 40
4.3000011186341984
 50
334.84063720703131
 51
25.159362792968803
  0
ARC
  8
_0-0_
  6
CONTINUOUS
 62
    7
 10
40.093491314017001
 20
39.283185892956624
 40
4.3000011186341984
 50
64.84063720703125
 51
115.15936279296875
  0
ARC
  8
_0-0_
  6
CONTINUOUS
 62
    7
 10
40.093491314017001
 20
39.283185892956624
 40
4.3000011186341984
 50
154.84063720703125
 51
205.15936279296875
  0
ARC
  8
_0-0_
  6
CONTINUOUS
 62
    7
 10
40.093491314017001
 20
39.283185892956624
 40
4.3000011186341984
 50
244.84063720703131
 51
295.15936279296881
  0
ARC
  8
_0-0_
  6
CONTINUOUS
 62
    7
 10
43.493487684899605
 20
42.683194635830375
 40
1.0000000128874909
 50
340
 51
110.00012207031253
  0
ARC
  8
_0-0_
  6
CONTINUOUS
 62
    7
 10
18.193491314017137
 20
32.583185892956635
 40
0.5
 50
90
 51
180
  0
ARC
  8
_0-0_
  6
CONTINUOUS
 62
    7
 10
30.549136450428477
 20
32.583185892956635
 40
0.5
 50
90.000000000000043
 51
174.68545433005431
  0
ARC
  8
_0-0_
  6
CONTINUOUS
 62
    7
 10
21.637842362908259
 20
32.583185892956635
 40
0.5
 50
5.3145456699450744
 51
90.000000000000014
  0
ARC
  8
_0-0_
  6
CONTINUOUS
 62
    7
 10
18.193491314017137
 20
17.983185892956612
 40
0.5
 50
180
 51
270
  0
ARC
  8
_0-0_
  6
CONTINUOUS
 62
    7
 10
30.549136450428477
 20
17.983185892956612
 40
0.5
 50
185.31454566994569
 51
269.99999999999994
  0
ARC
  8
_0-0_
  6
CONTINUOUS
 62
    7
 10
21.637842362908259
 20
17.983185892956612
 40
0.5
 50
270
 51
354.68545433005494
  0
ARC
  8
_0-0_
  6
CONTINUOUS
 62
    7
 10
26.093491314017115
 20
35.433186063808023
 40
0.3000000099360252
 50
240.2055847854013
 51
300
  0
ARC
  8
_0-0_
  6
CONTINUOUS
 62
    7
 10
26.51406572317785
 20
34.983191059735816
 40
0.3000000099360252
 50
90.33659274997305
 51
119.99998474121095
  0
ARC
  8
_0-0_
  6
CONTINUOUS
 62
    7
 10
25.672916904856152
 20
34.983191059735816
 40
0.3000000099360252
 50
59.999969482421875
 51
89.66340725002695
  0
ARC
  8
_0-0_
  6
CONTINUOUS
 62
    7
 10
20.493491314017092
 20
44.783185892956624
 40
0.5
 50
0
 51
90.000000000000014
  0
ARC
  8
_0-0_
  6
CONTINUOUS
 62
    7
 10
20.493491314017092
 20
43.001219881706788
 40
0.5
 50
333.43494882293936
 51
0
  0
ARC
  8
_0-0_
  6
CONTINUOUS
 62
    7
 10
20.084474319642368
 20
42.183185892956715
 40
0.5
 50
270
 51
333.43494882293987
  0
ARC
  8
_0-0_
  6
CONTINUOUS
 62
    7
 10
18.593491314017001
 20
41.183185892956715
 40
0.5
 50
90
 51
180
  0
ARC
  8
_0-0_
  6
CONTINUOUS
 62
    7
 10
18.593491314017001
 20
36.490292674143177
 40
0.5
 50
180
 51
225
  0
ARC
  8
_0-0_
  6
CONTINUOUS
 62
    7
 10
19.300598095203554
 20
35.783185892956624
 40
0.5
 50
225
 51
270
  0
ARC
  8
_0-0_
  6
CONTINUOUS
 62
    7
 10
32.886384532830448
 20
35.783185892956624
 40
0.5
 50
270
 51
315
  0
ARC
  8
_0-0_
  6
CONTINUOUS
 62
    7
 10
33.593491314017001
 20
36.490292674143177
 40
0.5
 50
314.99999999999994
 51
359.99999999999994
  0
ARC
  8
_0-0_
  6
CONTINUOUS
 62
    7
 10
33.593491314017001
 20
41.183185892956715
 40
0.5
 50
0
 51
90.000000000000014
  0
ARC
  8
_0-0_
  6
CONTINUOUS
 62
    7
 10
32.102508308391634
 20
42.183185892956715
 40
0.5
 50
206.56505117706064
 51
270
  0
ARC
  8
_0-0_
  6
CONTINUOUS
 62
    7
 10
31.69349131401691
 20
43.001219881706788
 40
0.5
 50
180
 51
206.56505117706033
  0
ARC
  8
_0-0_
  6
CONTINUOUS
 62
    7
 10
31.69349131401691
 20
44.783185892956624
 40
0.5
 50
90
 51
180
  0
ARC
  8
_0-0_
  6
CONTINUOUS
 62
    7
 10
45.593491314017001
 20
30.883185892956476
 40
0.5
 50
270
 51
0
  0
ARC
  8
_0-0_
  6
CONTINUOUS
 62
    7
 10
43.811525302767222
 20
30.883185892956476
 40
0.5
 50
243.43494882293072
 51
270
  0
ARC
  8
_0-0_
  6
CONTINUOUS
 62
    7
 10
42.993491314017092
 20
31.292202887331428
 40
0.5
 50
180
 51
243.43494882293092
  0
ARC
  8
_0-0_
  6
CONTINUOUS
 62
    7
 10
41.993491314017092
 20
32.783185892956624
 40
0.5
 50
0
 51
90.000000000000014
  0
ARC
  8
_0-0_
  6
CONTINUOUS
 62
    7
 10
37.300598095203554
 20
32.783185892956624
 40
0.5
 50
90
 51
135
  0
ARC
  8
_0-0_
  6
CONTINUOUS
 62
    7
 10
36.593491314017001
 20
32.076079111770071
 40
0.5
 50
135
 51
180
  0
ARC
  8
_0-0_
  6
CONTINUOUS
 62
    7
 10
36.593491314017001
 20
18.49029267414312
 40
0.5
 50
180
 51
225
  0
ARC
  8
_0-0_
  6
CONTINUOUS
 62
    7
 10
37.300598095203554
 20
17.783185892956567
 40
0.5
 50
225
 51
270
  0
ARC
  8
_0-0_
  6
CONTINUOUS
 62
    7
 10
41.993491314017092
 20
17.783185892956567
 40
0.5
 50
270
 51
0
  0
ARC
  8
_0-0_
  6
CONTINUOUS
 62
    7
 10
42.993491314017092
 20
19.27416889858182
 40
0.5
 50
116.56505117706929
 51
180
  0
ARC
  8
_0-0_
  6
CONTINUOUS
 62
    7
 10
43.811525302767222
 20
19.683185892956658
 40
0.5
 50
90
 51
116.56505117706881
  0
ARC
  8
_0-0_
  6
CONTINUOUS
 62
    7
 10
45.593491314017001
 20
19.683185892956658
 40
0.5
 50
0
 51
90.000000000000014
  0
ARC
  8
_0-0_
  6
CONTINUOUS
 62
    7
 10
33.993491314017092
 20
32.583185892956635
 40
0.5
 50
0
 51
90.000000000000014
  0
ARC
  8
_0-0_
  6
CONTINUOUS
 62
    7
 10
33.993491314017092
 20
17.983185892956612
 40
0.5
 50
270
 51
0
  0
ARC
  8
_0-0_
  6
CONTINUOUS
 62
    7
 10
26.093491314017228
 20
15.133185722105281
 40
0.3000000099360252
 50
60.000000000000007
 51
119.7944152145987
  0
ARC
  8
_0-0_
  6
CONTINUOUS
 62
    7
 10
26.514065723177964
 20
15.583180726177488
 40
0.3000000099360252
 50
240.00001525878906
 51
269.66340725002692
  0
ARC
  8
_0-0_
  6
CONTINUOUS
 62
    7
 10
25.672916904856265
 20
15.583180726177488
 40
0.3000000099360252
 50
270.33659274997308
 51
300.00003051757812
  0
ARC
  8
_0-0_
  6
CONTINUOUS
 62
    7
 10
20.493491314017092
 20
7.5651519042064592
 40
0.5
 50
0
 51
26.565051177060639
  0
ARC
  8
_0-0_
  6
CONTINUOUS
 62
    7
 10
20.084474319642368
 20
8.3831858929565897
 40
0.5
 50
26.565051177060131
 51
90
  0
ARC
  8
_0-0_
  6
CONTINUOUS
 62
    7
 10
18.593491314017001
 20
9.3831858929565897
 40
0.5
 50
180
 51
270
  0
ARC
  8
_0-0_
  6
CONTINUOUS
 62
    7
 10
18.593491314017001
 20
14.076079111770127
 40
0.5
 50
135
 51
180
  0
ARC
  8
_0-0_
  6
CONTINUOUS
 62
    7
 10
19.300598095203668
 20
14.783185892956681
 40
0.5
 50
90
 51
135
  0
ARC
  8
_0-0_
  6
CONTINUOUS
 62
    7
 10
32.886384532830562
 20
14.783185892956681
 40
0.5
 50
45
 51
90
  0
ARC
  8
_0-0_
  6
CONTINUOUS
 62
    7
 10
33.593491314017001
 20
14.076079111770127
 40
0.5
 50
0.0000000000000508
 51
45.00000000000005
  0
ARC
  8
_0-0_
  6
CONTINUOUS
 62
    7
 10
33.593491314017001
 20
9.3831858929565897
 40
0.5
 50
270
 51
0
  0
ARC
  8
_0-0_
  6
CONTINUOUS
 62
    7
 10
32.102508308391634
 20
8.3831858929565897
 40
0.5
 50
89.999999999999972
 51
153.43494882293936
  0
ARC
  8
_0-0_
  6
CONTINUOUS
 62
    7
 10
31.69349131401691
 20
7.5651519042064592
 40
0.5
 50
153.43494882293967
 51
180
  0
ARC
  8
_0-0_
  6
CONTINUOUS
 62
    7
 10
6.5934913140170011
 20
30.883185892956476
 40
0.5
 50
180
 51
270
  0
ARC
  8
_0-0_
  6
CONTINUOUS
 62
    7
 10
8.3754573252667797
 20
30.883185892956476
 40
0.5
 50
270
 51
296.56505117706928
  0
ARC
  8
_0-0_
  6
CONTINUOUS
 62
    7
 10
9.1934913140169101
 20
31.292202887331428
 40
0.5
 50
296.56505117706911
 51
0
  0
ARC
  8
_0-0_
  6
CONTINUOUS
 62
    7
 10
10.19349131401691
 20
32.783185892956567
 40
0.5
 50
89.999999999999986
 51
180
  0
ARC
  8
_0-0_
  6
CONTINUOUS
 62
    7
 10
14.886384532830562
 20
32.783185892956567
 40
0.5
 50
45
 51
90
  0
ARC
  8
_0-0_
  6
CONTINUOUS
 62
    7
 10
15.593491314017001
 20
32.076079111770014
 40
0.5
 50
0
 51
45
  0
ARC
  8
_0-0_
  6
CONTINUOUS
 62
    7
 10
15.593491314017001
 20
18.49029267414312
 40
0.5
 50
315
 51
0
  0
ARC
  8
_0-0_
  6
CONTINUOUS
 62
    7
 10
14.886384532830562
 20
17.783185892956567
 40
0.5
 50
270
 51
315
  0
ARC
  8
_0-0_
  6
CONTINUOUS
 62
    7
 10
10.19349131401691
 20
17.783185892956567
 40
0.5
 50
180
 51
270
  0
ARC
  8
_0-0_
  6
CONTINUOUS
 62
    7
 10
9.1934913140169101
 20
19.274168898581706
 40
0.5
 50
0
 51
63.434948822930707
  0
ARC
  8
_0-0_
  6
CONTINUOUS
 62
    7
 10
8.3754573252667797
 20
19.683185892956658
 40
0.5
 50
63.43494882293119
 51
90
  0
ARC
  8
_0-0_
  6
CONTINUOUS
 62
    7
 10
6.5934913140170011
 20
19.683185892956658
 40
0.5
 50
89.999999999999986
 51
180
  0
ARC
  8
_0-0_
  6
CONTINUOUS
 62
    7
 10
20.493491314017092
 20
5.7831858929566806
 40
0.5
 50
270
 51
0
  0
ARC
  8
_0-0_
  6
CONTINUOUS
 62
    7
 10
31.69349131401691
 20
5.7831858929566806
 40
0.5
 50
180
 51
270
  0
LINE
  8
_0-0_
  6
CONTINUOUS
 62
    7
 10
22.399227632497514
 20
30.272087998045095
 11
22.135692970904302
 21
32.629497577421375
  0
ARC
  8
_0-0_
  6
CONTINUOUS
 62
    7
 10
23.393037100024458
 20
30.383185892956476
 40
1
 50
186.37860825854165
 51
270
  0
LINE
  8
_0-0_
  6
CONTINUOUS
 62
    7
 10
28.793941713312279
 20
29.383185892956476
 11
23.393037100024458
 21
29.383185892956476
  0
LINE
  8
_0-0_
  6
CONTINUOUS
 62
    7
 10
29.787751180839336
 20
30.272087998045095
 11
30.051285842432435
 21
32.629497577421489
  0
ARC
  8
_0-0_
  6
CONTINUOUS
 62
    7
 10
28.793941713312279
 20
30.383185892956476
 40
1
 50
270
 51
353.62139174145864
  0
LINE
  8
_0-0_
  6
CONTINUOUS
 62
    7
 10
29.787751180839336
 20
20.294283787868153
 11
30.051285842432435
 21
17.936874208491759
  0
ARC
  8
_0-0_
  6
CONTINUOUS
 62
    7
 10
28.793941713312279
 20
20.183185892956658
 40
1
 50
6.3786082585413384
 51
89.999999999999957
  0
LINE
  8
_0-0_
  6
CONTINUOUS
 62
    7
 10
22.399227632497514
 20
20.294283787868153
 11
22.135692970904302
 21
17.936874208491872
  0
LINE
  8
_0-0_
  6
CONTINUOUS
 62
    7
 10
23.393037100024458
 20
21.183185892956658
 11
28.793941713312279
 21
21.183185892956658
  0
ARC
  8
_0-0_
  6
CONTINUOUS
 62
    7
 10
23.393037100024458
 20
20.183185892956658
 40
1
 50
90
 51
173.62139174145835
  0
ARC
  8
_0-0_
  6
CONTINUOUS
 62
    7
 10
17.406057105312584
 20
7.1831858929566579
 40
0.5
 50
270
 51
61.642363423647019
  0
LINE
  8
_0-0_
  6
CONTINUOUS
 62
    7
 10
16.093491314017001
 20
6.6831858929566579
 11
17.406057105312584
 21
6.6831858929566579
  0
LINE
  8
_0-1_
  6
CENTER1
 62
  152
 10
26.093491314017001
 20
5.2831858929565669
 11
26.093491314017001
 21
45.283185892956624
  0
LINE
  8
_0-1_
  6
CENTER1
 62
  152
 10
6.0934913140170011
 20
25.283185892956567
 11
46.093491314017001
 21
25.283185892956567
  0
ENDSEC
  0
EOF
