  0
SECTION
  2
HEADER
  9
$ACADVER
  1
AC1009
  9
$INSBASE
 10
0
 20
0
 30
0
  9
$EXTMIN
 10
0
 20
0
  9
$EXTMAX
 10
1189
 20
841
  9
$LIMMIN
 10
0
 20
0
  9
$LIMMAX
 10
1189
 20
841
  9
$LTSCALE
 40
1
  0
ENDSEC
  0
SECTION
  2
TABLES
  0
TABLE
  2
LTYPE
 70
     9
  0
LTYPE
  2
CONTINUOUS
 70
    64
  3
実線
 72
    65
 73
     0
 40
0.0
  0
LTYPE
  2
DASHED1
 70
    64
  3
--  --  --  --  --  --  --  --  
 72
    65
 73
     2
 40
2.5
 49
1.25
 49
-1.25
  0
LTYPE
  2
DASHED2
 70
    64
  3
----    ----    ----    ----    
 72
    65
 73
     2
 40
5.0
 49
2.5
 49
-2.5
  0
LTYPE
  2
DASHED3
 70
    64
  3
------  ------  ------  ------  
 72
    65
 73
     2
 40
5.0
 49
3.75
 49
-1.25
  0
LTYPE
  2
CENTER1
 70
    64
  3
----- - ----- - ----- - ----- - 
 72
    65
 73
     4
 40
10.0
 49
6.25
 49
-1.25
 49
1.25
 49
-1.25
  0
LTYPE
  2
CENTER2
 70
    64
  3
----------  --  ----------  --  
 72
    65
 73
     4
 40
20.0
 49
12.5
 49
-2.5
 49
2.5
 49
-2.5
  0
LTYPE
  2
PHANTOM1
 70
    64
  3
--- - - --- - - --- - - --- - - 
 72
    65
 73
     6
 40
10.0
 49
3.25
 49
-1.25
 49
1.25
 49
-1.25
 49
1.25
 49
-1.25
  0
LTYPE
  2
PHANTOM2
 70
    64
  3
--------  -  -  --------  -  -  
 72
    65
 73
     6
 40
20.0
 49
10.0
 49
-2.5
 49
1.25
 49
-2.5
 49
1.25
 49
-2.5
  0
LTYPE
  2
DOT
 70
    64
  3
-   -   -   -   -   -   -   -   
 72
    65
 73
     2
 40
2.5
 49
0.625
 49
-1.875
  0
LTYPE
  2
DUMMY
 70
    64
  3
ダミー
 72
    65
 73
     0
 40
0.0
  0
LTYPE
  2
RAND1
 70
    64
  3
ランダム線1
 72
    65
 73
     4
 40
10.0
 49
1.0
 49
-2.0
 49
3.0
 49
-4.0
  0
LTYPE
  2
RAND2
 70
    64
  3
ランダム線2
 72
    65
 73
     4
 40
14.0
 49
2.0
 49
-3.0
 49
4.0
 49
-5.0
  0
LTYPE
  2
RAND3
 70
    64
  3
ランダム線3
 72
    65
 73
     4
 40
18.0
 49
3.0
 49
-4.0
 49
5.0
 49
-6.0
  0
LTYPE
  2
RAND4
 70
    64
  3
ランダム線4
 72
    65
 73
     4
 40
22.0
 49
4.0
 49
-5.0
 49
6.0
 49
-7.0
  0
LTYPE
  2
RAND5
 70
    64
  3
ランダム線5
 72
    65
 73
     4
 40
26.0
 49
5.0
 49
-6.0
 49
7.0
 49
-8.0
  0
LTYPE
  2
LONG1
 70
    64
  3
----------  --  ----------  --  
 72
    65
 73
     4
 40
40.0
 49
32.5
 49
-2.5
 49
2.5
 49
-2.5
  0
LTYPE
  2
LONG2
 70
    64
  3
--------  -  -  --------  -  -  
 72
    65
 73
     6
 40
40.0
 49
30.0
 49
-2.5
 49
1.25
 49
-2.5
 49
1.25
 49
-2.5
  0
LTYPE
  2
LONG3
 70
    64
  3
+++++++++++++++..+++++++++++++++
 72
    65
 73
     2
 40
40.0
 49
37.5
 49
-2.5
  0
LTYPE
  2
LONG4
 70
    64
  3
+++++++++++++++..+++++++++++++++
 72
    65
 73
     2
 40
80.0
 49
75.0
 49
-5.0
  0
LTYPE
  2
LONG5
 70
    64
  3
----------  --  ----------  --  
 72
    65
 73
     4
 40
60.0
 49
37.5
 49
-7.5
 49
7.5
 49
-7.5
  0
LTYPE
  2
dashed
 70
   64
  3
-------   -------------   ------
 72
   65
 73
    2
 40
7.5
 49
6
 49
-1.5
  0
LTYPE
  2
dashed_spaced
 70
   64
  3
----        --------        ----
 72
   65
 73
    2
 40
12
 49
6
 49
-6
  0
LTYPE
  2
long_dashed_dotted
 70
   64
  3
------------- --- --------------
 72
   65
 73
    4
 40
15.25
 49
12
 49
-1.5
 49
0.25
 49
-1.5
  0
LTYPE
  2
long_dashed_double-dotted
 70
   64
  3
----------- --- --- ------------
 72
   65
 73
    6
 40
17
 49
12
 49
-1.5
 49
0.25
 49
-1.5
 49
0.25
 49
-1.5
  0
LTYPE
  2
long_dashed_triplicate-dotted
 70
   64
  3
--------- --- --- --- ----------
 72
   65
 73
    8
 40
18.75
 49
12
 49
-1.5
 49
0.25
 49
-1.5
 49
0.25
 49
-1.5
 49
0.25
 49
-1.5
  0
LTYPE
  2
dotted
 70
   64
  3
   -       -       -       -    
 72
   65
 73
    2
 40
1.75
 49
0.25
 49
-1.5
  0
LTYPE
  2
chain
 70
   64
  3
-------------- -- --------------
 72
   65
 73
    4
 40
18.5
 49
12
 49
-1.5
 49
3.5
 49
-1.5
  0
LTYPE
  2
chain_double_dash
 70
   64
  3
------------ -- -- -------------
 72
   65
 73
    6
 40
23.5
 49
12
 49
-1.5
 49
3.5
 49
-1.5
 49
3.5
 49
-1.5
  0
LTYPE
  2
dashed_dotted
 70
   64
  3
-----------     -     ----------
 72
   65
 73
    4
 40
9.25
 49
6
 49
-1.5
 49
0.25
 49
-1.5
  0
LTYPE
  2
double-dashed_dotted
 70
   64
  3
------   -----------   -   -----
 72
   65
 73
    6
 40
16.75
 49
6
 49
-1.5
 49
6
 49
-1.5
 49
0.25
 49
-1.5
  0
LTYPE
  2
dashed_double-dotted
 70
   64
  3
---------    -    -    ---------
 72
   65
 73
    6
 40
11
 49
6
 49
-1.5
 49
0.25
 49
-1.5
 49
0.25
 49
-1.5
  0
LTYPE
  2
double-dashed_double-dotted
 70
   64
  3
-----   ---------   -   -   ----
 72
   65
 73
    8
 40
18.5
 49
6
 49
-1.5
 49
6
 49
-1.5
 49
0.25
 49
-1.5
 49
0.25
 49
-1.5
  0
LTYPE
  2
dashed_triplicate-dotted
 70
   64
  3
-------    -    -    -    ------
 72
   65
 73
    8
 40
12.75
 49
6
 49
-1.5
 49
0.25
 49
-1.5
 49
0.25
 49
-1.5
 49
0.25
 49
-1.5
  0
LTYPE
  2
double-dashed_triplicate-dotted
 70
   64
  3
-----  ---------  -  -  -  -----
 72
   65
 73
   10
 40
20.25
 49
6
 49
-1.5
 49
6
 49
-1.5
 49
0.25
 49
-1.5
 49
0.25
 49
-1.5
 49
0.25
 49
-1.5
  0
LTYPE
  2
undefined
 70
   64
  3
--------------------------------
 72
   65
 73
    0
 40
0
  0
ENDTAB
  0
TABLE
  2
STYLE
  5
3
100
AcDbSymbolTable
 70
     1
  0
STYLE
  5
10
100
AcDbSymbolTableRecord
100
AcDbTextStyleTableRecord
  2
STANDARD
 70
     0
 40
0.0
 41
1.0
 50
0.0
 71
     0
 42
0.2
  3
txt
  4
bigfont.shx
  0
STYLE
  5
26
100
AcDbSymbolTableRecord
100
AcDbTextStyleTableRecord
  2
TATEGAKI
 70
    68
 40
0.0
 41
1.0
 50
0.0
 71
     0
 42
1.0
  3
txt
  4
bigfont.shx
  0
ENDTAB
  0
TABLE
  2
LAYER
 70
    4
  0
LAYER
  2
_0-0_
 70
   64
 62
    7
  6
CONTINUOUS
  0
LAYER
  2
_0-1_
 70
   64
 62
    7
  6
CONTINUOUS
  0
LAYER
  2
_0-f_
 70
   64
 62
    7
  6
CONTINUOUS
  0
LAYER
  2
ADD_LINE
 70
   64
 62
    7
  6
CONTINUOUS
  0
ENDTAB
  0
ENDSEC
  0
SECTION
  2
BLOCKS
  0
ENDSEC
  0
SECTION
  2
ENTITIES
  0
TEXT
  8
_0-f_
 62
    7
 10
0.9818884322498888
 20
0.9903237975721594
 40
4.2999999999999998
 41
0.744186046511628
 50
0
  1
F44M,F44MB
  0
LINE
  8
_0-0_
  6
CONTINUOUS
 62
    7
 10
39.930893107050679
 20
7.0295074212053237
 11
27.030893107050588
 21
7.0295074212053237
  0
LINE
  8
_0-0_
  6
CONTINUOUS
 62
    7
 10
26.530893107050588
 20
7.5295074212053237
 11
26.530893107050588
 21
9.3114734324553297
  0
LINE
  8
_0-0_
  6
CONTINUOUS
 62
    7
 10
26.583679511550827
 20
9.5350802302054376
 11
26.992696505925551
 21
10.353114218955341
  0
LINE
  8
_0-0_
  6
CONTINUOUS
 62
    7
 10
27.439910101425767
 20
10.629507421205233
 11
28.930893107050679
 21
10.629507421205233
  0
LINE
  8
_0-0_
  6
CONTINUOUS
 62
    7
 10
29.430893107050679
 20
11.129507421205233
 11
29.430893107050679
 21
15.322400640019112
  0
LINE
  8
_0-0_
  6
CONTINUOUS
 62
    7
 10
29.284446497644012
 20
15.67595403061199
 11
28.077339716457345
 21
16.883060811798543
  0
LINE
  8
_0-0_
  6
CONTINUOUS
 62
    7
 10
27.723786325864012
 20
17.02950742120521
 11
21.851470243644826
 21
17.02950742120521
  0
LINE
  8
_0-0_
  6
CONTINUOUS
 62
    7
 10
21.701470243644735
 20
17.069699800069941
 11
21.58089310705077
 21
17.13931504234057
  0
LINE
  8
_0-0_
  6
CONTINUOUS
 62
    7
 10
21.280893107051043
 20
17.13931504234057
 11
21.160315970456622
 21
17.069699800069941
  0
LINE
  8
_0-0_
  6
CONTINUOUS
 62
    7
 10
21.010315970456986
 20
17.02950742120521
 11
15.137999888237346
 21
17.02950742120521
  0
LINE
  8
_0-0_
  6
CONTINUOUS
 62
    7
 10
14.784446497644012
 20
16.883060811798543
 11
13.577339716457345
 21
15.67595403061199
  0
LINE
  8
_0-0_
  6
CONTINUOUS
 62
    7
 10
13.430893107050679
 20
15.322400640019112
 11
13.430893107050679
 21
11.129507421205233
  0
LINE
  8
_0-0_
  6
CONTINUOUS
 62
    7
 10
13.930893107050679
 20
10.629507421205233
 11
15.421876112675591
 21
10.629507421205233
  0
LINE
  8
_0-0_
  6
CONTINUOUS
 62
    7
 10
15.869089708175807
 20
10.353114218955341
 11
16.278106702550531
 21
9.5350802302054376
  0
LINE
  8
_0-0_
  6
CONTINUOUS
 62
    7
 10
16.33089310705077
 20
9.3114734324553297
 11
16.33089310705077
 21
7.5295074212053237
  0
LINE
  8
_0-0_
  6
CONTINUOUS
 62
    7
 10
15.83089310705077
 20
7.0295074212053237
 11
2.9308931070506787
 21
7.0295074212053237
  0
LINE
  8
_0-0_
  6
CONTINUOUS
 62
    7
 10
1.4308931070506787
 20
8.5295074212053237
 11
1.4308931070506787
 21
21.429507421205301
  0
LINE
  8
_0-0_
  6
CONTINUOUS
 62
    7
 10
1.9308931070506787
 20
21.929507421205301
 11
3.7128591183006847
 21
21.929507421205301
  0
LINE
  8
_0-0_
  6
CONTINUOUS
 62
    7
 10
3.9364659160507927
 20
21.876721016705517
 11
4.7544999048006957
 21
21.467704022330338
  0
LINE
  8
_0-0_
  6
CONTINUOUS
 62
    7
 10
5.0308931070505878
 20
21.020490426830577
 11
5.0308931070505878
 21
19.52950742120521
  0
LINE
  8
_0-0_
  6
CONTINUOUS
 62
    7
 10
5.5308931070505878
 20
19.02950742120521
 11
9.7237863258640118
 21
19.02950742120521
  0
LINE
  8
_0-0_
  6
CONTINUOUS
 62
    7
 10
10.077339716457345
 20
19.175954030611877
 11
11.284446497644012
 21
20.383060811798543
  0
LINE
  8
_0-0_
  6
CONTINUOUS
 62
    7
 10
11.430893107050679
 20
20.736614202391877
 11
11.430893107050679
 21
33.322400640018998
  0
LINE
  8
_0-0_
  6
CONTINUOUS
 62
    7
 10
11.284446497644012
 20
33.675954030611877
 11
10.077339716457345
 21
34.883060811798543
  0
LINE
  8
_0-0_
  6
CONTINUOUS
 62
    7
 10
9.7237863258640118
 20
35.02950742120521
 11
5.5308931070505878
 21
35.02950742120521
  0
LINE
  8
_0-0_
  6
CONTINUOUS
 62
    7
 10
5.0308931070505878
 20
34.52950742120521
 11
5.0308931070505878
 21
33.038524415580298
  0
LINE
  8
_0-0_
  6
CONTINUOUS
 62
    7
 10
4.7544999048006957
 20
32.591310820080537
 11
3.9364659160507927
 21
32.182293825705358
  0
LINE
  8
_0-0_
  6
CONTINUOUS
 62
    7
 10
3.7128591183006847
 20
32.129507421205119
 11
1.9308931070506787
 21
32.129507421205119
  0
LINE
  8
_0-0_
  6
CONTINUOUS
 62
    7
 10
1.4308931070506787
 20
32.629507421205119
 11
1.4308931070506787
 21
45.52950742120521
  0
LINE
  8
_0-0_
  6
CONTINUOUS
 62
    7
 10
2.9308931070506787
 20
47.02950742120521
 11
15.83089310705077
 21
47.02950742120521
  0
LINE
  8
_0-0_
  6
CONTINUOUS
 62
    7
 10
16.33089310705077
 20
46.52950742120521
 11
16.33089310705077
 21
44.747541409955204
  0
LINE
  8
_0-0_
  6
CONTINUOUS
 62
    7
 10
16.278106702550531
 20
44.523934612205096
 11
15.869089708175807
 21
43.705900623455193
  0
LINE
  8
_0-0_
  6
CONTINUOUS
 62
    7
 10
15.421876112675591
 20
43.429507421205301
 11
13.930893107050679
 21
43.429507421205301
  0
LINE
  8
_0-0_
  6
CONTINUOUS
 62
    7
 10
13.430893107050679
 20
42.929507421205301
 11
13.430893107050679
 21
38.736614202391877
  0
LINE
  8
_0-0_
  6
CONTINUOUS
 62
    7
 10
13.577339716457345
 20
38.383060811798543
 11
14.784446497644012
 21
37.175954030611877
  0
LINE
  8
_0-0_
  6
CONTINUOUS
 62
    7
 10
15.137999888237346
 20
37.02950742120521
 11
21.010315970456986
 21
37.02950742120521
  0
LINE
  8
_0-0_
  6
CONTINUOUS
 62
    7
 10
21.160315970456622
 20
36.989315042340706
 11
21.280893107050588
 21
36.91969980006985
  0
LINE
  8
_0-0_
  6
CONTINUOUS
 62
    7
 10
21.58089310705077
 20
36.91969980006985
 11
21.701470243644735
 21
36.989315042340706
  0
LINE
  8
_0-0_
  6
CONTINUOUS
 62
    7
 10
21.851470243644826
 20
37.02950742120521
 11
27.723786325864012
 21
37.02950742120521
  0
LINE
  8
_0-0_
  6
CONTINUOUS
 62
    7
 10
28.077339716457345
 20
37.175954030611877
 11
29.284446497644012
 21
38.383060811798543
  0
LINE
  8
_0-0_
  6
CONTINUOUS
 62
    7
 10
29.430893107050679
 20
38.736614202391877
 11
29.430893107050679
 21
42.929507421205301
  0
LINE
  8
_0-0_
  6
CONTINUOUS
 62
    7
 10
28.930893107050679
 20
43.429507421205301
 11
27.439910101425767
 21
43.429507421205301
  0
LINE
  8
_0-0_
  6
CONTINUOUS
 62
    7
 10
26.992696505925551
 20
43.705900623455193
 11
26.583679511550827
 21
44.523934612205096
  0
LINE
  8
_0-0_
  6
CONTINUOUS
 62
    7
 10
26.530893107050588
 20
44.747541409955204
 11
26.530893107050588
 21
46.52950742120521
  0
LINE
  8
_0-0_
  6
CONTINUOUS
 62
    7
 10
27.030893107050588
 20
47.02950742120521
 11
39.930893107050679
 21
47.02950742120521
  0
LINE
  8
_0-0_
  6
CONTINUOUS
 62
    7
 10
41.430893107050679
 20
45.52950742120521
 11
41.430893107050679
 21
32.629507421205119
  0
LINE
  8
_0-0_
  6
CONTINUOUS
 62
    7
 10
40.930893107050679
 20
32.129507421205119
 11
39.148927095800673
 21
32.129507421205119
  0
LINE
  8
_0-0_
  6
CONTINUOUS
 62
    7
 10
38.925320298050565
 20
32.182293825705358
 11
38.107286309300662
 21
32.591310820080537
  0
LINE
  8
_0-0_
  6
CONTINUOUS
 62
    7
 10
37.83089310705077
 20
33.038524415580298
 11
37.83089310705077
 21
34.52950742120521
  0
LINE
  8
_0-0_
  6
CONTINUOUS
 62
    7
 10
37.33089310705077
 20
35.02950742120521
 11
33.137999888237346
 21
35.02950742120521
  0
LINE
  8
_0-0_
  6
CONTINUOUS
 62
    7
 10
32.784446497644012
 20
34.883060811798543
 11
31.577339716457345
 21
33.675954030611877
  0
LINE
  8
_0-0_
  6
CONTINUOUS
 62
    7
 10
31.430893107050679
 20
33.322400640018998
 11
31.430893107050679
 21
20.736614202391877
  0
LINE
  8
_0-0_
  6
CONTINUOUS
 62
    7
 10
31.577339716457345
 20
20.383060811798543
 11
32.784446497644012
 21
19.175954030611877
  0
LINE
  8
_0-0_
  6
CONTINUOUS
 62
    7
 10
33.137999888237346
 20
19.02950742120521
 11
37.33089310705077
 21
19.02950742120521
  0
LINE
  8
_0-0_
  6
CONTINUOUS
 62
    7
 10
37.83089310705077
 20
19.52950742120521
 11
37.83089310705077
 21
21.020490426830577
  0
LINE
  8
_0-0_
  6
CONTINUOUS
 62
    7
 10
38.107286309300662
 20
21.467704022330338
 11
38.925320298050565
 21
21.876721016705062
  0
LINE
  8
_0-0_
  6
CONTINUOUS
 62
    7
 10
39.148927095800673
 20
21.929507421205301
 11
40.930893107050679
 21
21.929507421205301
  0
LINE
  8
_0-0_
  6
CONTINUOUS
 62
    7
 10
41.430893107050679
 20
21.429507421205301
 11
41.430893107050679
 21
8.5295074212053237
  0
LINE
  8
_0-0_
  6
CONTINUOUS
 62
    7
 10
28.83089310705077
 20
19.52950742120521
 11
27.682559156890193
 21
19.52950742120521
  0
LINE
  8
_0-0_
  6
CONTINUOUS
 62
    7
 10
27.249546454998153
 20
19.77950742120521
 11
25.719568241645675
 21
22.429507421205301
  0
LINE
  8
_0-0_
  6
CONTINUOUS
 62
    7
 10
24.853542837861141
 20
22.929507421205301
 11
18.008243376240216
 21
22.929507421205301
  0
LINE
  8
_0-0_
  6
CONTINUOUS
 62
    7
 10
17.142217972455683
 20
22.429507421205301
 11
15.612239759103204
 21
19.77950742120521
  0
LINE
  8
_0-0_
  6
CONTINUOUS
 62
    7
 10
15.179227057211165
 20
19.52950742120521
 11
14.030893107050588
 21
19.52950742120521
  0
LINE
  8
_0-0_
  6
CONTINUOUS
 62
    7
 10
13.530893107050588
 20
20.02950742120521
 11
13.530893107050588
 21
34.02950742120521
  0
LINE
  8
_0-0_
  6
CONTINUOUS
 62
    7
 10
14.030893107050588
 20
34.52950742120521
 11
15.179227057211165
 21
34.52950742120521
  0
LINE
  8
_0-0_
  6
CONTINUOUS
 62
    7
 10
15.612239759103204
 20
34.27950742120521
 11
17.142217972455683
 21
31.629507421205119
  0
LINE
  8
_0-0_
  6
CONTINUOUS
 62
    7
 10
18.008243376240216
 20
31.129507421205119
 11
24.853542837861141
 21
31.129507421205119
  0
LINE
  8
_0-0_
  6
CONTINUOUS
 62
    7
 10
25.719568241645675
 20
31.629507421205119
 11
27.249546454998153
 21
34.27950742120521
  0
LINE
  8
_0-0_
  6
CONTINUOUS
 62
    7
 10
27.682559156890193
 20
34.52950742120521
 11
28.83089310705077
 21
34.52950742120521
  0
LINE
  8
_0-0_
  6
CONTINUOUS
 62
    7
 10
29.33089310705077
 20
34.02950742120521
 11
29.33089310705077
 21
20.02950742120521
  0
ARC
  8
_0-0_
  6
CONTINUOUS
 62
    7
 10
24.853542837861141
 20
21.929507421205301
 40
1
 50
29.999999999999865
 51
90.000000000000057
  0
ARC
  8
_0-0_
  6
CONTINUOUS
 62
    7
 10
21.430893107050679
 20
37.179507421205301
 40
0.2999999999999998
 50
239.99999999999983
 51
300.00000000000097
  0
ARC
  8
_0-0_
  6
CONTINUOUS
 62
    7
 10
21.010315970456986
 20
36.729507421205255
 40
0.2999999999999998
 50
60.000000000006345
 51
90
  0
ARC
  8
_0-0_
  6
CONTINUOUS
 62
    7
 10
21.851470243644826
 20
36.729507421205255
 40
0.2999999999999998
 50
90
 51
119.99999999999363
  0
ARC
  8
_0-0_
  6
CONTINUOUS
 62
    7
 10
27.682559156890193
 20
34.02950742120521
 40
0.5
 50
90
 51
149.99999999999997
  0
ARC
  8
_0-0_
  6
CONTINUOUS
 62
    7
 10
28.83089310705077
 20
34.02950742120521
 40
0.5
 50
0
 51
90
  0
ARC
  8
_0-0_
  6
CONTINUOUS
 62
    7
 10
27.682559156890193
 20
20.02950742120521
 40
0.5
 50
210.00000000000003
 51
270
  0
ARC
  8
_0-0_
  6
CONTINUOUS
 62
    7
 10
28.83089310705077
 20
20.02950742120521
 40
0.5
 50
270
 51
0
  0
ARC
  8
_0-0_
  6
CONTINUOUS
 62
    7
 10
15.179227057211165
 20
34.02950742120521
 40
0.5
 50
30.000000000000018
 51
90
  0
ARC
  8
_0-0_
  6
CONTINUOUS
 62
    7
 10
14.030893107050588
 20
34.02950742120521
 40
0.5
 50
90
 51
180
  0
ARC
  8
_0-0_
  6
CONTINUOUS
 62
    7
 10
15.179227057211165
 20
20.02950742120521
 40
0.5
 50
270
 51
330
  0
ARC
  8
_0-0_
  6
CONTINUOUS
 62
    7
 10
14.030893107050588
 20
20.02950742120521
 40
0.5
 50
180
 51
270
  0
ARC
  8
_0-0_
  6
CONTINUOUS
 62
    7
 10
27.723786325864012
 20
16.52950742120521
 40
0.5
 50
45.00000000000005
 51
90.000000000000057
  0
ARC
  8
_0-0_
  6
CONTINUOUS
 62
    7
 10
28.930893107050679
 20
15.322400640019112
 40
0.5
 50
0
 51
45
  0
ARC
  8
_0-0_
  6
CONTINUOUS
 62
    7
 10
28.930893107050679
 20
11.129507421205233
 40
0.5
 50
270
 51
0
  0
ARC
  8
_0-0_
  6
CONTINUOUS
 62
    7
 10
27.439910101425767
 20
10.129507421205233
 40
0.5
 50
90
 51
153.434948822922
  0
ARC
  8
_0-0_
  6
CONTINUOUS
 62
    7
 10
27.030893107050588
 20
9.3114734324553297
 40
0.5
 50
153.434948822922
 51
179.99999999999991
  0
ARC
  8
_0-0_
  6
CONTINUOUS
 62
    7
 10
27.030893107050588
 20
7.5295074212053237
 40
0.5
 50
180
 51
270
  0
ARC
  8
_0-0_
  6
CONTINUOUS
 62
    7
 10
39.930893107050679
 20
8.5295074212053237
 40
1.5
 50
270
 51
0
  0
ARC
  8
_0-0_
  6
CONTINUOUS
 62
    7
 10
31.930893107050679
 20
20.736614202391877
 40
0.5
 50
179.99999999999994
 51
224.99999999999994
  0
ARC
  8
_0-0_
  6
CONTINUOUS
 62
    7
 10
33.137999888237346
 20
19.52950742120521
 40
0.5
 50
225
 51
270
  0
ARC
  8
_0-0_
  6
CONTINUOUS
 62
    7
 10
37.33089310705077
 20
19.52950742120521
 40
0.5
 50
270
 51
0
  0
ARC
  8
_0-0_
  6
CONTINUOUS
 62
    7
 10
38.33089310705077
 20
21.020490426830577
 40
0.5
 50
116.56505117707799
 51
180
  0
ARC
  8
_0-0_
  6
CONTINUOUS
 62
    7
 10
39.148927095800673
 20
21.429507421205301
 40
0.5
 50
90
 51
116.56505117707799
  0
ARC
  8
_0-0_
  6
CONTINUOUS
 62
    7
 10
40.930893107050679
 20
21.429507421205301
 40
0.5
 50
0
 51
90
  0
ARC
  8
_0-0_
  6
CONTINUOUS
 62
    7
 10
31.930893107050679
 20
33.322400640018998
 40
0.5
 50
135.00000000000006
 51
180.00000000000006
  0
ARC
  8
_0-0_
  6
CONTINUOUS
 62
    7
 10
33.137999888237346
 20
34.52950742120521
 40
0.5
 50
90
 51
135
  0
ARC
  8
_0-0_
  6
CONTINUOUS
 62
    7
 10
37.33089310705077
 20
34.52950742120521
 40
0.5
 50
0
 51
90
  0
ARC
  8
_0-0_
  6
CONTINUOUS
 62
    7
 10
38.33089310705077
 20
33.038524415580298
 40
0.5
 50
180
 51
243.434948822922
  0
ARC
  8
_0-0_
  6
CONTINUOUS
 62
    7
 10
39.148927095800673
 20
32.629507421205119
 40
0.5
 50
243.43494882292202
 51
270
  0
ARC
  8
_0-0_
  6
CONTINUOUS
 62
    7
 10
40.930893107050679
 20
32.629507421205119
 40
0.5
 50
270
 51
0
  0
ARC
  8
_0-0_
  6
CONTINUOUS
 62
    7
 10
39.930893107050679
 20
45.52950742120521
 40
1.5
 50
0
 51
90
  0
ARC
  8
_0-0_
  6
CONTINUOUS
 62
    7
 10
27.723786325864012
 20
37.52950742120521
 40
0.5
 50
269.99999999999994
 51
314.99999999999994
  0
ARC
  8
_0-0_
  6
CONTINUOUS
 62
    7
 10
28.930893107050679
 20
38.736614202391877
 40
0.5
 50
315
 51
0
  0
ARC
  8
_0-0_
  6
CONTINUOUS
 62
    7
 10
28.930893107050679
 20
42.929507421205301
 40
0.5
 50
0
 51
90
  0
ARC
  8
_0-0_
  6
CONTINUOUS
 62
    7
 10
27.439910101425767
 20
43.929507421205301
 40
0.5
 50
206.565051177078
 51
270
  0
ARC
  8
_0-0_
  6
CONTINUOUS
 62
    7
 10
27.030893107050588
 20
44.747541409955204
 40
0.5
 50
180
 51
206.565051177078
  0
ARC
  8
_0-0_
  6
CONTINUOUS
 62
    7
 10
27.030893107050588
 20
46.52950742120521
 40
0.5
 50
90
 51
180
  0
ARC
  8
_0-0_
  6
CONTINUOUS
 62
    7
 10
15.179227057211165
 20
34.02950742120521
 40
0.5
 50
30.000000000000018
 51
90
  0
ARC
  8
_0-0_
  6
CONTINUOUS
 62
    7
 10
14.030893107050588
 20
34.02950742120521
 40
0.5
 50
90
 51
180
  0
ARC
  8
_0-0_
  6
CONTINUOUS
 62
    7
 10
15.137999888237346
 20
37.52950742120521
 40
0.5
 50
225.00000000000006
 51
270.00000000000006
  0
ARC
  8
_0-0_
  6
CONTINUOUS
 62
    7
 10
13.930893107050679
 20
38.736614202391877
 40
0.5
 50
180
 51
225
  0
ARC
  8
_0-0_
  6
CONTINUOUS
 62
    7
 10
13.930893107050679
 20
42.929507421205301
 40
0.5
 50
90
 51
180
  0
ARC
  8
_0-0_
  6
CONTINUOUS
 62
    7
 10
15.421876112675591
 20
43.929507421205301
 40
0.5
 50
270
 51
333.43494882292202
  0
ARC
  8
_0-0_
  6
CONTINUOUS
 62
    7
 10
15.83089310705077
 20
44.747541409955204
 40
0.5
 50
333.43494882292202
 51
0
  0
ARC
  8
_0-0_
  6
CONTINUOUS
 62
    7
 10
15.83089310705077
 20
46.52950742120521
 40
0.5
 50
0
 51
90
  0
ARC
  8
_0-0_
  6
CONTINUOUS
 62
    7
 10
2.9308931070506787
 20
45.52950742120521
 40
1.5
 50
90
 51
180
  0
ARC
  8
_0-0_
  6
CONTINUOUS
 62
    7
 10
10.930893107050679
 20
33.322400640018998
 40
0.5
 50
359.99999999999994
 51
44.99999999999995
  0
ARC
  8
_0-0_
  6
CONTINUOUS
 62
    7
 10
9.7237863258640118
 20
34.52950742120521
 40
0.5
 50
45
 51
90
  0
ARC
  8
_0-0_
  6
CONTINUOUS
 62
    7
 10
5.5308931070505878
 20
34.52950742120521
 40
0.5
 50
90
 51
180
  0
ARC
  8
_0-0_
  6
CONTINUOUS
 62
    7
 10
4.5308931070505878
 20
33.038524415580298
 40
0.5
 50
296.56505117707798
 51
0.0000000000000127
  0
ARC
  8
_0-0_
  6
CONTINUOUS
 62
    7
 10
3.7128591183006847
 20
32.629507421205119
 40
0.5
 50
270
 51
296.56505117707798
  0
ARC
  8
_0-0_
  6
CONTINUOUS
 62
    7
 10
1.9308931070506787
 20
32.629507421205119
 40
0.5
 50
180
 51
270
  0
ARC
  8
_0-0_
  6
CONTINUOUS
 62
    7
 10
10.930893107050679
 20
20.736614202391877
 40
0.5
 50
315.00000000000006
 51
0.0000000000000508
  0
ARC
  8
_0-0_
  6
CONTINUOUS
 62
    7
 10
9.7237863258640118
 20
19.52950742120521
 40
0.5
 50
270
 51
315
  0
ARC
  8
_0-0_
  6
CONTINUOUS
 62
    7
 10
5.5308931070505878
 20
19.52950742120521
 40
0.5
 50
180
 51
270
  0
ARC
  8
_0-0_
  6
CONTINUOUS
 62
    7
 10
4.5308931070505878
 20
21.020490426830577
 40
0.5
 50
0
 51
63.43494882292201
  0
ARC
  8
_0-0_
  6
CONTINUOUS
 62
    7
 10
3.7128591183006847
 20
21.429507421205301
 40
0.5
 50
63.43494882292201
 51
90
  0
ARC
  8
_0-0_
  6
CONTINUOUS
 62
    7
 10
1.9308931070506787
 20
21.429507421205301
 40
0.5
 50
90
 51
180
  0
ARC
  8
_0-0_
  6
CONTINUOUS
 62
    7
 10
2.9308931070506787
 20
8.5295074212053237
 40
1.5
 50
180
 51
270
  0
ARC
  8
_0-0_
  6
CONTINUOUS
 62
    7
 10
15.137999888237346
 20
16.52950742120521
 40
0.5
 50
89.999999999999929
 51
134.99999999999994
  0
ARC
  8
_0-0_
  6
CONTINUOUS
 62
    7
 10
13.930893107050679
 20
15.322400640019112
 40
0.5
 50
135
 51
180
  0
ARC
  8
_0-0_
  6
CONTINUOUS
 62
    7
 10
13.930893107050679
 20
11.129507421205233
 40
0.5
 50
180
 51
270
  0
ARC
  8
_0-0_
  6
CONTINUOUS
 62
    7
 10
15.421876112675591
 20
10.129507421205233
 40
0.5
 50
26.565051177077994
 51
90
  0
ARC
  8
_0-0_
  6
CONTINUOUS
 62
    7
 10
15.83089310705077
 20
9.3114734324553297
 40
0.5
 50
0
 51
26.565051177077994
  0
ARC
  8
_0-0_
  6
CONTINUOUS
 62
    7
 10
15.83089310705077
 20
7.5295074212053237
 40
0.5
 50
270
 51
0
  0
CIRCLE
  8
_0-0_
  6
CONTINUOUS
 62
    7
 10
7.4308931070506787
 20
41.02950742120521
 40
3.3999999999999999
  0
CIRCLE
  8
_0-0_
  6
CONTINUOUS
 62
    7
 10
7.4308931070506787
 20
13.029507421205324
 40
3.3999999999999999
  0
CIRCLE
  8
_0-0_
  6
CONTINUOUS
 62
    7
 10
35.430893107050679
 20
13.029507421205324
 40
3.3999999999999999
  0
CIRCLE
  8
_0-0_
  6
CONTINUOUS
 62
    7
 10
35.430893107050679
 20
41.02950742120521
 40
3.3999999999999999
  0
ARC
  8
_0-0_
  6
CONTINUOUS
 62
    7
 10
21.430893107050679
 20
16.879507421205346
 40
0.2999999999999998
 50
59.999999999999829
 51
120.00000000000095
  0
ARC
  8
_0-0_
  6
CONTINUOUS
 62
    7
 10
21.010315970456986
 20
17.329507421205165
 40
0.2999999999999998
 50
270
 51
299.99999999999363
  0
ARC
  8
_0-0_
  6
CONTINUOUS
 62
    7
 10
21.851470243644826
 20
17.329507421205165
 40
0.2999999999999998
 50
240.00000000000634
 51
270
  0
ARC
  8
_0-0_
  6
CONTINUOUS
 62
    7
 10
18.008243376240216
 20
32.129507421205119
 40
1
 50
209.99999999999986
 51
270
  0
ARC
  8
_0-0_
  6
CONTINUOUS
 62
    7
 10
24.853542837861141
 20
32.129507421205119
 40
1
 50
270
 51
330.00000000000017
  0
ARC
  8
_0-0_
  6
CONTINUOUS
 62
    7
 10
18.008243376240216
 20
21.929507421205301
 40
1
 50
90
 51
150.00000000000014
  0
LINE
  8
_0-1_
  6
CENTER1
 62
  152
 10
29.430893107050679
 20
41.02950742120521
 11
41.430893107050679
 21
41.02950742120521
  0
LINE
  8
_0-1_
  6
CENTER1
 62
  152
 10
35.430893107050679
 20
47.02950742120521
 11
35.430893107050679
 21
35.02950742120521
  0
LINE
  8
_0-1_
  6
CENTER1
 62
  152
 10
21.430893107050679
 20
7.0295074212053237
 11
21.430893107050679
 21
47.02950742120521
  0
LINE
  8
_0-1_
  6
CENTER1
 62
  152
 10
41.430893107050679
 20
27.02950742120521
 11
1.4308931070506787
 21
27.02950742120521
  0
LINE
  8
_0-1_
  6
CENTER1
 62
  152
 10
13.430893107050679
 20
41.02950742120521
 11
1.4308931070506787
 21
41.02950742120521
  0
LINE
  8
_0-1_
  6
CENTER1
 62
  152
 10
7.4308931070506787
 20
35.02950742120521
 11
7.4308931070506787
 21
47.02950742120521
  0
LINE
  8
_0-1_
  6
CENTER1
 62
  152
 10
1.4308931070506787
 20
13.029507421205324
 11
13.430893107050679
 21
13.029507421205324
  0
LINE
  8
_0-1_
  6
CENTER1
 62
  152
 10
7.4308931070506787
 20
19.02950742120521
 11
7.4308931070506787
 21
7.0295074212053237
  0
LINE
  8
_0-1_
  6
CENTER1
 62
  152
 10
41.430893107050679
 20
13.029507421205324
 11
29.430893107050679
 21
13.029507421205324
  0
LINE
  8
_0-1_
  6
CENTER1
 62
  152
 10
35.430893107050679
 20
19.02950742120521
 11
35.430893107050679
 21
7.0295074212053237
  0
ENDSEC
  0
EOF
