  0
SECTION
  2
HEADER
  9
$ACADVER
  1
AC1009
  9
$INSBASE
 10
0
 20
0
 30
0
  9
$EXTMIN
 10
0
 20
0
  9
$EXTMAX
 10
1189
 20
841
  9
$LIMMIN
 10
0
 20
0
  9
$LIMMAX
 10
1189
 20
841
  9
$LTSCALE
 40
1
  0
ENDSEC
  0
SECTION
  2
TABLES
  0
TABLE
  2
LTYPE
 70
     9
  0
LTYPE
  2
CONTINUOUS
 70
    64
  3
実線
 72
    65
 73
     0
 40
0.0
  0
LTYPE
  2
DASHED1
 70
    64
  3
--  --  --  --  --  --  --  --  
 72
    65
 73
     2
 40
2.5
 49
1.25
 49
-1.25
  0
LTYPE
  2
DASHED2
 70
    64
  3
----    ----    ----    ----    
 72
    65
 73
     2
 40
5.0
 49
2.5
 49
-2.5
  0
LTYPE
  2
DASHED3
 70
    64
  3
------  ------  ------  ------  
 72
    65
 73
     2
 40
5.0
 49
3.75
 49
-1.25
  0
LTYPE
  2
CENTER1
 70
    64
  3
----- - ----- - ----- - ----- - 
 72
    65
 73
     4
 40
10.0
 49
6.25
 49
-1.25
 49
1.25
 49
-1.25
  0
LTYPE
  2
CENTER2
 70
    64
  3
----------  --  ----------  --  
 72
    65
 73
     4
 40
20.0
 49
12.5
 49
-2.5
 49
2.5
 49
-2.5
  0
LTYPE
  2
PHANTOM1
 70
    64
  3
--- - - --- - - --- - - --- - - 
 72
    65
 73
     6
 40
10.0
 49
3.25
 49
-1.25
 49
1.25
 49
-1.25
 49
1.25
 49
-1.25
  0
LTYPE
  2
PHANTOM2
 70
    64
  3
--------  -  -  --------  -  -  
 72
    65
 73
     6
 40
20.0
 49
10.0
 49
-2.5
 49
1.25
 49
-2.5
 49
1.25
 49
-2.5
  0
LTYPE
  2
DOT
 70
    64
  3
-   -   -   -   -   -   -   -   
 72
    65
 73
     2
 40
2.5
 49
0.625
 49
-1.875
  0
LTYPE
  2
DUMMY
 70
    64
  3
ダミー
 72
    65
 73
     0
 40
0.0
  0
LTYPE
  2
RAND1
 70
    64
  3
ランダム線1
 72
    65
 73
     4
 40
10.0
 49
1.0
 49
-2.0
 49
3.0
 49
-4.0
  0
LTYPE
  2
RAND2
 70
    64
  3
ランダム線2
 72
    65
 73
     4
 40
14.0
 49
2.0
 49
-3.0
 49
4.0
 49
-5.0
  0
LTYPE
  2
RAND3
 70
    64
  3
ランダム線3
 72
    65
 73
     4
 40
18.0
 49
3.0
 49
-4.0
 49
5.0
 49
-6.0
  0
LTYPE
  2
RAND4
 70
    64
  3
ランダム線4
 72
    65
 73
     4
 40
22.0
 49
4.0
 49
-5.0
 49
6.0
 49
-7.0
  0
LTYPE
  2
RAND5
 70
    64
  3
ランダム線5
 72
    65
 73
     4
 40
26.0
 49
5.0
 49
-6.0
 49
7.0
 49
-8.0
  0
LTYPE
  2
LONG1
 70
    64
  3
----------  --  ----------  --  
 72
    65
 73
     4
 40
40.0
 49
32.5
 49
-2.5
 49
2.5
 49
-2.5
  0
LTYPE
  2
LONG2
 70
    64
  3
--------  -  -  --------  -  -  
 72
    65
 73
     6
 40
40.0
 49
30.0
 49
-2.5
 49
1.25
 49
-2.5
 49
1.25
 49
-2.5
  0
LTYPE
  2
LONG3
 70
    64
  3
+++++++++++++++..+++++++++++++++
 72
    65
 73
     2
 40
40.0
 49
37.5
 49
-2.5
  0
LTYPE
  2
LONG4
 70
    64
  3
+++++++++++++++..+++++++++++++++
 72
    65
 73
     2
 40
80.0
 49
75.0
 49
-5.0
  0
LTYPE
  2
LONG5
 70
    64
  3
----------  --  ----------  --  
 72
    65
 73
     4
 40
60.0
 49
37.5
 49
-7.5
 49
7.5
 49
-7.5
  0
LTYPE
  2
dashed
 70
   64
  3
-------   -------------   ------
 72
   65
 73
    2
 40
7.5
 49
6
 49
-1.5
  0
LTYPE
  2
dashed_spaced
 70
   64
  3
----        --------        ----
 72
   65
 73
    2
 40
12
 49
6
 49
-6
  0
LTYPE
  2
long_dashed_dotted
 70
   64
  3
------------- --- --------------
 72
   65
 73
    4
 40
15.25
 49
12
 49
-1.5
 49
0.25
 49
-1.5
  0
LTYPE
  2
long_dashed_double-dotted
 70
   64
  3
----------- --- --- ------------
 72
   65
 73
    6
 40
17
 49
12
 49
-1.5
 49
0.25
 49
-1.5
 49
0.25
 49
-1.5
  0
LTYPE
  2
long_dashed_triplicate-dotted
 70
   64
  3
--------- --- --- --- ----------
 72
   65
 73
    8
 40
18.75
 49
12
 49
-1.5
 49
0.25
 49
-1.5
 49
0.25
 49
-1.5
 49
0.25
 49
-1.5
  0
LTYPE
  2
dotted
 70
   64
  3
   -       -       -       -    
 72
   65
 73
    2
 40
1.75
 49
0.25
 49
-1.5
  0
LTYPE
  2
chain
 70
   64
  3
-------------- -- --------------
 72
   65
 73
    4
 40
18.5
 49
12
 49
-1.5
 49
3.5
 49
-1.5
  0
LTYPE
  2
chain_double_dash
 70
   64
  3
------------ -- -- -------------
 72
   65
 73
    6
 40
23.5
 49
12
 49
-1.5
 49
3.5
 49
-1.5
 49
3.5
 49
-1.5
  0
LTYPE
  2
dashed_dotted
 70
   64
  3
-----------     -     ----------
 72
   65
 73
    4
 40
9.25
 49
6
 49
-1.5
 49
0.25
 49
-1.5
  0
LTYPE
  2
double-dashed_dotted
 70
   64
  3
------   -----------   -   -----
 72
   65
 73
    6
 40
16.75
 49
6
 49
-1.5
 49
6
 49
-1.5
 49
0.25
 49
-1.5
  0
LTYPE
  2
dashed_double-dotted
 70
   64
  3
---------    -    -    ---------
 72
   65
 73
    6
 40
11
 49
6
 49
-1.5
 49
0.25
 49
-1.5
 49
0.25
 49
-1.5
  0
LTYPE
  2
double-dashed_double-dotted
 70
   64
  3
-----   ---------   -   -   ----
 72
   65
 73
    8
 40
18.5
 49
6
 49
-1.5
 49
6
 49
-1.5
 49
0.25
 49
-1.5
 49
0.25
 49
-1.5
  0
LTYPE
  2
dashed_triplicate-dotted
 70
   64
  3
-------    -    -    -    ------
 72
   65
 73
    8
 40
12.75
 49
6
 49
-1.5
 49
0.25
 49
-1.5
 49
0.25
 49
-1.5
 49
0.25
 49
-1.5
  0
LTYPE
  2
double-dashed_triplicate-dotted
 70
   64
  3
-----  ---------  -  -  -  -----
 72
   65
 73
   10
 40
20.25
 49
6
 49
-1.5
 49
6
 49
-1.5
 49
0.25
 49
-1.5
 49
0.25
 49
-1.5
 49
0.25
 49
-1.5
  0
LTYPE
  2
undefined
 70
   64
  3
--------------------------------
 72
   65
 73
    0
 40
0
  0
ENDTAB
  0
TABLE
  2
STYLE
  5
3
100
AcDbSymbolTable
 70
     1
  0
STYLE
  5
10
100
AcDbSymbolTableRecord
100
AcDbTextStyleTableRecord
  2
STANDARD
 70
     0
 40
0.0
 41
1.0
 50
0.0
 71
     0
 42
0.2
  3
txt
  4
bigfont.shx
  0
STYLE
  5
26
100
AcDbSymbolTableRecord
100
AcDbTextStyleTableRecord
  2
TATEGAKI
 70
    68
 40
0.0
 41
1.0
 50
0.0
 71
     0
 42
1.0
  3
txt
  4
bigfont.shx
  0
ENDTAB
  0
TABLE
  2
LAYER
 70
    4
  0
LAYER
  2
_0-0_
 70
   64
 62
    7
  6
CONTINUOUS
  0
LAYER
  2
_0-1_
 70
   64
 62
    7
  6
CONTINUOUS
  0
LAYER
  2
_0-f_
 70
   64
 62
    7
  6
CONTINUOUS
  0
LAYER
  2
ADD_LINE
 70
   64
 62
    7
  6
CONTINUOUS
  0
ENDTAB
  0
ENDSEC
  0
SECTION
  2
BLOCKS
  0
ENDSEC
  0
SECTION
  2
ENTITIES
  0
TEXT
  8
_0-f_
 62
    7
 10
0.6939784974495069
 20
0.5391726730575214
 40
4.2999999999999998
 41
0.744186046511628
 50
0
  1
F44L
  0
LINE
  8
_0-0_
  6
CONTINUOUS
 62
    7
 10
39.41529182189106
 20
5.651641108023
 11
26.515291821890969
 21
5.651641108023
  0
LINE
  8
_0-0_
  6
CONTINUOUS
 62
    7
 10
26.015291821890969
 20
6.151641108023
 11
26.015291821890969
 21
7.933607119273006
  0
LINE
  8
_0-0_
  6
CONTINUOUS
 62
    7
 10
26.068078226391208
 20
8.1572139170231139
 11
26.477095220765932
 21
8.975247905773017
  0
LINE
  8
_0-0_
  6
CONTINUOUS
 62
    7
 10
26.924308816266148
 20
9.2516411080229091
 11
28.41529182189106
 21
9.2516411080229091
  0
LINE
  8
_0-0_
  6
CONTINUOUS
 62
    7
 10
28.91529182189106
 20
9.7516411080229091
 11
28.91529182189106
 21
13.944534326836788
  0
LINE
  8
_0-0_
  6
CONTINUOUS
 62
    7
 10
28.768845212484393
 20
14.298087717429667
 11
27.561738431297726
 21
15.50519449861622
  0
LINE
  8
_0-0_
  6
CONTINUOUS
 62
    7
 10
27.208185040704393
 20
15.651641108022886
 11
21.088496902647876
 21
15.651641108022886
  0
LINE
  8
_0-0_
  6
CONTINUOUS
 62
    7
 10
21.088496902647876
 20
15.651641108022886
 11
21.045195632458672
 21
15.726641108023159
  0
LINE
  8
_0-0_
  6
CONTINUOUS
 62
    7
 10
20.785388011323448
 20
15.726641108023159
 11
20.742086741134244
 21
15.651641108022886
  0
LINE
  8
_0-0_
  6
CONTINUOUS
 62
    7
 10
20.742086741134244
 20
15.651641108022886
 11
14.622398603077727
 21
15.651641108022886
  0
LINE
  8
_0-0_
  6
CONTINUOUS
 62
    7
 10
14.268845212484393
 20
15.50519449861622
 11
13.061738431297726
 21
14.298087717429667
  0
LINE
  8
_0-0_
  6
CONTINUOUS
 62
    7
 10
12.91529182189106
 20
13.944534326836788
 11
12.91529182189106
 21
9.7516411080229091
  0
LINE
  8
_0-0_
  6
CONTINUOUS
 62
    7
 10
13.41529182189106
 20
9.2516411080229091
 11
14.906274827515972
 21
9.2516411080229091
  0
LINE
  8
_0-0_
  6
CONTINUOUS
 62
    7
 10
15.353488423016188
 20
8.975247905773017
 11
15.762505417390912
 21
8.1572139170231139
  0
LINE
  8
_0-0_
  6
CONTINUOUS
 62
    7
 10
15.815291821891151
 20
7.933607119273006
 11
15.815291821891151
 21
6.151641108023
  0
LINE
  8
_0-0_
  6
CONTINUOUS
 62
    7
 10
15.315291821891151
 20
5.651641108023
 11
2.41529182189106
 21
5.651641108023
  0
LINE
  8
_0-0_
  6
CONTINUOUS
 62
    7
 10
0.9152918218910599
 20
7.151641108023
 11
0.9152918218910599
 21
20.051641108022977
  0
LINE
  8
_0-0_
  6
CONTINUOUS
 62
    7
 10
1.41529182189106
 20
20.551641108022977
 11
3.1972578331410659
 21
20.551641108022977
  0
LINE
  8
_0-0_
  6
CONTINUOUS
 62
    7
 10
3.4208646308911739
 20
20.498854703523193
 11
4.2388986196410769
 21
20.089837709148014
  0
LINE
  8
_0-0_
  6
CONTINUOUS
 62
    7
 10
4.515291821890969
 20
19.642624113648253
 11
4.515291821890969
 21
18.151641108022886
  0
LINE
  8
_0-0_
  6
CONTINUOUS
 62
    7
 10
5.015291821890969
 20
17.651641108022886
 11
9.208185040704393
 21
17.651641108022886
  0
LINE
  8
_0-0_
  6
CONTINUOUS
 62
    7
 10
9.5617384312977265
 20
17.798087717429553
 11
10.768845212484393
 21
19.00519449861622
  0
LINE
  8
_0-0_
  6
CONTINUOUS
 62
    7
 10
10.91529182189106
 20
19.358747889209553
 11
10.91529182189106
 21
31.944534326836674
  0
LINE
  8
_0-0_
  6
CONTINUOUS
 62
    7
 10
10.768845212484393
 20
32.298087717429553
 11
9.5617384312977265
 21
33.50519449861622
  0
LINE
  8
_0-0_
  6
CONTINUOUS
 62
    7
 10
9.208185040704393
 20
33.651641108022886
 11
5.015291821890969
 21
33.651641108022886
  0
LINE
  8
_0-0_
  6
CONTINUOUS
 62
    7
 10
4.515291821890969
 20
33.151641108022886
 11
4.515291821890969
 21
31.660658102397974
  0
LINE
  8
_0-0_
  6
CONTINUOUS
 62
    7
 10
4.2388986196410769
 20
31.213444506898213
 11
3.4208646308911739
 21
30.804427512523034
  0
LINE
  8
_0-0_
  6
CONTINUOUS
 62
    7
 10
3.1972578331410659
 20
30.751641108022795
 11
1.41529182189106
 21
30.751641108022795
  0
LINE
  8
_0-0_
  6
CONTINUOUS
 62
    7
 10
0.9152918218910599
 20
31.251641108022795
 11
0.9152918218910599
 21
44.151641108022886
  0
LINE
  8
_0-0_
  6
CONTINUOUS
 62
    7
 10
2.41529182189106
 20
45.651641108022886
 11
15.315291821891151
 21
45.651641108022886
  0
LINE
  8
_0-0_
  6
CONTINUOUS
 62
    7
 10
15.815291821891151
 20
45.151641108022886
 11
15.815291821891151
 21
43.36967509677288
  0
LINE
  8
_0-0_
  6
CONTINUOUS
 62
    7
 10
15.762505417390912
 20
43.146068299022772
 11
15.353488423016188
 21
42.328034310272869
  0
LINE
  8
_0-0_
  6
CONTINUOUS
 62
    7
 10
14.906274827515972
 20
42.051641108022977
 11
13.41529182189106
 21
42.051641108022977
  0
LINE
  8
_0-0_
  6
CONTINUOUS
 62
    7
 10
12.91529182189106
 20
41.551641108022977
 11
12.91529182189106
 21
37.358747889209553
  0
LINE
  8
_0-0_
  6
CONTINUOUS
 62
    7
 10
13.061738431297726
 20
37.00519449861622
 11
14.268845212484393
 21
35.798087717429553
  0
LINE
  8
_0-0_
  6
CONTINUOUS
 62
    7
 10
14.622398603077727
 20
35.651641108022886
 11
20.742086741134244
 21
35.651641108022886
  0
LINE
  8
_0-0_
  6
CONTINUOUS
 62
    7
 10
20.742086741134244
 20
35.651641108022886
 11
20.785388011323448
 21
35.576641108023068
  0
LINE
  8
_0-0_
  6
CONTINUOUS
 62
    7
 10
21.045195632458672
 20
35.576641108023068
 11
21.088496902647876
 21
35.651641108022886
  0
LINE
  8
_0-0_
  6
CONTINUOUS
 62
    7
 10
21.088496902647876
 20
35.651641108022886
 11
27.208185040704393
 21
35.651641108022886
  0
LINE
  8
_0-0_
  6
CONTINUOUS
 62
    7
 10
27.561738431297726
 20
35.798087717429553
 11
28.768845212484393
 21
37.00519449861622
  0
LINE
  8
_0-0_
  6
CONTINUOUS
 62
    7
 10
28.91529182189106
 20
37.358747889209553
 11
28.91529182189106
 21
41.551641108022977
  0
LINE
  8
_0-0_
  6
CONTINUOUS
 62
    7
 10
28.41529182189106
 20
42.051641108022977
 11
26.924308816266148
 21
42.051641108022977
  0
LINE
  8
_0-0_
  6
CONTINUOUS
 62
    7
 10
26.477095220765932
 20
42.328034310272869
 11
26.068078226391208
 21
43.146068299022772
  0
LINE
  8
_0-0_
  6
CONTINUOUS
 62
    7
 10
26.015291821890969
 20
43.36967509677288
 11
26.015291821890969
 21
45.151641108022886
  0
LINE
  8
_0-0_
  6
CONTINUOUS
 62
    7
 10
26.515291821890969
 20
45.651641108022886
 11
39.41529182189106
 21
45.651641108022886
  0
LINE
  8
_0-0_
  6
CONTINUOUS
 62
    7
 10
40.91529182189106
 20
44.151641108022886
 11
40.91529182189106
 21
31.251641108022795
  0
LINE
  8
_0-0_
  6
CONTINUOUS
 62
    7
 10
40.41529182189106
 20
30.751641108022795
 11
38.633325810641054
 21
30.751641108022795
  0
LINE
  8
_0-0_
  6
CONTINUOUS
 62
    7
 10
38.409719012890946
 20
30.804427512523034
 11
37.591685024141043
 21
31.213444506898213
  0
LINE
  8
_0-0_
  6
CONTINUOUS
 62
    7
 10
37.315291821891151
 20
31.660658102397974
 11
37.315291821891151
 21
33.151641108022886
  0
LINE
  8
_0-0_
  6
CONTINUOUS
 62
    7
 10
36.815291821891151
 20
33.651641108022886
 11
32.622398603077727
 21
33.651641108022886
  0
LINE
  8
_0-0_
  6
CONTINUOUS
 62
    7
 10
32.268845212484393
 20
33.50519449861622
 11
31.061738431297726
 21
32.298087717429553
  0
LINE
  8
_0-0_
  6
CONTINUOUS
 62
    7
 10
30.91529182189106
 20
31.944534326836674
 11
30.91529182189106
 21
19.358747889209553
  0
LINE
  8
_0-0_
  6
CONTINUOUS
 62
    7
 10
31.061738431297726
 20
19.00519449861622
 11
32.268845212484393
 21
17.798087717429553
  0
LINE
  8
_0-0_
  6
CONTINUOUS
 62
    7
 10
32.622398603077727
 20
17.651641108022886
 11
36.815291821891151
 21
17.651641108022886
  0
LINE
  8
_0-0_
  6
CONTINUOUS
 62
    7
 10
37.315291821891151
 20
18.151641108022886
 11
37.315291821891151
 21
19.642624113648253
  0
LINE
  8
_0-0_
  6
CONTINUOUS
 62
    7
 10
37.591685024141043
 20
20.089837709148014
 11
38.409719012890946
 21
20.498854703522738
  0
LINE
  8
_0-0_
  6
CONTINUOUS
 62
    7
 10
38.633325810641054
 20
20.551641108022977
 11
40.41529182189106
 21
20.551641108022977
  0
LINE
  8
_0-0_
  6
CONTINUOUS
 62
    7
 10
40.91529182189106
 20
20.051641108022977
 11
40.91529182189106
 21
7.151641108023
  0
LINE
  8
_0-0_
  6
CONTINUOUS
 62
    7
 10
39.254992671462787
 20
8.5936684319777896
 11
38.807348862799699
 21
9.8235568675369223
  0
LINE
  8
_0-0_
  6
CONTINUOUS
 62
    7
 10
37.973272948199792
 20
7.3119487087147945
 11
36.743392588628467
 21
7.759591829473834
  0
LINE
  8
_0-0_
  6
CONTINUOUS
 62
    7
 10
33.087195733003227
 20
7.7595896322856106
 11
31.857321410113855
 21
7.3119487087147945
  0
LINE
  8
_0-0_
  6
CONTINUOUS
 62
    7
 10
30.575595500854888
 20
8.5936684319777896
 11
31.023237332405188
 21
9.8235514354765883
  0
LINE
  8
_0-0_
  6
CONTINUOUS
 62
    7
 10
31.02324113801842
 20
13.479738882806146
 11
30.575595500854888
 21
14.709619970063613
  0
LINE
  8
_0-0_
  6
CONTINUOUS
 62
    7
 10
31.857321410113855
 20
15.99134587932258
 11
33.087217993706417
 21
15.543703039532829
  0
LINE
  8
_0-0_
  6
CONTINUOUS
 62
    7
 10
36.743370327927551
 20
15.543700842375529
 11
37.973272948199792
 21
15.99134587932258
  0
LINE
  8
_0-0_
  6
CONTINUOUS
 62
    7
 10
39.254992671462787
 20
14.709619970063613
 11
38.80734505718101
 21
13.47973345078583
  0
LINE
  8
_0-0_
  6
CONTINUOUS
 62
    7
 10
28.815291821891151
 20
18.651641108022886
 11
28.815291821891151
 21
32.651641108022886
  0
LINE
  8
_0-0_
  6
CONTINUOUS
 62
    7
 10
28.315291821891151
 20
33.151641108022886
 11
27.166957871730574
 21
33.151641108022886
  0
LINE
  8
_0-0_
  6
CONTINUOUS
 62
    7
 10
26.733945169838535
 20
32.901641108022886
 11
25.059629389188558
 21
30.001641108022795
  0
LINE
  8
_0-0_
  6
CONTINUOUS
 62
    7
 10
24.626616687296519
 20
29.751641108022795
 11
17.203966956485601
 21
29.751641108022795
  0
LINE
  8
_0-0_
  6
CONTINUOUS
 62
    7
 10
16.770954254593562
 20
30.001641108022795
 11
15.096638473943585
 21
32.901641108022886
  0
LINE
  8
_0-0_
  6
CONTINUOUS
 62
    7
 10
14.663625772051546
 20
33.151641108022886
 11
13.515291821890969
 21
33.151641108022886
  0
LINE
  8
_0-0_
  6
CONTINUOUS
 62
    7
 10
13.015291821890969
 20
32.651641108022886
 11
13.015291821890969
 21
18.651641108022886
  0
LINE
  8
_0-0_
  6
CONTINUOUS
 62
    7
 10
13.515291821890969
 20
18.151641108022886
 11
14.663625772051546
 21
18.151641108022886
  0
LINE
  8
_0-0_
  6
CONTINUOUS
 62
    7
 10
15.096638473943585
 20
18.401641108022886
 11
16.770954254593562
 21
21.301641108022977
  0
LINE
  8
_0-0_
  6
CONTINUOUS
 62
    7
 10
17.203966956485601
 20
21.551641108022977
 11
24.626616687296519
 21
21.551641108022977
  0
LINE
  8
_0-0_
  6
CONTINUOUS
 62
    7
 10
25.059629389188558
 20
21.301641108022977
 11
26.733945169838535
 21
18.401641108022886
  0
LINE
  8
_0-0_
  6
CONTINUOUS
 62
    7
 10
27.166957871730574
 20
18.151641108022886
 11
28.315291821891151
 21
18.151641108022886
  0
LINE
  8
_0-0_
  6
CONTINUOUS
 62
    7
 10
30.575587050591366
 20
42.709622234331619
 11
31.023232087538872
 21
41.479719614059377
  0
LINE
  8
_0-0_
  6
CONTINUOUS
 62
    7
 10
31.857312959850333
 20
43.991341957594614
 11
33.08719947912823
 21
43.543694343313291
  0
LINE
  8
_0-0_
  6
CONTINUOUS
 62
    7
 10
36.743376062377138
 20
43.543698148931526
 11
37.97326449793627
 21
43.991341957594614
  0
LINE
  8
_0-0_
  6
CONTINUOUS
 62
    7
 10
39.25498422119972
 20
42.709622234331619
 11
38.807341100440226
 21
41.479741874760293
  0
LINE
  8
_0-0_
  6
CONTINUOUS
 62
    7
 10
38.807343297628904
 20
37.823545019135054
 11
39.25498422119972
 21
36.593670696245681
  0
LINE
  8
_0-0_
  6
CONTINUOUS
 62
    7
 10
37.97326449793627
 20
35.311944786986714
 11
36.743381494437926
 21
35.759586618537014
  0
LINE
  8
_0-0_
  6
CONTINUOUS
 62
    7
 10
33.087194047108369
 20
35.759590424150247
 11
31.857312959850333
 21
35.311944786986714
  0
LINE
  8
_0-0_
  6
CONTINUOUS
 62
    7
 10
30.575587050591366
 20
36.593670696245681
 11
31.023229890381572
 21
37.823567279838244
  0
LINE
  8
_0-0_
  6
CONTINUOUS
 62
    7
 10
3.8573106955827825
 20
35.311936336723193
 11
5.0872133158545694
 21
35.759581373670699
  0
LINE
  8
_0-0_
  6
CONTINUOUS
 62
    7
 10
2.5755909723193326
 20
36.593662245982159
 11
3.02323858660111
 21
37.823548765260057
  0
LINE
  8
_0-0_
  6
CONTINUOUS
 62
    7
 10
3.0232347809824205
 20
41.479725348508964
 11
2.5755909723193326
 21
42.709613784068097
  0
LINE
  8
_0-0_
  6
CONTINUOUS
 62
    7
 10
3.8573106955827825
 20
43.991333507331547
 11
5.0871910551541077
 21
43.543690386572052
  0
LINE
  8
_0-0_
  6
CONTINUOUS
 62
    7
 10
8.7433879107793473
 20
43.54369258376073
 11
9.97326223366872
 21
43.991333507331547
  0
LINE
  8
_0-0_
  6
CONTINUOUS
 62
    7
 10
11.254988142927687
 20
42.709613784068097
 11
10.807346311376932
 21
41.479730780569753
  0
LINE
  8
_0-0_
  6
CONTINUOUS
 62
    7
 10
10.8073425057637
 20
37.823543333240195
 11
11.254988142927687
 21
36.593662245982159
  0
LINE
  8
_0-0_
  6
CONTINUOUS
 62
    7
 10
9.97326223366872
 20
35.311936336723193
 11
8.7433656500757024
 21
35.759579176513398
  0
LINE
  8
_0-0_
  6
CONTINUOUS
 62
    7
 10
3.8573191458458496
 20
15.991337429059513
 11
5.0872021493441935
 21
15.543695597509213
  0
LINE
  8
_0-0_
  6
CONTINUOUS
 62
    7
 10
2.5755994225828545
 20
14.709611519800546
 11
3.0232403461532158
 21
13.479737196911287
  0
LINE
  8
_0-0_
  6
CONTINUOUS
 62
    7
 10
3.0232425433418939
 20
9.8235403412860478
 11
2.5755994225828545
 21
8.5936599817147226
  0
LINE
  8
_0-0_
  6
CONTINUOUS
 62
    7
 10
3.8573191458458496
 20
7.3119402584512727
 11
5.0872075814049822
 21
7.7595840671143606
  0
LINE
  8
_0-0_
  6
CONTINUOUS
 62
    7
 10
8.7433841646538895
 20
7.7595878727330501
 11
9.9732706839317871
 21
7.3119402584512727
  0
LINE
  8
_0-0_
  6
CONTINUOUS
 62
    7
 10
11.254996593190754
 20
8.5936599817147226
 11
10.807351556243702
 21
9.8235626019865094
  0
LINE
  8
_0-0_
  6
CONTINUOUS
 62
    7
 10
10.807353753400548
 20
13.479714936207642
 11
11.254996593190754
 21
14.709611519800546
  0
LINE
  8
_0-0_
  6
CONTINUOUS
 62
    7
 10
9.9732706839317871
 20
15.991337429059513
 11
8.7433895966742057
 21
15.543691791895526
  0
ARC
  8
_0-0_
  6
CONTINUOUS
 62
    7
 10
24.626616687296519
 20
30.251641108022795
 40
0.5
 50
270
 51
330.00000000000006
  0
ARC
  8
_0-0_
  6
CONTINUOUS
 62
    7
 10
27.166957871730574
 20
32.651641108022886
 40
0.5
 50
90
 51
149.99999999999997
  0
ARC
  8
_0-0_
  6
CONTINUOUS
 62
    7
 10
28.315291821891151
 20
32.651641108022886
 40
0.5
 50
0
 51
90
  0
ARC
  8
_0-0_
  6
CONTINUOUS
 62
    7
 10
24.626616687296519
 20
21.051641108022977
 40
0.5
 50
29.999999999999964
 51
90
  0
ARC
  8
_0-0_
  6
CONTINUOUS
 62
    7
 10
27.166957871730574
 20
18.651641108022886
 40
0.5
 50
210.00000000000003
 51
270
  0
ARC
  8
_0-0_
  6
CONTINUOUS
 62
    7
 10
28.315291821891151
 20
18.651641108022886
 40
0.5
 50
270
 51
0
  0
ARC
  8
_0-0_
  6
CONTINUOUS
 62
    7
 10
17.203966956485601
 20
30.251641108022795
 40
0.5
 50
209.99999999999997
 51
270
  0
ARC
  8
_0-0_
  6
CONTINUOUS
 62
    7
 10
14.663625772051546
 20
32.651641108022886
 40
0.5
 50
30.000000000000018
 51
90
  0
ARC
  8
_0-0_
  6
CONTINUOUS
 62
    7
 10
13.515291821890969
 20
32.651641108022886
 40
0.5
 50
90
 51
180
  0
ARC
  8
_0-0_
  6
CONTINUOUS
 62
    7
 10
17.203966956485601
 20
21.051641108022977
 40
0.5
 50
90
 51
150.00000000000003
  0
ARC
  8
_0-0_
  6
CONTINUOUS
 62
    7
 10
14.663625772051546
 20
18.651641108022886
 40
0.5
 50
270
 51
330
  0
ARC
  8
_0-0_
  6
CONTINUOUS
 62
    7
 10
13.515291821890969
 20
18.651641108022886
 40
0.5
 50
180
 51
270
  0
ARC
  8
_0-0_
  6
CONTINUOUS
 62
    7
 10
20.91529182189106
 20
15.651641108022886
 40
0.1500000000000056
 50
30.000000000000398
 51
90
  0
ARC
  8
_0-0_
  6
CONTINUOUS
 62
    7
 10
27.208185040704393
 20
15.151641108022886
 40
0.5
 50
45.00000000000005
 51
90.000000000000057
  0
ARC
  8
_0-0_
  6
CONTINUOUS
 62
    7
 10
28.41529182189106
 20
13.944534326836788
 40
0.5
 50
0
 51
45
  0
ARC
  8
_0-0_
  6
CONTINUOUS
 62
    7
 10
28.41529182189106
 20
9.7516411080229091
 40
0.5
 50
270
 51
0
  0
ARC
  8
_0-0_
  6
CONTINUOUS
 62
    7
 10
26.924308816266148
 20
8.7516411080229091
 40
0.5
 50
90
 51
153.434948822922
  0
ARC
  8
_0-0_
  6
CONTINUOUS
 62
    7
 10
26.515291821890969
 20
7.933607119273006
 40
0.5
 50
153.434948822922
 51
179.99999999999991
  0
ARC
  8
_0-0_
  6
CONTINUOUS
 62
    7
 10
26.515291821890969
 20
6.151641108023
 40
0.5
 50
180
 51
270
  0
ARC
  8
_0-0_
  6
CONTINUOUS
 62
    7
 10
39.41529182189106
 20
7.151641108023
 40
1.5
 50
270
 51
0
  0
ARC
  8
_0-0_
  6
CONTINUOUS
 62
    7
 10
31.41529182189106
 20
19.358747889209553
 40
0.5
 50
179.99999999999994
 51
224.99999999999994
  0
ARC
  8
_0-0_
  6
CONTINUOUS
 62
    7
 10
32.622398603077727
 20
18.151641108022886
 40
0.5
 50
225
 51
270
  0
ARC
  8
_0-0_
  6
CONTINUOUS
 62
    7
 10
36.815291821891151
 20
18.151641108022886
 40
0.5
 50
270
 51
0
  0
ARC
  8
_0-0_
  6
CONTINUOUS
 62
    7
 10
37.815291821891151
 20
19.642624113648253
 40
0.5
 50
116.56505117707799
 51
180
  0
ARC
  8
_0-0_
  6
CONTINUOUS
 62
    7
 10
38.633325810641054
 20
20.051641108022977
 40
0.5
 50
90
 51
116.56505117707799
  0
ARC
  8
_0-0_
  6
CONTINUOUS
 62
    7
 10
40.41529182189106
 20
20.051641108022977
 40
0.5
 50
0
 51
90
  0
ARC
  8
_0-0_
  6
CONTINUOUS
 62
    7
 10
31.41529182189106
 20
31.944534326836674
 40
0.5
 50
135.00000000000006
 51
180.00000000000006
  0
ARC
  8
_0-0_
  6
CONTINUOUS
 62
    7
 10
32.622398603077727
 20
33.151641108022886
 40
0.5
 50
90
 51
135
  0
ARC
  8
_0-0_
  6
CONTINUOUS
 62
    7
 10
36.815291821891151
 20
33.151641108022886
 40
0.5
 50
0
 51
90
  0
ARC
  8
_0-0_
  6
CONTINUOUS
 62
    7
 10
37.815291821891151
 20
31.660658102397974
 40
0.5
 50
180
 51
243.434948822922
  0
ARC
  8
_0-0_
  6
CONTINUOUS
 62
    7
 10
38.633325810641054
 20
31.251641108022795
 40
0.5
 50
243.43494882292202
 51
270
  0
ARC
  8
_0-0_
  6
CONTINUOUS
 62
    7
 10
40.41529182189106
 20
31.251641108022795
 40
0.5
 50
270
 51
0
  0
ARC
  8
_0-0_
  6
CONTINUOUS
 62
    7
 10
39.41529182189106
 20
44.151641108022886
 40
1.5
 50
0
 51
90
  0
ARC
  8
_0-0_
  6
CONTINUOUS
 62
    7
 10
20.91529182189106
 20
35.651641108022886
 40
0.1500000000000056
 50
270
 51
329.9999999999996
  0
ARC
  8
_0-0_
  6
CONTINUOUS
 62
    7
 10
27.208185040704393
 20
36.151641108022886
 40
0.5
 50
269.99999999999994
 51
314.99999999999994
  0
ARC
  8
_0-0_
  6
CONTINUOUS
 62
    7
 10
28.41529182189106
 20
37.358747889209553
 40
0.5
 50
315
 51
0
  0
ARC
  8
_0-0_
  6
CONTINUOUS
 62
    7
 10
28.41529182189106
 20
41.551641108022977
 40
0.5
 50
0
 51
90
  0
ARC
  8
_0-0_
  6
CONTINUOUS
 62
    7
 10
26.924308816266148
 20
42.551641108022977
 40
0.5
 50
206.565051177078
 51
270
  0
ARC
  8
_0-0_
  6
CONTINUOUS
 62
    7
 10
26.515291821890969
 20
43.36967509677288
 40
0.5
 50
180
 51
206.565051177078
  0
ARC
  8
_0-0_
  6
CONTINUOUS
 62
    7
 10
26.515291821890969
 20
45.151641108022886
 40
0.5
 50
90
 51
180
  0
ARC
  8
_0-0_
  6
CONTINUOUS
 62
    7
 10
17.203966956485601
 20
30.251641108022795
 40
0.5
 50
209.99999999999997
 51
270
  0
ARC
  8
_0-0_
  6
CONTINUOUS
 62
    7
 10
14.663625772051546
 20
32.651641108022886
 40
0.5
 50
30.000000000000018
 51
90
  0
ARC
  8
_0-0_
  6
CONTINUOUS
 62
    7
 10
13.515291821890969
 20
32.651641108022886
 40
0.5
 50
90
 51
180
  0
ARC
  8
_0-0_
  6
CONTINUOUS
 62
    7
 10
20.91529182189106
 20
35.651641108022886
 40
0.1500000000000056
 50
210.00000000000043
 51
270
  0
ARC
  8
_0-0_
  6
CONTINUOUS
 62
    7
 10
14.622398603077727
 20
36.151641108022886
 40
0.5
 50
225.00000000000006
 51
270.00000000000006
  0
ARC
  8
_0-0_
  6
CONTINUOUS
 62
    7
 10
13.41529182189106
 20
37.358747889209553
 40
0.5
 50
180
 51
225
  0
ARC
  8
_0-0_
  6
CONTINUOUS
 62
    7
 10
13.41529182189106
 20
41.551641108022977
 40
0.5
 50
90
 51
180
  0
ARC
  8
_0-0_
  6
CONTINUOUS
 62
    7
 10
14.906274827515972
 20
42.551641108022977
 40
0.5
 50
270
 51
333.43494882292202
  0
ARC
  8
_0-0_
  6
CONTINUOUS
 62
    7
 10
15.315291821891151
 20
43.36967509677288
 40
0.5
 50
333.43494882292202
 51
0
  0
ARC
  8
_0-0_
  6
CONTINUOUS
 62
    7
 10
15.315291821891151
 20
45.151641108022886
 40
0.5
 50
0
 51
90
  0
ARC
  8
_0-0_
  6
CONTINUOUS
 62
    7
 10
2.41529182189106
 20
44.151641108022886
 40
1.5
 50
90
 51
180
  0
ARC
  8
_0-0_
  6
CONTINUOUS
 62
    7
 10
10.41529182189106
 20
31.944534326836674
 40
0.5
 50
359.99999999999994
 51
44.99999999999995
  0
ARC
  8
_0-0_
  6
CONTINUOUS
 62
    7
 10
9.208185040704393
 20
33.151641108022886
 40
0.5
 50
45
 51
90
  0
ARC
  8
_0-0_
  6
CONTINUOUS
 62
    7
 10
5.015291821890969
 20
33.151641108022886
 40
0.5
 50
90
 51
180
  0
ARC
  8
_0-0_
  6
CONTINUOUS
 62
    7
 10
4.015291821890969
 20
31.660658102397974
 40
0.5
 50
296.56505117707798
 51
0.0000000000000127
  0
ARC
  8
_0-0_
  6
CONTINUOUS
 62
    7
 10
3.1972578331410659
 20
31.251641108022795
 40
0.5
 50
270
 51
296.56505117707798
  0
ARC
  8
_0-0_
  6
CONTINUOUS
 62
    7
 10
1.41529182189106
 20
31.251641108022795
 40
0.5
 50
180
 51
270
  0
ARC
  8
_0-0_
  6
CONTINUOUS
 62
    7
 10
10.41529182189106
 20
19.358747889209553
 40
0.5
 50
315.00000000000006
 51
0.0000000000000508
  0
ARC
  8
_0-0_
  6
CONTINUOUS
 62
    7
 10
9.208185040704393
 20
18.151641108022886
 40
0.5
 50
270
 51
315
  0
ARC
  8
_0-0_
  6
CONTINUOUS
 62
    7
 10
5.015291821890969
 20
18.151641108022886
 40
0.5
 50
180
 51
270
  0
ARC
  8
_0-0_
  6
CONTINUOUS
 62
    7
 10
4.015291821890969
 20
19.642624113648253
 40
0.5
 50
0
 51
63.43494882292201
  0
ARC
  8
_0-0_
  6
CONTINUOUS
 62
    7
 10
3.1972578331410659
 20
20.051641108022977
 40
0.5
 50
63.43494882292201
 51
90
  0
ARC
  8
_0-0_
  6
CONTINUOUS
 62
    7
 10
1.41529182189106
 20
20.051641108022977
 40
0.5
 50
90
 51
180
  0
ARC
  8
_0-0_
  6
CONTINUOUS
 62
    7
 10
2.41529182189106
 20
7.151641108023
 40
1.5
 50
180
 51
270
  0
ARC
  8
_0-0_
  6
CONTINUOUS
 62
    7
 10
20.91529182189106
 20
15.651641108022886
 40
0.1500000000000056
 50
90
 51
149.9999999999996
  0
ARC
  8
_0-0_
  6
CONTINUOUS
 62
    7
 10
14.622398603077727
 20
15.151641108022886
 40
0.5
 50
89.999999999999929
 51
134.99999999999994
  0
ARC
  8
_0-0_
  6
CONTINUOUS
 62
    7
 10
13.41529182189106
 20
13.944534326836788
 40
0.5
 50
135
 51
180
  0
ARC
  8
_0-0_
  6
CONTINUOUS
 62
    7
 10
13.41529182189106
 20
9.7516411080229091
 40
0.5
 50
180
 51
270
  0
ARC
  8
_0-0_
  6
CONTINUOUS
 62
    7
 10
14.906274827515972
 20
8.7516411080229091
 40
0.5
 50
26.565051177077994
 51
90
  0
ARC
  8
_0-0_
  6
CONTINUOUS
 62
    7
 10
15.315291821891151
 20
7.933607119273006
 40
0.5
 50
0
 51
26.565051177077994
  0
ARC
  8
_0-0_
  6
CONTINUOUS
 62
    7
 10
15.315291821891151
 20
6.151641108023
 40
0.5
 50
270
 51
0
  0
ARC
  8
_0-0_
  6
CONTINUOUS
 62
    7
 10
38.315296643037072
 20
15.051649850896865
 40
1.0000000128874909
 50
339.9998779296875
 51
110.0001220703125
  0
ARC
  8
_0-0_
  6
CONTINUOUS
 62
    7
 10
31.515291529280603
 20
15.051649850896865
 40
1.0000000128874909
 50
69.9998779296875
 51
200.0001220703125
  0
ARC
  8
_0-0_
  6
CONTINUOUS
 62
    7
 10
31.515291529280603
 20
8.2516385511449926
 40
1.0000000128874909
 50
159.9998779296875
 51
290.0001220703125
  0
ARC
  8
_0-0_
  6
CONTINUOUS
 62
    7
 10
38.315296643037072
 20
8.2516385511449926
 40
1.0000000128874909
 50
249.9998779296875
 51
20.0001220703125
  0
ARC
  8
_0-0_
  6
CONTINUOUS
 62
    7
 10
34.91529182189106
 20
11.651641108023
 40
4.2999999999999998
 50
334.84073616514797
 51
25.159383110206942
  0
ARC
  8
_0-0_
  6
CONTINUOUS
 62
    7
 10
34.91529182189106
 20
11.651641108023
 40
4.2999999999999998
 50
244.84056174223963
 51
295.1595071214665
  0
ARC
  8
_0-0_
  6
CONTINUOUS
 62
    7
 10
34.91529182189106
 20
11.651641108023
 40
4.2999999999999998
 50
154.8405369237941
 51
205.15934380136781
  0
ARC
  8
_0-0_
  6
CONTINUOUS
 62
    7
 10
34.91529182189106
 20
11.651641108023
 40
4.2999999999999998
 50
64.840820583141806
 51
115.1591105532965
  0
ARC
  8
_0-0_
  6
CONTINUOUS
 62
    7
 10
31.515283079017536
 20
43.051645929168899
 40
1.0000000128874909
 50
69.9998779296875
 51
200.0001220703125
  0
ARC
  8
_0-0_
  6
CONTINUOUS
 62
    7
 10
31.515283079017536
 20
36.251640815412429
 40
1.0000000128874909
 50
159.9998779296875
 51
290.0001220703125
  0
ARC
  8
_0-0_
  6
CONTINUOUS
 62
    7
 10
38.315294378769522
 20
36.251640815412429
 40
1.0000000128874909
 50
249.9998779296875
 51
20.0001220703125
  0
ARC
  8
_0-0_
  6
CONTINUOUS
 62
    7
 10
38.315294378769522
 20
43.051645929168899
 40
1.0000000128874909
 50
339.9998779296875
 51
110.0001220703125
  0
ARC
  8
_0-0_
  6
CONTINUOUS
 62
    7
 10
34.91529182189106
 20
39.651641108022886
 40
4.2999999999999998
 50
64.840736165147945
 51
115.15938311020692
  0
ARC
  8
_0-0_
  6
CONTINUOUS
 62
    7
 10
34.91529182189106
 20
39.651641108022886
 40
4.2999999999999998
 50
334.84056174223963
 51
25.159507121466508
  0
ARC
  8
_0-0_
  6
CONTINUOUS
 62
    7
 10
34.91529182189106
 20
39.651641108022886
 40
4.2999999999999998
 50
244.8405369237941
 51
295.15934380136781
  0
ARC
  8
_0-0_
  6
CONTINUOUS
 62
    7
 10
34.91529182189106
 20
39.651641108022886
 40
4.2999999999999998
 50
154.84082058314181
 51
205.15911055329647
  0
ARC
  8
_0-0_
  6
CONTINUOUS
 62
    7
 10
3.5152870007450474
 20
36.251632365149362
 40
1.0000000128874909
 50
159.9998779296875
 51
290.0001220703125
  0
ARC
  8
_0-0_
  6
CONTINUOUS
 62
    7
 10
10.315292114501517
 20
36.251632365149362
 40
1.0000000128874909
 50
249.9998779296875
 51
20.0001220703125
  0
ARC
  8
_0-0_
  6
CONTINUOUS
 62
    7
 10
10.315292114501517
 20
43.051643664901349
 40
1.0000000128874909
 50
339.9998779296875
 51
110.00012207031244
  0
ARC
  8
_0-0_
  6
CONTINUOUS
 62
    7
 10
3.5152870007450474
 20
43.051643664901349
 40
1.0000000128874909
 50
69.9998779296875
 51
200.0001220703125
  0
ARC
  8
_0-0_
  6
CONTINUOUS
 62
    7
 10
6.91529182189106
 20
39.651641108022886
 40
4.2999999999999998
 50
154.84073616514794
 51
205.15938311020693
  0
ARC
  8
_0-0_
  6
CONTINUOUS
 62
    7
 10
6.91529182189106
 20
39.651641108022886
 40
4.2999999999999998
 50
64.840561742239601
 51
115.15950712146648
  0
ARC
  8
_0-0_
  6
CONTINUOUS
 62
    7
 10
6.91529182189106
 20
39.651641108022886
 40
4.2999999999999998
 50
334.8405369237941
 51
25.159343801367815
  0
ARC
  8
_0-0_
  6
CONTINUOUS
 62
    7
 10
6.91529182189106
 20
39.651641108022886
 40
4.2999999999999998
 50
244.84082058314181
 51
295.15911055329644
  0
ARC
  8
_0-0_
  6
CONTINUOUS
 62
    7
 10
10.315300564764584
 20
8.2516362868774422
 40
1.0000000128874909
 50
249.9998779296875
 51
20.0001220703125
  0
ARC
  8
_0-0_
  6
CONTINUOUS
 62
    7
 10
10.315300564764584
 20
15.051641400633343
 40
1.0000000128874909
 50
339.9998779296875
 51
110.0001220703125
  0
ARC
  8
_0-0_
  6
CONTINUOUS
 62
    7
 10
3.5152892650130525
 20
15.051641400633343
 40
1.0000000128874909
 50
69.9998779296875
 51
200.0001220703125
  0
ARC
  8
_0-0_
  6
CONTINUOUS
 62
    7
 10
3.5152892650130525
 20
8.2516362868774422
 40
1.0000000128874909
 50
159.9998779296875
 51
290.0001220703125
  0
ARC
  8
_0-0_
  6
CONTINUOUS
 62
    7
 10
6.91529182189106
 20
11.651641108023
 40
4.2999999999999998
 50
244.84073616514792
 51
295.15938311020693
  0
ARC
  8
_0-0_
  6
CONTINUOUS
 62
    7
 10
6.91529182189106
 20
11.651641108023
 40
4.2999999999999998
 50
154.8405617422396
 51
205.15950712146648
  0
ARC
  8
_0-0_
  6
CONTINUOUS
 62
    7
 10
6.91529182189106
 20
11.651641108023
 40
4.2999999999999998
 50
64.840536923794119
 51
115.15934380136781
  0
ARC
  8
_0-0_
  6
CONTINUOUS
 62
    7
 10
6.91529182189106
 20
11.651641108023
 40
4.2999999999999998
 50
334.84082058314181
 51
25.159110553296493
  0
LINE
  8
_0-1_
  6
CENTER1
 62
  152
 10
28.91529182189106
 20
39.651641108022886
 11
40.91529182189106
 21
39.651641108022886
  0
LINE
  8
_0-1_
  6
CENTER1
 62
  152
 10
34.91529182189106
 20
45.651641108022886
 11
34.91529182189106
 21
33.651641108022886
  0
LINE
  8
_0-1_
  6
CENTER1
 62
  152
 10
20.91529182189106
 20
5.651641108023
 11
20.91529182189106
 21
45.651641108022886
  0
LINE
  8
_0-1_
  6
CENTER1
 62
  152
 10
40.91529182189106
 20
25.651641108022886
 11
0.9152918218910599
 21
25.651641108022886
  0
LINE
  8
_0-1_
  6
CENTER1
 62
  152
 10
12.91529182189106
 20
39.651641108022886
 11
0.9152918218910599
 21
39.651641108022886
  0
LINE
  8
_0-1_
  6
CENTER1
 62
  152
 10
6.91529182189106
 20
33.651641108022886
 11
6.91529182189106
 21
45.651641108022886
  0
LINE
  8
_0-1_
  6
CENTER1
 62
  152
 10
6.91529182189106
 20
17.651641108022886
 11
6.91529182189106
 21
5.651641108023
  0
LINE
  8
_0-1_
  6
CENTER1
 62
  152
 10
12.91529182189106
 20
11.651641108023
 11
0.9152918218910599
 21
11.651641108023
  0
LINE
  8
_0-1_
  6
CENTER1
 62
  152
 10
40.91529182189106
 20
11.651641108023
 11
28.91529182189106
 21
11.651641108023
  0
LINE
  8
_0-1_
  6
CENTER1
 62
  152
 10
34.91529182189106
 20
17.651641108022886
 11
34.91529182189106
 21
5.651641108023
  0
ENDSEC
  0
EOF
